  0
SECTION
  2
HEADER
  9
$ACADVER
  1
AC1012
  9
$DWGCODEPAGE
  3
dos932
  9
$INSBASE
 10
0.0
 20
0.0
 30
0.0
  9
$EXTMIN
 10
-2568.441462460967
 20
-4255.509679096952
 30
0.0
  9
$EXTMAX
 10
2672.327319740065
 20
3357.418402911109
 30
0.0
  9
$LIMMIN
 10
0.0
 20
0.0
  9
$LIMMAX
 10
420.0
 20
297.0
  9
$ORTHOMODE
 70
     0
  9
$REGENMODE
 70
     1
  9
$FILLMODE
 70
     1
  9
$QTEXTMODE
 70
     0
  9
$MIRRTEXT
 70
     1
  9
$DRAGMODE
 70
     2
  9
$LTSCALE
 40
1.0
  9
$OSMODE
 70
    37
  9
$ATTMODE
 70
     1
  9
$TEXTSIZE
 40
2.5
  9
$TRACEWID
 40
1.0
  9
$TEXTSTYLE
  7
STANDARD
  9
$CLAYER
  8
0
  9
$CELTYPE
  6
BYLAYER
  9
$CECOLOR
 62
   256
  9
$CELTSCALE
 40
1.0
  9
$DELOBJ
 70
     1
  9
$DISPSILH
 70
     0
  9
$DIMSCALE
 40
1.0
  9
$DIMASZ
 40
2.5
  9
$DIMEXO
 40
0.625
  9
$DIMDLI
 40
3.75
  9
$DIMRND
 40
0.0
  9
$DIMDLE
 40
0.0
  9
$DIMEXE
 40
1.25
  9
$DIMTP
 40
0.0
  9
$DIMTM
 40
0.0
  9
$DIMTXT
 40
2.5
  9
$DIMCEN
 40
2.5
  9
$DIMTSZ
 40
0.0
  9
$DIMTOL
 70
     0
  9
$DIMLIM
 70
     0
  9
$DIMTIH
 70
     0
  9
$DIMTOH
 70
     0
  9
$DIMSE1
 70
     0
  9
$DIMSE2
 70
     0
  9
$DIMTAD
 70
     1
  9
$DIMZIN
 70
     8
  9
$DIMBLK
  1

  9
$DIMASO
 70
     1
  9
$DIMSHO
 70
     1
  9
$DIMPOST
  1

  9
$DIMAPOST
  1

  9
$DIMALT
 70
     0
  9
$DIMALTD
 70
     3
  9
$DIMALTF
 40
0.03937007874016
  9
$DIMLFAC
 40
1.0
  9
$DIMTOFL
 70
     1
  9
$DIMTVP
 40
0.0
  9
$DIMTIX
 70
     0
  9
$DIMSOXD
 70
     0
  9
$DIMSAH
 70
     0
  9
$DIMBLK1
  1

  9
$DIMBLK2
  1

  9
$DIMSTYLE
  2
ISO-25
  9
$DIMCLRD
 70
     0
  9
$DIMCLRE
 70
     0
  9
$DIMCLRT
 70
     0
  9
$DIMTFAC
 40
1.0
  9
$DIMGAP
 40
0.625
  9
$DIMJUST
 70
     0
  9
$DIMSD1
 70
     0
  9
$DIMSD2
 70
     0
  9
$DIMTOLJ
 70
     0
  9
$DIMTZIN
 70
     8
  9
$DIMALTZ
 70
     0
  9
$DIMALTTZ
 70
     0
  9
$DIMFIT
 70
     3
  9
$DIMUPT
 70
     0
  9
$DIMUNIT
 70
     2
  9
$DIMDEC
 70
     2
  9
$DIMTDEC
 70
     2
  9
$DIMALTU
 70
     2
  9
$DIMALTTD
 70
     3
  9
$DIMTXSTY
  7
STANDARD
  9
$DIMAUNIT
 70
     0
  9
$LUNITS
 70
     2
  9
$LUPREC
 70
     4
  9
$SKETCHINC
 40
1.0
  9
$FILLETRAD
 40
10.0
  9
$AUNITS
 70
     0
  9
$AUPREC
 70
     0
  9
$MENU
  1
.
  9
$ELEVATION
 40
0.0
  9
$PELEVATION
 40
0.0
  9
$THICKNESS
 40
0.0
  9
$LIMCHECK
 70
     0
  9
$BLIPMODE
 70
     0
  9
$CHAMFERA
 40
10.0
  9
$CHAMFERB
 40
10.0
  9
$CHAMFERC
 40
20.0
  9
$CHAMFERD
 40
0.0
  9
$SKPOLY
 70
     0
  9
$TDCREATE
 40
2456288.663166354
  9
$TDUPDATE
 40
2456303.480062766
  9
$TDINDWG
 40
0.0463407060
  9
$TDUSRTIMER
 40
0.0463407060
  9
$USRTIMER
 70
     1
  9
$ANGBASE
 50
0.0
  9
$ANGDIR
 70
     0
  9
$PDMODE
 70
     3
  9
$PDSIZE
 40
10.0
  9
$PLINEWID
 40
0.0
  9
$COORDS
 70
     2
  9
$SPLFRAME
 70
     0
  9
$SPLINETYPE
 70
     6
  9
$SPLINESEGS
 70
     8
  9
$ATTDIA
 70
     0
  9
$ATTREQ
 70
     1
  9
$HANDLING
 70
 22529
  9
$HANDSEED
  5
1ABF
  9
$SURFTAB1
 70
     6
  9
$SURFTAB2
 70
     6
  9
$SURFTYPE
 70
     6
  9
$SURFU
 70
     6
  9
$SURFV
 70
     6
  9
$UCSNAME
  2

  9
$UCSORG
 10
0.0
 20
0.0
 30
0.0
  9
$UCSXDIR
 10
1.0
 20
0.0
 30
0.0
  9
$UCSYDIR
 10
0.0
 20
1.0
 30
0.0
  9
$PUCSNAME
  2

  9
$PUCSORG
 10
0.0
 20
0.0
 30
0.0
  9
$PUCSXDIR
 10
1.0
 20
0.0
 30
0.0
  9
$PUCSYDIR
 10
0.0
 20
1.0
 30
0.0
  9
$USERI1
 70
     0
  9
$USERI2
 70
     0
  9
$USERI3
 70
     0
  9
$USERI4
 70
     0
  9
$USERI5
 70
     0
  9
$USERR1
 40
0.0
  9
$USERR2
 40
0.0
  9
$USERR3
 40
0.0
  9
$USERR4
 40
0.0
  9
$USERR5
 40
0.0
  9
$WORLDVIEW
 70
     1
  9
$SHADEDGE
 70
     3
  9
$SHADEDIF
 70
    70
  9
$TILEMODE
 70
     1
  9
$MAXACTVP
 70
    64
  9
$PINSBASE
 10
0.0
 20
0.0
 30
0.0
  9
$PLIMCHECK
 70
     0
  9
$PEXTMIN
 10
1.000000000000000E+20
 20
1.000000000000000E+20
 30
1.000000000000000E+20
  9
$PEXTMAX
 10
-1.000000000000000E+20
 20
-1.000000000000000E+20
 30
-1.000000000000000E+20
  9
$PLIMMIN
 10
0.0
 20
0.0
  9
$PLIMMAX
 10
420.0
 20
297.0
  9
$UNITMODE
 70
     0
  9
$VISRETAIN
 70
     1
  9
$PLINEGEN
 70
     0
  9
$PSLTSCALE
 70
     1
  9
$TREEDEPTH
 70
  3020
  9
$PICKSTYLE
 70
     1
  9
$CMLSTYLE
  2
STANDARD
  9
$CMLJUST
 70
     0
  9
$CMLSCALE
 40
20.0
  9
$SAVEIMAGES
 70
     1
  0
ENDSEC
  0
SECTION
  2
CLASSES
  0
CLASS
  1
ACDBDICTIONARYWDFLT
  2
AcDbDictionaryWithDefault
  3
AutoCAD 2000
 90
    32768
280
     0
281
     0
  0
CLASS
  1
ACDBPLACEHOLDER
  2
AcDbPlaceHolder
  3
AutoCAD 2000
 90
    32768
280
     0
281
     0
  0
CLASS
  1
LAYOUT
  2
AcDbLayout
  3
AutoCAD 2000
 90
    32768
280
     0
281
     0
  0
CLASS
  1
SORTENTSTABLE
  2
AcDbSortentsTable
  3
AutoCAD 2000
 90
    32768
280
     0
281
     0
  0
CLASS
  1
DICTIONARYVAR
  2
AcDbDictionaryVar
  3
AutoCAD 2000
 90
    32768
280
     0
281
     0
  0
CLASS
  1
LONG_TRANSACTION
  2
AcDbLongTransaction
  3
AutoCAD 2000
 90
    32768
280
     0
281
     0
  0
CLASS
  1
LWPOLYLINE
  2
AcDbPolyline
  3
AutoCAD 2000
 90
    32768
280
     0
281
     1
  0
CLASS
  1
HATCH
  2
AcDbHatch
  3
AutoCAD 2000
 90
    32768
280
     0
281
     1
  0
CLASS
  1
XRECORD
  2
AcDbXrecord
  3
AutoCAD 2000
 90
    32768
280
     0
281
     0
  0
ENDSEC
  0
SECTION
  2
TABLES
  0
TABLE
  2
VPORT
  5
8
330
0
100
AcDbSymbolTable
 70
     3
  0
VPORT
  5
1A38
330
8
100
AcDbSymbolTableRecord
100
AcDbViewportTableRecord
  2
*ACTIVE
 70
     0
 10
0.0
 20
0.0
 11
1.0
 21
1.0
 12
-797.7068589641585
 22
-516.2814399195759
 13
0.0
 23
0.0
 14
10.0
 24
10.0
 15
10.0
 25
10.0
 16
0.0
 26
0.0
 36
1.0
 17
0.0
 27
0.0
 37
0.0
 40
7856.57972195942
 41
1.207301173402868
 42
50.0
 43
0.0
 44
0.0
 50
0.0
 51
0.0
 71
     0
 72
   100
 73
     1
 74
     3
 75
     0
 76
     0
 77
     0
 78
     0
  0
ENDTAB
  0
TABLE
  2
LTYPE
  5
5
330
0
100
AcDbSymbolTable
 70
     4
  0
LTYPE
  5
14
330
5
100
AcDbSymbolTableRecord
100
AcDbLinetypeTableRecord
  2
BYBLOCK
 70
     0
  3

 72
    65
 73
     0
 40
0.0
  0
LTYPE
  5
15
330
5
100
AcDbSymbolTableRecord
100
AcDbLinetypeTableRecord
  2
BYLAYER
 70
     0
  3

 72
    65
 73
     0
 40
0.0
  0
LTYPE
  5
16
330
5
100
AcDbSymbolTableRecord
100
AcDbLinetypeTableRecord
  2
CONTINUOUS
 70
     0
  3
Solid line
 72
    65
 73
     0
 40
0.0
  0
LTYPE
  5
35
330
5
100
AcDbSymbolTableRecord
100
AcDbLinetypeTableRecord
  2
CENTERX2
 70
     0
  3
Center (2x) ________  __  ________  __  _____
 72
    65
 73
     4
 40
4.0
 49
2.5
 74
     0
 49
-0.5
 74
     0
 49
0.5
 74
     0
 49
-0.5
 74
     0
  0
LTYPE
  5
36
330
5
100
AcDbSymbolTableRecord
100
AcDbLinetypeTableRecord
  2
HIDDEN
 70
     0
  3
Hidden __ __ __ __ __ __ __ __ __ __ __ __ __ _
 72
    65
 73
     2
 40
0.375
 49
0.25
 74
     0
 49
-0.125
 74
     0
  0
LTYPE
  5
37
330
5
100
AcDbSymbolTableRecord
100
AcDbLinetypeTableRecord
  2
PHANTOM
 70
     0
  3
Phantom ______  __  __  ______  __  __  ______
 72
    65
 73
     6
 40
2.5
 49
1.25
 74
     0
 49
-0.25
 74
     0
 49
0.25
 74
     0
 49
-0.25
 74
     0
 49
0.25
 74
     0
 49
-0.25
 74
     0
  0
ENDTAB
  0
TABLE
  2
LAYER
  5
2
102
{ACAD_XDICTIONARY
360
2B
102
}
330
0
100
AcDbSymbolTable
 70
     9
  0
LAYER
  5
10
330
2
100
AcDbSymbolTableRecord
100
AcDbLayerTableRecord
  2
0
 70
     0
 62
     7
  6
CONTINUOUS
  0
LAYER
  5
38
330
2
100
AcDbSymbolTableRecord
100
AcDbLayerTableRecord
  2
OUTLINE
 70
     0
 62
     3
  6
CONTINUOUS
  0
LAYER
  5
39
330
2
100
AcDbSymbolTableRecord
100
AcDbLayerTableRecord
  2
ARRANGE
 70
     0
 62
     1
  6
CONTINUOUS
  0
LAYER
  5
3A
330
2
100
AcDbSymbolTableRecord
100
AcDbLayerTableRecord
  2
FIX
 70
     0
 62
    11
  6
CONTINUOUS
  0
LAYER
  5
3B
330
2
100
AcDbSymbolTableRecord
100
AcDbLayerTableRecord
  2
SIZE
 70
     0
 62
    30
  6
CONTINUOUS
  0
LAYER
  5
3C
330
2
100
AcDbSymbolTableRecord
100
AcDbLayerTableRecord
  2
NOTE
 70
     0
 62
     4
  6
CONTINUOUS
  0
LAYER
  5
3D
330
2
100
AcDbSymbolTableRecord
100
AcDbLayerTableRecord
  2
BASIS
 70
     0
 62
     6
  6
CENTERX2
  0
LAYER
  5
3E
330
2
100
AcDbSymbolTableRecord
100
AcDbLayerTableRecord
  2
DETAIL
 70
     0
 62
     5
  6
CONTINUOUS
  0
LAYER
  5
3F
330
2
100
AcDbSymbolTableRecord
100
AcDbLayerTableRecord
  2
SERVICESPACE
 70
     0
 62
     2
  6
CONTINUOUS
  0
ENDTAB
  0
TABLE
  2
STYLE
  5
3
330
0
100
AcDbSymbolTable
 70
     2
  0
STYLE
  5
11
330
3
100
AcDbSymbolTableRecord
100
AcDbTextStyleTableRecord
  2
STANDARD
 70
     0
 40
0.0
 41
1.0
 50
0.0
 71
     0
 42
2.5
  3
txt.shx
  4
bigfont.shx
  0
STYLE
  5
40
330
3
100
AcDbSymbolTableRecord
100
AcDbTextStyleTableRecord
  2
KAIGAI
 70
     0
 40
40.0
 41
1.0
 50
0.0
 71
     0
 42
2.5
  3
ARIAL.TTF
  4

1001
ACAD
1000
Arial
1071
       34
  0
ENDTAB
  0
TABLE
  2
VIEW
  5
6
330
0
100
AcDbSymbolTable
 70
     0
  0
ENDTAB
  0
TABLE
  2
UCS
  5
7
330
0
100
AcDbSymbolTable
 70
     0
  0
ENDTAB
  0
TABLE
  2
APPID
  5
9
330
0
100
AcDbSymbolTable
 70
     1
  0
APPID
  5
12
330
9
100
AcDbSymbolTableRecord
100
AcDbRegAppTableRecord
  2
ACAD
 70
     0
  0
ENDTAB
  0
TABLE
  2
DIMSTYLE
  5
A
330
0
100
AcDbSymbolTable
 70
     1
  0
DIMSTYLE
105
27
330
A
100
AcDbSymbolTableRecord
100
AcDbDimStyleTableRecord
  2
ISO-25
 70
     0
  3

  4

  5

  6

  7

 40
1.0
 41
2.5
 42
0.625
 43
3.75
 44
1.25
 45
0.0
 46
0.0
 47
0.0
 48
0.0
140
2.5
141
2.5
142
0.0
143
0.03937007874016
144
1.0
145
0.0
146
1.0
147
0.625
 71
     0
 72
     0
 73
     0
 74
     0
 75
     0
 76
     0
 77
     1
 78
     8
170
     0
171
     3
172
     1
173
     0
174
     0
175
     0
176
     0
177
     0
178
     0
270
     2
271
     2
272
     2
273
     2
274
     3
340
11
275
     0
280
     0
281
     0
282
     0
283
     0
284
     8
285
     0
286
     0
287
     3
288
     0
  0
ENDTAB
  0
TABLE
  2
BLOCK_RECORD
  5
1
330
0
100
AcDbSymbolTable
 70
     1
  0
BLOCK_RECORD
  5
1F
102
{ACAD_XDICTIONARY
360
BA9
102
}
330
1
100
AcDbSymbolTableRecord
100
AcDbBlockTableRecord
  2
*MODEL_SPACE
  0
BLOCK_RECORD
  5
1B
102
{ACAD_XDICTIONARY
360
1A39
102
}
330
1
100
AcDbSymbolTableRecord
100
AcDbBlockTableRecord
  2
*PAPER_SPACE
  0
ENDTAB
  0
ENDSEC
  0
SECTION
  2
BLOCKS
  0
BLOCK
  5
20
330
1F
100
AcDbEntity
  8
0
100
AcDbBlockBegin
  2
*MODEL_SPACE
 70
     0
 10
0.0
 20
0.0
 30
0.0
  3
*MODEL_SPACE
  1

  0
ENDBLK
  5
21
330
1F
100
AcDbEntity
  8
0
100
AcDbBlockEnd
  0
BLOCK
  5
1C
330
1B
100
AcDbEntity
 67
     1
  8
0
100
AcDbBlockBegin
  2
*PAPER_SPACE
 70
     0
 10
0.0
 20
0.0
 30
0.0
  3
*PAPER_SPACE
  1

  0
ENDBLK
  5
1D
330
1B
100
AcDbEntity
 67
     1
  8
0
100
AcDbBlockEnd
  0
ENDSEC
  0
SECTION
  2
ENTITIES
  0
LINE
  5
1170
330
1F
100
AcDbEntity
  8
OUTLINE
  6
CONTINUOUS
100
AcDbLine
 10
-335.0000000000018
 20
-1986.748001403059
 30
0.0
 11
334.9999999999963
 21
-1986.748001403059
 31
0.0
  0
LINE
  5
1171
330
1F
100
AcDbEntity
  8
OUTLINE
  6
CONTINUOUS
100
AcDbLine
 10
-430.0000000000018
 20
-1956.748001403059
 30
0.0
 11
-430.0000000000018
 21
-1944.748001403055
 31
0.0
  0
LINE
  5
1172
330
1F
100
AcDbEntity
  8
OUTLINE
  6
CONTINUOUS
100
AcDbLine
 10
-430.0000000000018
 20
-1944.748001403055
 30
0.0
 11
429.9999999999963
 21
-1944.748001403059
 31
0.0
  0
LINE
  5
1173
330
1F
100
AcDbEntity
  8
OUTLINE
  6
CONTINUOUS
100
AcDbLine
 10
429.9999999999963
 20
-1944.748001403059
 30
0.0
 11
429.9999999999963
 21
-1956.748001403061
 31
0.0
  0
LINE
  5
1174
330
1F
100
AcDbEntity
  8
OUTLINE
100
AcDbLine
 10
-475.0000000000036
 20
-1956.748001403059
 30
0.0
 11
-475.0000000000036
 21
-1963.748001403059
 31
0.0
  0
LINE
  5
1175
330
1F
100
AcDbEntity
  8
OUTLINE
100
AcDbLine
 10
-475.0000000000036
 20
-1963.748001403059
 30
0.0
 11
-420.0000000000017
 21
-1971.748001403059
 31
0.0
  0
LINE
  5
1176
330
1F
100
AcDbEntity
  8
OUTLINE
100
AcDbLine
 10
474.9999999999982
 20
-1956.748001403062
 30
0.0
 11
474.9999999999982
 21
-1963.748001403063
 31
0.0
  0
LINE
  5
1177
330
1F
100
AcDbEntity
  8
OUTLINE
100
AcDbLine
 10
474.9999999999982
 20
-1963.748001403063
 30
0.0
 11
419.9999999999963
 21
-1971.748001403062
 31
0.0
  0
LINE
  5
1178
330
1F
100
AcDbEntity
  8
OUTLINE
100
AcDbLine
 10
420.0000000000182
 20
-1971.748001403059
 30
0.0
 11
-420.0000000000017
 21
-1971.748001403059
 31
0.0
  0
LINE
  5
1179
330
1F
100
AcDbEntity
  8
OUTLINE
100
AcDbLine
 10
-345.0
 20
-1971.748001403059
 30
0.0
 11
-345.0
 21
-1986.748001403059
 31
0.0
  0
LINE
  5
117A
330
1F
100
AcDbEntity
  8
OUTLINE
100
AcDbLine
 10
-345.0
 20
-1986.748001403059
 30
0.0
 11
345.0
 21
-1986.748001403059
 31
0.0
  0
LINE
  5
117B
330
1F
100
AcDbEntity
  8
OUTLINE
100
AcDbLine
 10
345.0
 20
-1986.748001403059
 30
0.0
 11
345.0
 21
-1971.748001403059
 31
0.0
  0
LINE
  5
117C
330
1F
100
AcDbEntity
  8
OUTLINE
100
AcDbLine
 10
474.9999999999982
 20
-1956.748001403062
 30
0.0
 11
-475.0000000000036
 21
-1956.748001403059
 31
0.0
  0
LINE
  5
117D
330
1F
100
AcDbEntity
  8
OUTLINE
  6
CONTINUOUS
100
AcDbLine
 10
419.9999999999963
 20
-1944.748001403059
 30
0.0
 11
419.9999999999963
 21
-1637.74800140306
 31
0.0
  0
LINE
  5
117E
330
1F
100
AcDbEntity
  8
OUTLINE
  6
CONTINUOUS
100
AcDbLine
 10
419.9999999999963
 20
-1637.74800140306
 30
0.0
 11
-420.0000000000017
 21
-1637.748001403059
 31
0.0
  0
LINE
  5
117F
330
1F
100
AcDbEntity
  8
OUTLINE
  6
CONTINUOUS
100
AcDbLine
 10
-420.0000000000017
 20
-1637.748001403059
 30
0.0
 11
-420.0000000000017
 21
-1944.748001403055
 31
0.0
  0
LINE
  5
1180
330
1F
100
AcDbEntity
  8
OUTLINE
  6
CONTINUOUS
100
AcDbLine
 10
-334.9999999999981
 20
3164.938685239572
 30
0.0
 11
335.0
 21
3164.938685239567
 31
0.0
  0
LINE
  5
1181
330
1F
100
AcDbEntity
  8
OUTLINE
  6
CONTINUOUS
100
AcDbLine
 10
-429.9999999999982
 20
3134.938685239573
 30
0.0
 11
-429.9999999999982
 21
3122.938685239569
 31
0.0
  0
LINE
  5
1182
330
1F
100
AcDbEntity
  8
OUTLINE
  6
CONTINUOUS
100
AcDbLine
 10
-429.9999999999982
 20
3122.938685239569
 30
0.0
 11
430.0
 21
3122.938685239567
 31
0.0
  0
LINE
  5
1183
330
1F
100
AcDbEntity
  8
OUTLINE
  6
CONTINUOUS
100
AcDbLine
 10
430.0
 20
3122.938685239567
 30
0.0
 11
430.0
 21
3134.938685239569
 31
0.0
  0
LINE
  5
1184
330
1F
100
AcDbEntity
  8
OUTLINE
100
AcDbLine
 10
-475.0
 20
3134.938685239573
 30
0.0
 11
-475.0
 21
3141.938685239573
 31
0.0
  0
LINE
  5
1185
330
1F
100
AcDbEntity
  8
OUTLINE
100
AcDbLine
 10
-475.0
 20
3141.938685239573
 30
0.0
 11
-419.9999999999981
 21
3149.938685239573
 31
0.0
  0
LINE
  5
1186
330
1F
100
AcDbEntity
  8
OUTLINE
100
AcDbLine
 10
475.0000000000018
 20
3134.938685239571
 30
0.0
 11
475.0000000000018
 21
3141.938685239571
 31
0.0
  0
LINE
  5
1187
330
1F
100
AcDbEntity
  8
OUTLINE
100
AcDbLine
 10
475.0000000000018
 20
3141.938685239571
 30
0.0
 11
420.0
 21
3149.93868523957
 31
0.0
  0
LINE
  5
1188
330
1F
100
AcDbEntity
  8
OUTLINE
100
AcDbLine
 10
420.0000000000218
 20
3149.938685239567
 30
0.0
 11
-419.9999999999981
 21
3149.938685239573
 31
0.0
  0
LINE
  5
1189
330
1F
100
AcDbEntity
  8
OUTLINE
100
AcDbLine
 10
-344.9999999999963
 20
3149.938685239573
 30
0.0
 11
-344.9999999999963
 21
3164.938685239572
 31
0.0
  0
LINE
  5
118A
330
1F
100
AcDbEntity
  8
OUTLINE
100
AcDbLine
 10
-344.9999999999963
 20
3164.938685239572
 30
0.0
 11
345.0000000000036
 21
3164.938685239567
 31
0.0
  0
LINE
  5
118B
330
1F
100
AcDbEntity
  8
OUTLINE
100
AcDbLine
 10
345.0000000000036
 20
3164.938685239567
 30
0.0
 11
345.0000000000036
 21
3149.938685239567
 31
0.0
  0
LINE
  5
118C
330
1F
100
AcDbEntity
  8
OUTLINE
100
AcDbLine
 10
475.0000000000018
 20
3134.938685239571
 30
0.0
 11
-475.0
 21
3134.938685239573
 31
0.0
  0
LINE
  5
118D
330
1F
100
AcDbEntity
  8
OUTLINE
  6
CONTINUOUS
100
AcDbLine
 10
420.0
 20
3122.938685239567
 30
0.0
 11
419.9999999999981
 21
2815.938685239569
 31
0.0
  0
LINE
  5
118E
330
1F
100
AcDbEntity
  8
OUTLINE
  6
CONTINUOUS
100
AcDbLine
 10
419.9999999999981
 20
2815.938685239569
 30
0.0
 11
-420.0
 21
2815.93868523957
 31
0.0
  0
LINE
  5
118F
330
1F
100
AcDbEntity
  8
OUTLINE
  6
CONTINUOUS
100
AcDbLine
 10
-420.0
 20
2815.93868523957
 30
0.0
 11
-419.9999999999981
 21
3122.938685239569
 31
0.0
  0
LINE
  5
1190
330
1F
100
AcDbEntity
  8
OUTLINE
100
AcDbLine
 10
2503.987319740066
 20
-345.0000000000041
 30
0.0
 11
2503.987319740066
 21
344.9999999999956
 31
0.0
  0
LINE
  5
1191
330
1F
100
AcDbEntity
  8
OUTLINE
100
AcDbLine
 10
2473.987319740066
 20
-475.0000000000077
 30
0.0
 11
2480.987319740066
 21
-475.0000000000077
 31
0.0
  0
LINE
  5
1192
330
1F
100
AcDbEntity
  8
OUTLINE
100
AcDbLine
 10
2480.987319740066
 20
-475.0000000000077
 30
0.0
 11
2488.987319740067
 21
-420.0000000000058
 31
0.0
  0
LINE
  5
1193
330
1F
100
AcDbEntity
  8
OUTLINE
100
AcDbLine
 10
2473.98731974007
 20
474.9999999999938
 30
0.0
 11
2480.98731974007
 21
474.9999999999938
 31
0.0
  0
LINE
  5
1194
330
1F
100
AcDbEntity
  8
OUTLINE
100
AcDbLine
 10
2480.98731974007
 20
474.9999999999938
 30
0.0
 11
2488.98731974007
 21
419.999999999992
 31
0.0
  0
LINE
  5
1195
330
1F
100
AcDbEntity
  8
OUTLINE
100
AcDbLine
 10
2488.987319740067
 20
420.0000000000138
 30
0.0
 11
2488.987319740067
 21
-420.0000000000058
 31
0.0
  0
LINE
  5
1196
330
1F
100
AcDbEntity
  8
OUTLINE
100
AcDbLine
 10
2503.987319740066
 20
-345.0000000000041
 30
0.0
 11
2503.987319740066
 21
344.9999999999956
 31
0.0
  0
LINE
  5
1197
330
1F
100
AcDbEntity
  8
OUTLINE
100
AcDbLine
 10
2503.987319740066
 20
344.9999999999956
 30
0.0
 11
2488.987319740067
 21
344.9999999999956
 31
0.0
  0
LINE
  5
1198
330
1F
100
AcDbEntity
  8
OUTLINE
100
AcDbLine
 10
2473.98731974007
 20
474.9999999999938
 30
0.0
 11
2473.987319740066
 21
-475.0000000000077
 31
0.0
  0
LINE
  5
1199
330
1F
100
AcDbEntity
  8
OUTLINE
100
AcDbLine
 10
2503.987319740066
 20
-345.0000000000041
 30
0.0
 11
2488.987319740067
 21
-345.0000000000041
 31
0.0
  0
LINE
  5
119A
330
1F
100
AcDbEntity
  8
OUTLINE
100
AcDbLine
 10
2154.987319740063
 20
-420.0000000000058
 30
0.0
 11
2154.987319740068
 21
419.9999999999956
 31
0.0
  0
LINE
  5
119B
330
1F
100
AcDbEntity
  8
OUTLINE
100
AcDbLine
 10
2154.987319740068
 20
419.9999999999956
 30
0.0
 11
2461.987319740068
 21
419.9999999999938
 31
0.0
  0
LINE
  5
119C
330
1F
100
AcDbEntity
  8
OUTLINE
100
AcDbLine
 10
2461.987319740068
 20
419.9999999999938
 30
0.0
 11
2461.987319740068
 21
429.9999999999938
 31
0.0
  0
LINE
  5
119D
330
1F
100
AcDbEntity
  8
OUTLINE
100
AcDbLine
 10
2461.987319740068
 20
429.9999999999938
 30
0.0
 11
2473.987319740068
 21
429.9999999999938
 31
0.0
  0
LINE
  5
119E
330
1F
100
AcDbEntity
  8
OUTLINE
100
AcDbLine
 10
2473.987319740066
 20
-430.0000000000059
 30
0.0
 11
2461.987319740066
 21
-430.0000000000059
 31
0.0
  0
LINE
  5
119F
330
1F
100
AcDbEntity
  8
OUTLINE
100
AcDbLine
 10
2461.987319740066
 20
-430.0000000000059
 30
0.0
 11
2461.987319740066
 21
-420.0000000000058
 31
0.0
  0
LINE
  5
11A0
330
1F
100
AcDbEntity
  8
OUTLINE
100
AcDbLine
 10
2461.987319740066
 20
-420.0000000000058
 30
0.0
 11
2154.987319740063
 21
-420.0000000000058
 31
0.0
  0
LINE
  5
11B8
330
1F
100
AcDbEntity
  8
SIZE
100
AcDbLine
 10
256.4999999999963
 20
-1427.068001403059
 30
0.0
 11
-223.5000000000018
 21
-1427.068001403059
 31
0.0
  0
LINE
  5
11C6
330
1F
100
AcDbEntity
  8
BASIS
100
AcDbLine
 10
-344.9999999999981
 20
-1845.723001403063
 30
0.0
 11
-344.9999999999981
 21
-1803.773001403062
 31
0.0
  0
CIRCLE
  5
11C7
330
1F
100
AcDbEntity
  8
FIX
100
AcDbCircle
 10
-344.9999999999981
 20
-1824.913001403061
 30
0.0
 40
20.0
  0
LINE
  5
11C8
330
1F
100
AcDbEntity
  8
BASIS
100
AcDbLine
 10
-0.000000000001819
 20
-1986.748001403059
 30
0.0
 11
-0.000000000001819
 21
-1637.748001403059
 31
0.0
  0
CIRCLE
  5
11C9
330
1F
100
AcDbEntity
  8
ARRANGE
100
AcDbCircle
 10
-0.000000000001819
 20
-1956.748001403058
 30
0.0
 40
20.0
  0
POINT
  5
11CA
330
1F
100
AcDbEntity
  8
ARRANGE
100
AcDbPoint
 10
-0.000000000001819
 20
-1956.748001403059
 30
0.0
  0
LINE
  5
11CB
330
1F
100
AcDbEntity
  8
SIZE
100
AcDbLine
 10
-223.5000000000018
 20
-1656.738001403059
 30
0.0
 11
-223.5000000000018
 21
-1407.068001403058
 31
0.0
  0
LINE
  5
11CC
330
1F
100
AcDbEntity
  8
SIZE
100
AcDbLine
 10
-223.5000000000018
 20
-1427.068001403059
 30
0.0
 11
-203.5000000000018
 21
-1423.548001403058
 31
0.0
  0
LINE
  5
11CD
330
1F
100
AcDbEntity
  8
SIZE
100
AcDbLine
 10
-203.5000000000018
 20
-1430.598001403059
 30
0.0
 11
-223.5000000000018
 21
-1427.068001403059
 31
0.0
  0
TEXT
  5
11CE
330
1F
100
AcDbEntity
  8
SIZE
100
AcDbText
 10
-29.34734367714554
 20
-1422.660846031962
 30
0.0
 40
40.0
  1
480
  7
KAIGAI
100
AcDbText
  0
POLYLINE
  5
11E6
330
1F
100
AcDbEntity
  8
NOTE
100
AcDb2dPolyline
 66
     1
 10
0.0
 20
0.0
 30
0.0
  0
VERTEX
  5
1A3E
330
11E6
100
AcDbEntity
  8
NOTE
100
AcDbVertex
100
AcDb2dVertex
 10
2672.327319740062
 20
-846.7800000000067
 30
0.0
  0
VERTEX
  5
1A3F
330
11E6
100
AcDbEntity
  8
NOTE
100
AcDbVertex
100
AcDb2dVertex
 10
2672.327319740065
 20
-142.4000000000057
 30
0.0
  0
VERTEX
  5
1A40
330
11E6
100
AcDbEntity
  8
NOTE
100
AcDbVertex
100
AcDb2dVertex
 10
2396.447319740063
 20
-65.77000000000635
 30
0.0
  0
VERTEX
  5
1A41
330
11E6
100
AcDbEntity
  8
NOTE
100
AcDbVertex
100
AcDb2dVertex
 10
2430.907319740068
 20
-86.09000000000605
 30
0.0
  0
SEQEND
  5
1A42
330
11E6
100
AcDbEntity
  8
NOTE
  0
LINE
  5
11E8
330
1F
100
AcDbEntity
  8
NOTE
100
AcDbLine
 10
2146.283570448122
 20
-456.0454777581203
 30
0.0
 11
2146.283570448122
 21
-937.3718822318956
 31
0.0
1001
ACAD
1000
DSTYLE
1002
{
1070
   147
1040
20.0
1070
    77
1070
     0
1070
   279
1070
     0
1070
   341
1005
0
1070
   342
1005
0
1002
}
  0
TEXT
  5
11F4
330
1F
100
AcDbEntity
  8
NOTE
100
AcDbText
 10
1736.006972585752
 20
-2755.219296587615
 30
0.0
 40
40.0
  1
RAV-SM1104UTP-E
  7
KAIGAI
100
AcDbText
  0
LINE
  5
11F6
330
1F
100
AcDbEntity
  8
BASIS
100
AcDbLine
 10
345.0
 20
-1845.723001403064
 30
0.0
 11
345.0
 21
-1803.773001403064
 31
0.0
  0
CIRCLE
  5
11F7
330
1F
100
AcDbEntity
  8
FIX
100
AcDbCircle
 10
344.9999999999981
 20
-1824.913001403061
 30
0.0
 40
20.0
  0
LINE
  5
11F9
330
1F
100
AcDbEntity
  8
SIZE
100
AcDbLine
 10
256.4999999999963
 20
-1407.068001403058
 30
0.0
 11
256.4999999999963
 21
-1656.738001403059
 31
0.0
  0
LINE
  5
11FA
330
1F
100
AcDbEntity
  8
SIZE
100
AcDbLine
 10
256.4999999999963
 20
-1427.068001403059
 30
0.0
 11
236.4999999999963
 21
-1430.598001403059
 31
0.0
  0
LINE
  5
11FB
330
1F
100
AcDbEntity
  8
SIZE
100
AcDbLine
 10
236.4999999999963
 20
-1423.548001403058
 30
0.0
 11
256.4999999999963
 21
-1427.068001403059
 31
0.0
  0
LINE
  5
120B
330
1F
100
AcDbEntity
  8
BASIS
100
AcDbLine
 10
2344.987319740068
 20
102.4199999999939
 30
0.0
 11
2344.987319740066
 21
-72.50000000000591
 31
0.0
  0
TEXT
  5
120C
330
1F
100
AcDbEntity
  8
SIZE
100
AcDbText
 10
2646.527319740068
 20
33.45898254377596
 30
0.0
 40
40.0
  1
30
 50
90.0
  7
KAIGAI
100
AcDbText
  0
LINE
  5
120D
330
1F
100
AcDbEntity
  8
SIZE
100
AcDbLine
 10
2649.937319740067
 20
-0.0000000000060254
 30
0.0
 11
2649.937319740067
 21
108.0299999999926
 31
0.0
  0
LINE
  5
120E
330
1F
100
AcDbEntity
  8
NOTE
100
AcDbLine
 10
2242.489722112768
 20
-350.181694786645
 30
0.0
 11
2146.283570448122
 21
-456.0454777581203
 31
0.0
1001
ACAD
1000
DSTYLE
1002
{
1070
   147
1040
20.0
1070
    77
1070
     0
1070
   279
1070
     0
1070
   341
1005
0
1070
   342
1005
0
1002
}
  0
CIRCLE
  5
120F
330
1F
100
AcDbEntity
  8
FIX
100
AcDbCircle
 10
2387.987319740066
 20
-395.0000000000054
 30
0.0
 40
20.0
  0
LINE
  5
1210
330
1F
100
AcDbEntity
  8
SIZE
100
AcDbLine
 10
2344.987319740066
 20
-72.50000000000591
 30
0.0
 11
2344.987319740063
 21
-578.6000000000062
 31
0.0
  0
LINE
  5
1211
330
1F
100
AcDbEntity
  8
SIZE
100
AcDbLine
 10
2573.987319740066
 20
-558.6000000000065
 30
0.0
 11
2344.987319740063
 21
-558.6000000000062
 31
0.0
  0
TEXT
  5
1212
330
1F
100
AcDbEntity
  8
SIZE
100
AcDbText
 10
2578.577342418129
 20
-565.7786200527552
 30
0.0
 40
40.0
  1
129
 50
180.0
  7
KAIGAI
100
AcDbText
  0
LINE
  5
1213
330
1F
100
AcDbEntity
  8
SIZE
100
AcDbLine
 10
2344.987319740063
 20
-558.6000000000062
 30
0.0
 11
2364.987319740063
 21
-555.0700000000074
 31
0.0
  0
LINE
  5
1214
330
1F
100
AcDbEntity
  8
SIZE
100
AcDbLine
 10
2364.987319740063
 20
-562.1200000000067
 30
0.0
 11
2344.987319740063
 21
-558.6000000000062
 31
0.0
  0
LINE
  5
1215
330
1F
100
AcDbEntity
  8
BASIS
100
AcDbLine
 10
2365.207319740064
 20
-395.0000000000059
 30
0.0
 11
2405.567319740061
 21
-395.0000000000059
 31
0.0
  0
LINE
  5
1217
330
1F
100
AcDbEntity
  8
SIZE
100
AcDbLine
 10
2473.987319740066
 20
-578.6000000000062
 30
0.0
 11
2473.987319740066
 21
-495.0000000000077
 31
0.0
  0
LINE
  5
1218
330
1F
100
AcDbEntity
  8
SIZE
100
AcDbLine
 10
2473.987319740066
 20
-558.6000000000062
 30
0.0
 11
2453.987319740067
 21
-562.1200000000067
 31
0.0
  0
LINE
  5
1219
330
1F
100
AcDbEntity
  8
SIZE
100
AcDbLine
 10
2453.987319740067
 20
-555.0700000000074
 30
0.0
 11
2473.987319740066
 21
-558.6000000000062
 31
0.0
  0
LINE
  5
121A
330
1F
100
AcDbEntity
  8
SIZE
100
AcDbLine
 10
2438.987319740066
 20
-30.00000000000602
 30
0.0
 11
2669.937319740067
 21
-30.00000000000602
 31
0.0
  0
LINE
  5
121B
330
1F
100
AcDbEntity
  8
BASIS
100
AcDbLine
 10
2503.987319740066
 20
-0.0000000000060254
 30
0.0
 11
2154.987319740067
 21
-0.0000000000060254
 31
0.0
  0
LINE
  5
121C
330
1F
100
AcDbEntity
  8
BASIS
100
AcDbLine
 10
2260.727319740064
 20
-323.0000000000059
 30
0.0
 11
2312.707319740064
 21
-323.0000000000059
 31
0.0
  0
LINE
  5
121D
330
1F
100
AcDbEntity
  8
NOTE
100
AcDbLine
 10
2237.556007770425
 20
-345.698068215152
 30
0.0
 11
2269.391481541723
 21
-320.5794087325798
 31
0.0
  0
LINE
  5
121E
330
1F
100
AcDbEntity
  8
NOTE
100
AcDbLine
 10
2247.423436455115
 20
-354.665321358138
 30
0.0
 11
2269.391481541723
 21
-320.5794087325798
 31
0.0
  0
LINE
  5
121F
330
1F
100
AcDbEntity
  8
NOTE
100
AcDbLine
 10
2269.391481541723
 20
-320.5794087325798
 30
0.0
 11
2242.489722112768
 21
-350.181694786645
 31
0.0
  0
LINE
  5
1220
330
1F
100
AcDbEntity
  8
BASIS
100
AcDbLine
 10
2284.987319740066
 20
-292.6200000000067
 30
0.0
 11
2284.987319740066
 21
-355.3100000000053
 31
0.0
  0
LINE
  5
1221
330
1F
100
AcDbEntity
  8
BASIS
100
AcDbLine
 10
2252.577319740066
 20
-30.00000000000602
 30
0.0
 11
2433.597319740067
 21
-30.00000000000602
 31
0.0
  0
LINE
  5
1222
330
1F
100
AcDbEntity
  8
SIZE
100
AcDbLine
 10
2669.937319740067
 20
-0.0000000000060254
 30
0.0
 11
2528.987319740066
 21
-0.0000000000060254
 31
0.0
  0
POINT
  5
1223
330
1F
100
AcDbEntity
  8
ARRANGE
100
AcDbPoint
 10
2473.987319740066
 20
-0.0000000000060254
 30
0.0
  0
CIRCLE
  5
1224
330
1F
100
AcDbEntity
  8
ARRANGE
100
AcDbCircle
 10
2473.987319740066
 20
-0.0000000000053433
 30
0.0
 40
20.0
  0
LINE
  5
1225
330
1F
100
AcDbEntity
  8
SIZE
100
AcDbLine
 10
2649.937319740067
 20
-30.00000000000602
 30
0.0
 11
2653.457319740066
 21
-50.00000000000603
 31
0.0
  0
LINE
  5
1226
330
1F
100
AcDbEntity
  8
SIZE
100
AcDbLine
 10
2646.407319740069
 20
-50.00000000000603
 30
0.0
 11
2649.937319740067
 21
-30.00000000000602
 31
0.0
  0
LINE
  5
1227
330
1F
100
AcDbEntity
  8
SIZE
100
AcDbLine
 10
2649.937319740067
 20
26.99999999999397
 30
0.0
 11
2649.937319740063
 21
-57.00000000000613
 31
0.0
  0
LINE
  5
1228
330
1F
100
AcDbEntity
  8
SIZE
100
AcDbLine
 10
2649.937319740067
 20
-0.0000000000060254
 30
0.0
 11
2646.407319740069
 21
19.99999999999397
 31
0.0
  0
LINE
  5
1229
330
1F
100
AcDbEntity
  8
SIZE
100
AcDbLine
 10
2653.457319740068
 20
19.99999999999397
 30
0.0
 11
2649.937319740067
 21
-0.0000000000060254
 31
0.0
  0
LINE
  5
1231
330
1F
100
AcDbEntity
  8
BASIS
100
AcDbLine
 10
2406.867319740067
 20
262.9999999999938
 30
0.0
 11
2450.377319740068
 21
262.9999999999938
 31
0.0
  0
LINE
  5
1233
330
1F
100
AcDbEntity
  8
BASIS
100
AcDbLine
 10
2301.987319740068
 20
332.9199999999939
 30
0.0
 11
2301.987319740068
 21
294.6199999999928
 31
0.0
  0
LINE
  5
1234
330
1F
100
AcDbEntity
  8
BASIS
100
AcDbLine
 10
2274.477319740068
 20
313.4999999999938
 30
0.0
 11
2326.907319740068
 21
313.4999999999938
 31
0.0
  0
LINE
  5
1235
330
1F
100
AcDbEntity
  8
BASIS
100
AcDbLine
 10
2335.257319740069
 20
241.4999999999938
 30
0.0
 11
2384.627319740067
 21
241.4999999999938
 31
0.0
  0
LINE
  5
1236
330
1F
100
AcDbEntity
  8
BASIS
100
AcDbLine
 10
2361.987319740068
 20
253.7099999999929
 30
0.0
 11
2361.987319740068
 21
227.9199999999939
 31
0.0
  0
LINE
  5
1237
330
1F
100
AcDbEntity
  8
BASIS
100
AcDbLine
 10
2429.987319740068
 20
294.1999999999927
 30
0.0
 11
2429.987319740068
 21
230.9199999999939
 31
0.0
  0
LINE
  5
1238
330
1F
100
AcDbEntity
  8
BASIS
100
AcDbLine
 10
2365.207319740068
 20
394.9999999999938
 30
0.0
 11
2405.567319740068
 21
394.9999999999938
 31
0.0
  0
CIRCLE
  5
1239
330
1F
100
AcDbEntity
  8
FIX
100
AcDbCircle
 10
2388.977319740068
 20
394.9999999999981
 30
0.0
 40
20.0
  0
LINE
  5
12A2
330
1F
100
AcDbEntity
  8
SIZE
100
AcDbLine
 10
479.9999999999982
 20
-1956.748001403062
 30
0.0
 11
686.9552249472089
 21
-1956.748001403062
 31
0.0
  0
LINE
  5
12A3
330
1F
100
AcDbEntity
  8
SIZE
100
AcDbLine
 10
424.9999999999963
 20
-1637.74800140306
 30
0.0
 11
686.9552249472089
 21
-1637.74800140306
 31
0.0
  0
LINE
  5
12A4
330
1F
100
AcDbEntity
  8
SIZE
100
AcDbLine
 10
681.9552249472089
 20
-1941.748001403062
 30
0.0
 11
681.9552249472089
 21
-1652.74800140306
 31
0.0
  0
LINE
  5
12A5
330
1F
100
AcDbEntity
  8
SIZE
100
AcDbLine
 10
-228.5000000000018
 20
-1672.748001403059
 30
0.0
 11
-584.4600000000027
 21
-1672.748001403059
 31
0.0
  0
LINE
  5
12A6
330
1F
100
AcDbEntity
  8
SIZE
100
AcDbLine
 10
-425.0000000000018
 20
-1637.748001403059
 30
0.0
 11
-584.4600000000027
 21
-1637.748001403059
 31
0.0
  0
LINE
  5
12A7
330
1F
100
AcDbEntity
  8
SIZE
100
AcDbLine
 10
-579.4600000000027
 20
-1687.748001403059
 30
0.0
 11
-579.4600000000027
 21
-1765.748001403059
 31
0.0
  0
LINE
  5
12A8
330
1F
100
AcDbEntity
  8
SIZE
100
AcDbLine
 10
-579.4600000000027
 20
-1622.748001403059
 30
0.0
 11
-579.4600000000027
 21
-1547.748001403059
 31
0.0
  0
LINE
  5
12A9
330
1F
100
AcDbEntity
  8
SIZE
100
AcDbLine
 10
-579.4600000000027
 20
-1672.748001403059
 30
0.0
 11
-579.4600000000027
 21
-1637.748001403059
 31
0.0
  0
LINE
  5
12AA
330
1F
100
AcDbEntity
  8
SIZE
100
AcDbLine
 10
-228.5000000000018
 20
-1855.748001403059
 30
0.0
 11
-584.4600000000027
 21
-1855.748001403059
 31
0.0
  0
LINE
  5
12AB
330
1F
100
AcDbEntity
  8
SIZE
100
AcDbLine
 10
-228.5000000000018
 20
-1672.748001403059
 30
0.0
 11
-584.4600000000027
 21
-1672.748001403059
 31
0.0
  0
LINE
  5
12AC
330
1F
100
AcDbEntity
  8
SIZE
100
AcDbLine
 10
-579.4600000000027
 20
-1840.748001403059
 30
0.0
 11
-579.4600000000027
 21
-1687.748001403059
 31
0.0
  0
LINE
  5
12AD
330
1F
100
AcDbEntity
  8
SIZE
100
AcDbLine
 10
-480.0000000000036
 20
-1956.748001403059
 30
0.0
 11
-584.4600000000027
 21
-1956.748001403059
 31
0.0
  0
LINE
  5
12AE
330
1F
100
AcDbEntity
  8
SIZE
100
AcDbLine
 10
-228.5000000000018
 20
-1855.748001403059
 30
0.0
 11
-584.4600000000027
 21
-1855.748001403059
 31
0.0
  0
LINE
  5
12AF
330
1F
100
AcDbEntity
  8
SIZE
100
AcDbLine
 10
-579.4600000000027
 20
-1941.748001403059
 30
0.0
 11
-579.4600000000027
 21
-1870.748001403059
 31
0.0
  0
LINE
  5
12B0
330
1F
100
AcDbEntity
  8
SIZE
100
AcDbLine
 10
-480.0000000000036
 20
-1956.748001403059
 30
0.0
 11
-584.4600000000027
 21
-1956.748001403059
 31
0.0
  0
LINE
  5
12B1
330
1F
100
AcDbEntity
  8
SIZE
100
AcDbLine
 10
-350.0
 20
-1986.748001403059
 30
0.0
 11
-584.4600000000027
 21
-1986.748001403059
 31
0.0
  0
LINE
  5
12B2
330
1F
100
AcDbEntity
  8
SIZE
100
AcDbLine
 10
-579.4600000000027
 20
-1941.748001403059
 30
0.0
 11
-579.4600000000027
 21
-1926.748001403059
 31
0.0
  0
LINE
  5
12B3
330
1F
100
AcDbEntity
  8
SIZE
100
AcDbLine
 10
-579.4600000000027
 20
-2001.748001403059
 30
0.0
 11
-579.4600000000027
 21
-2071.748001403058
 31
0.0
  0
LINE
  5
12B4
330
1F
100
AcDbEntity
  8
SIZE
100
AcDbLine
 10
-579.4600000000027
 20
-1956.748001403059
 30
0.0
 11
-579.4600000000027
 21
-1986.748001403059
 31
0.0
  0
LINE
  5
12B5
330
1F
100
AcDbEntity
  8
SIZE
100
AcDbLine
 10
256.4999999999963
 20
-1667.748001403059
 30
0.0
 11
256.4999999999963
 21
-1422.068001403058
 31
0.0
  0
LINE
  5
12B6
330
1F
100
AcDbEntity
  8
SIZE
100
AcDbLine
 10
420.0
 20
-1632.73800140306
 30
0.0
 11
420.0
 21
-1422.068001403058
 31
0.0
  0
LINE
  5
12B7
330
1F
100
AcDbEntity
  8
SIZE
100
AcDbLine
 10
271.4999999999963
 20
-1427.068001403059
 30
0.0
 11
405.0
 21
-1427.068001403059
 31
0.0
  0
LINE
  5
12B8
330
1F
100
AcDbEntity
  8
SIZE
100
AcDbLine
 10
-223.5000000000018
 20
-1671.738001403057
 30
0.0
 11
-223.5000000000018
 21
-1422.068001403058
 31
0.0
  0
LINE
  5
12B9
330
1F
100
AcDbEntity
  8
SIZE
100
AcDbLine
 10
-420.0000000000017
 20
-1632.738001403057
 30
0.0
 11
-420.0000000000017
 21
-1422.068001403058
 31
0.0
  0
LINE
  5
12BA
330
1F
100
AcDbEntity
  8
SIZE
100
AcDbLine
 10
-238.5000000000018
 20
-1427.068001403059
 30
0.0
 11
-405.0000000000018
 21
-1427.068001403059
 31
0.0
  0
TEXT
  5
12BB
330
1F
100
AcDbEntity
  8
SIZE
100
AcDbText
 10
-397.8284867884467
 20
-1422.068001403058
 30
0.0
 40
40.0
  1
196.5
  7
KAIGAI
100
AcDbText
  0
LINE
  5
12BC
330
1F
100
AcDbEntity
  8
SIZE
100
AcDbLine
 10
-405.0000000000018
 20
-1431.087239253058
 30
0.0
 11
-420.0000000000017
 21
-1427.068001403059
 31
0.0
  0
LINE
  5
12BD
330
1F
100
AcDbEntity
  8
SIZE
100
AcDbLine
 10
-420.0000000000017
 20
-1427.068001403059
 30
0.0
 11
-405.0000000000018
 21
-1423.048763553057
 31
0.0
  0
LINE
  5
12BE
330
1F
100
AcDbEntity
  8
SIZE
100
AcDbLine
 10
-420.0000000000017
 20
-1427.068001403059
 30
0.0
 11
-405.0000000000018
 21
-1427.068001403059
 31
0.0
  0
LINE
  5
12BF
330
1F
100
AcDbEntity
  8
SIZE
100
AcDbLine
 10
-238.5000000000018
 20
-1423.048763553057
 30
0.0
 11
-223.5000000000018
 21
-1427.068001403059
 31
0.0
  0
LINE
  5
12C0
330
1F
100
AcDbEntity
  8
SIZE
100
AcDbLine
 10
-223.5000000000018
 20
-1427.068001403059
 30
0.0
 11
-238.5000000000018
 21
-1431.087239253058
 31
0.0
  0
LINE
  5
12C1
330
1F
100
AcDbEntity
  8
SIZE
100
AcDbLine
 10
-223.5000000000018
 20
-1427.068001403059
 30
0.0
 11
-238.5000000000018
 21
-1427.068001403059
 31
0.0
  0
TEXT
  5
12C2
330
1F
100
AcDbEntity
  8
SIZE
100
AcDbText
 10
271.4999999999963
 20
-1423.048763553058
 30
0.0
 40
40.0
  1
163.5
  7
KAIGAI
100
AcDbText
  0
LINE
  5
12C3
330
1F
100
AcDbEntity
  8
SIZE
100
AcDbLine
 10
405.0
 20
-1423.048763553059
 30
0.0
 11
420.0
 21
-1427.068001403059
 31
0.0
  0
LINE
  5
12C4
330
1F
100
AcDbEntity
  8
SIZE
100
AcDbLine
 10
420.0
 20
-1427.068001403059
 30
0.0
 11
405.0
 21
-1431.087239253058
 31
0.0
  0
LINE
  5
12C5
330
1F
100
AcDbEntity
  8
SIZE
100
AcDbLine
 10
420.0
 20
-1427.068001403059
 30
0.0
 11
405.0
 21
-1427.068001403059
 31
0.0
  0
LINE
  5
12C6
330
1F
100
AcDbEntity
  8
SIZE
100
AcDbLine
 10
271.4999999999963
 20
-1431.087239253058
 30
0.0
 11
256.4999999999963
 21
-1427.068001403059
 31
0.0
  0
LINE
  5
12C7
330
1F
100
AcDbEntity
  8
SIZE
100
AcDbLine
 10
256.4999999999963
 20
-1427.068001403059
 30
0.0
 11
271.4999999999963
 21
-1423.048763553059
 31
0.0
  0
LINE
  5
12C8
330
1F
100
AcDbEntity
  8
SIZE
100
AcDbLine
 10
256.4999999999963
 20
-1427.068001403059
 30
0.0
 11
271.4999999999963
 21
-1427.068001403059
 31
0.0
  0
TEXT
  5
12C9
330
1F
100
AcDbEntity
  8
SIZE
100
AcDbText
 10
-584.4600000000027
 20
-2066.748001403058
 30
0.0
 40
40.0
  1
30
 50
90.0
  7
KAIGAI
100
AcDbText
  0
LINE
  5
12CA
330
1F
100
AcDbEntity
  8
SIZE
100
AcDbLine
 10
-583.4792378500024
 20
-2001.748001403059
 30
0.0
 11
-579.4600000000027
 21
-1986.748001403059
 31
0.0
  0
LINE
  5
12CB
330
1F
100
AcDbEntity
  8
SIZE
100
AcDbLine
 10
-579.4600000000027
 20
-1986.748001403059
 30
0.0
 11
-575.4407621500031
 21
-2001.748001403059
 31
0.0
  0
LINE
  5
12CC
330
1F
100
AcDbEntity
  8
SIZE
100
AcDbLine
 10
-579.4600000000027
 20
-1986.748001403059
 30
0.0
 11
-579.4600000000027
 21
-2001.748001403059
 31
0.0
  0
LINE
  5
12CD
330
1F
100
AcDbEntity
  8
SIZE
100
AcDbLine
 10
-575.4407621500031
 20
-1941.748001403059
 30
0.0
 11
-579.4600000000027
 21
-1956.748001403059
 31
0.0
  0
LINE
  5
12CE
330
1F
100
AcDbEntity
  8
SIZE
100
AcDbLine
 10
-579.4600000000027
 20
-1956.748001403059
 30
0.0
 11
-583.4792378500024
 21
-1941.748001403059
 31
0.0
  0
LINE
  5
12CF
330
1F
100
AcDbEntity
  8
SIZE
100
AcDbLine
 10
-579.4600000000027
 20
-1956.748001403059
 30
0.0
 11
-579.4600000000027
 21
-1941.748001403059
 31
0.0
  0
TEXT
  5
12D0
330
1F
100
AcDbEntity
  8
SIZE
100
AcDbText
 10
-584.4600000000027
 20
-1944.611011171088
 30
0.0
 40
40.0
  1
101
 50
90.0
  7
KAIGAI
100
AcDbText
  0
LINE
  5
12D1
330
1F
100
AcDbEntity
  8
SIZE
100
AcDbLine
 10
-583.4792378500024
 20
-1870.748001403059
 30
0.0
 11
-579.4600000000027
 21
-1855.748001403059
 31
0.0
  0
LINE
  5
12D2
330
1F
100
AcDbEntity
  8
SIZE
100
AcDbLine
 10
-579.4600000000027
 20
-1855.748001403059
 30
0.0
 11
-575.4407621500031
 21
-1870.748001403059
 31
0.0
  0
LINE
  5
12D3
330
1F
100
AcDbEntity
  8
SIZE
100
AcDbLine
 10
-579.4600000000027
 20
-1855.748001403059
 30
0.0
 11
-579.4600000000027
 21
-1870.748001403059
 31
0.0
  0
LINE
  5
12D4
330
1F
100
AcDbEntity
  8
SIZE
100
AcDbLine
 10
-575.4407621500031
 20
-1941.748001403059
 30
0.0
 11
-579.4600000000027
 21
-1956.748001403059
 31
0.0
  0
LINE
  5
12D5
330
1F
100
AcDbEntity
  8
SIZE
100
AcDbLine
 10
-579.4600000000027
 20
-1956.748001403059
 30
0.0
 11
-583.4792378500024
 21
-1941.748001403059
 31
0.0
  0
LINE
  5
12D6
330
1F
100
AcDbEntity
  8
SIZE
100
AcDbLine
 10
-579.4600000000027
 20
-1956.748001403059
 30
0.0
 11
-579.4600000000027
 21
-1941.748001403059
 31
0.0
  0
TEXT
  5
12D7
330
1F
100
AcDbEntity
  8
SIZE
100
AcDbText
 10
-584.4600000000027
 20
-1807.238666536265
 30
0.0
 40
40.0
  1
183
 50
90.0
  7
KAIGAI
100
AcDbText
  0
LINE
  5
12D8
330
1F
100
AcDbEntity
  8
SIZE
100
AcDbLine
 10
-583.4792378500024
 20
-1687.748001403059
 30
0.0
 11
-579.4600000000027
 21
-1672.748001403059
 31
0.0
  0
LINE
  5
12D9
330
1F
100
AcDbEntity
  8
SIZE
100
AcDbLine
 10
-579.4600000000027
 20
-1672.748001403059
 30
0.0
 11
-575.4407621500031
 21
-1687.748001403059
 31
0.0
  0
LINE
  5
12DA
330
1F
100
AcDbEntity
  8
SIZE
100
AcDbLine
 10
-579.4600000000027
 20
-1672.748001403059
 30
0.0
 11
-579.4600000000027
 21
-1687.748001403059
 31
0.0
  0
LINE
  5
12DB
330
1F
100
AcDbEntity
  8
SIZE
100
AcDbLine
 10
-575.4407621500031
 20
-1840.748001403059
 30
0.0
 11
-579.4600000000027
 21
-1855.748001403059
 31
0.0
  0
LINE
  5
12DC
330
1F
100
AcDbEntity
  8
SIZE
100
AcDbLine
 10
-579.4600000000027
 20
-1855.748001403059
 30
0.0
 11
-583.4792378500024
 21
-1840.748001403059
 31
0.0
  0
LINE
  5
12DD
330
1F
100
AcDbEntity
  8
SIZE
100
AcDbLine
 10
-579.4600000000027
 20
-1855.748001403059
 30
0.0
 11
-579.4600000000027
 21
-1840.748001403059
 31
0.0
  0
TEXT
  5
12DE
330
1F
100
AcDbEntity
  8
SIZE
100
AcDbText
 10
-584.4600000000027
 20
-1602.748001403058
 30
0.0
 40
40.0
  1
35
 50
90.0
  7
KAIGAI
100
AcDbText
  0
LINE
  5
12DF
330
1F
100
AcDbEntity
  8
SIZE
100
AcDbLine
 10
-575.4407621500031
 20
-1622.748001403059
 30
0.0
 11
-579.4600000000027
 21
-1637.748001403059
 31
0.0
  0
LINE
  5
12E0
330
1F
100
AcDbEntity
  8
SIZE
100
AcDbLine
 10
-579.4600000000027
 20
-1637.748001403059
 30
0.0
 11
-583.4792378500024
 21
-1622.748001403059
 31
0.0
  0
LINE
  5
12E1
330
1F
100
AcDbEntity
  8
SIZE
100
AcDbLine
 10
-579.4600000000027
 20
-1637.748001403059
 30
0.0
 11
-579.4600000000027
 21
-1622.748001403059
 31
0.0
  0
LINE
  5
12E2
330
1F
100
AcDbEntity
  8
SIZE
100
AcDbLine
 10
-583.4792378500024
 20
-1687.748001403059
 30
0.0
 11
-579.4600000000027
 21
-1672.748001403059
 31
0.0
  0
LINE
  5
12E3
330
1F
100
AcDbEntity
  8
SIZE
100
AcDbLine
 10
-579.4600000000027
 20
-1672.748001403059
 30
0.0
 11
-575.4407621500031
 21
-1687.748001403059
 31
0.0
  0
LINE
  5
12E4
330
1F
100
AcDbEntity
  8
SIZE
100
AcDbLine
 10
-579.4600000000027
 20
-1672.748001403059
 30
0.0
 11
-579.4600000000027
 21
-1687.748001403059
 31
0.0
  0
TEXT
  5
12E5
330
1F
100
AcDbEntity
  8
SIZE
100
AcDbText
 10
676.9552249472107
 20
-1837.248001403062
 30
0.0
 40
40.0
  1
319
 50
90.0
  7
KAIGAI
100
AcDbText
  0
LINE
  5
12E6
330
1F
100
AcDbEntity
  8
SIZE
100
AcDbLine
 10
677.9359870972093
 20
-1652.74800140306
 30
0.0
 11
681.9552249472089
 21
-1637.74800140306
 31
0.0
  0
LINE
  5
12E7
330
1F
100
AcDbEntity
  8
SIZE
100
AcDbLine
 10
681.9552249472089
 20
-1637.74800140306
 30
0.0
 11
685.9744627972104
 21
-1652.74800140306
 31
0.0
  0
LINE
  5
12E8
330
1F
100
AcDbEntity
  8
SIZE
100
AcDbLine
 10
681.9552249472089
 20
-1637.74800140306
 30
0.0
 11
681.9552249472089
 21
-1652.74800140306
 31
0.0
  0
LINE
  5
12E9
330
1F
100
AcDbEntity
  8
SIZE
100
AcDbLine
 10
685.9744627972104
 20
-1941.748001403062
 30
0.0
 11
681.9552249472089
 21
-1956.748001403062
 31
0.0
  0
LINE
  5
12EA
330
1F
100
AcDbEntity
  8
SIZE
100
AcDbLine
 10
681.9552249472089
 20
-1956.748001403062
 30
0.0
 11
677.9359870972093
 21
-1941.748001403062
 31
0.0
  0
LINE
  5
12EB
330
1F
100
AcDbEntity
  8
SIZE
100
AcDbLine
 10
681.9552249472089
 20
-1956.748001403062
 30
0.0
 11
681.9552249472089
 21
-1941.748001403062
 31
0.0
  0
LINE
  5
12EC
330
1F
100
AcDbEntity
  8
BASIS
100
AcDbLine
 10
-79.50000000000182
 20
-1827.74800140306
 30
0.0
 11
112.4999999999981
 21
-1827.748001403059
 31
0.0
  0
LINE
  5
12ED
330
1F
100
AcDbEntity
  8
BASIS
100
AcDbLine
 10
16.49999999999818
 20
-1731.748001403061
 30
0.0
 11
16.49999999999818
 21
-1923.74800140306
 31
0.0
  0
LINE
  5
12F6
330
1F
100
AcDbEntity
  8
BASIS
100
AcDbLine
 10
-344.9999999999945
 20
3023.913685239575
 30
0.0
 11
-344.9999999999945
 21
2981.963685239574
 31
0.0
  0
CIRCLE
  5
12F7
330
1F
100
AcDbEntity
  8
FIX
100
AcDbCircle
 10
-344.9999999999927
 20
3003.103685239574
 30
0.0
 40
20.0
  0
LINE
  5
12F8
330
1F
100
AcDbEntity
  8
BASIS
100
AcDbLine
 10
0.000000000001819
 20
3164.938685239569
 30
0.0
 11
0.000000000001819
 21
2815.93868523957
 31
0.0
  0
CIRCLE
  5
12F9
330
1F
100
AcDbEntity
  8
ARRANGE
100
AcDbCircle
 10
0.000000000003638
 20
3134.938685239569
 30
0.0
 40
20.0
  0
POINT
  5
12FA
330
1F
100
AcDbEntity
  8
ARRANGE
100
AcDbPoint
 10
0.000000000001819
 20
3134.938685239569
 30
0.0
  0
LINE
  5
12FB
330
1F
100
AcDbEntity
  8
BASIS
100
AcDbLine
 10
345.0000000000018
 20
3023.913685239573
 30
0.0
 11
345.0000000000018
 21
2981.963685239572
 31
0.0
  0
CIRCLE
  5
12FC
330
1F
100
AcDbEntity
  8
FIX
100
AcDbCircle
 10
345.0000000000036
 20
3003.103685239571
 30
0.0
 40
20.0
  0
LINE
  5
12FD
330
1F
100
AcDbEntity
  8
BASIS
100
AcDbLine
 10
-16.0
 20
3005.938685239573
 30
0.0
 11
176.0
 21
3005.938685239571
 31
0.0
  0
LINE
  5
12FE
330
1F
100
AcDbEntity
  8
BASIS
100
AcDbLine
 10
80.0
 20
2909.938685239572
 30
0.0
 11
80.00000000000182
 21
3101.938685239573
 31
0.0
  0
LINE
  5
12FF
330
1F
100
AcDbEntity
  8
SIZE
100
AcDbLine
 10
73.99999999999636
 20
-1774.748001403061
 30
0.0
 11
179.7866635143018
 21
-1774.748001403061
 31
0.0
  0
LINE
  5
1300
330
1F
100
AcDbEntity
  8
SIZE
100
AcDbLine
 10
73.99999999999636
 20
-1879.74800140306
 30
0.0
 11
179.7866635143018
 21
-1879.74800140306
 31
0.0
  0
LINE
  5
1301
330
1F
100
AcDbEntity
  8
SIZE
100
AcDbLine
 10
169.7866635143018
 20
-1789.748001403061
 30
0.0
 11
169.7866635143018
 21
-1864.748001403061
 31
0.0
  0
LINE
  5
1302
330
1F
100
AcDbEntity
  8
SIZE
100
AcDbLine
 10
479.9999999999982
 20
-1956.748001403062
 30
0.0
 11
635.7285419693052
 21
-1956.748001403062
 31
0.0
  0
LINE
  5
1303
330
1F
100
AcDbEntity
  8
SIZE
100
AcDbLine
 10
373.0187128712787
 20
-1824.748001403063
 30
0.0
 11
635.7285419693052
 21
-1824.748001403063
 31
0.0
  0
LINE
  5
1304
330
1F
100
AcDbEntity
  8
SIZE
100
AcDbLine
 10
625.7285419693053
 20
-1941.748001403062
 30
0.0
 11
625.7285419693053
 21
-1839.748001403062
 31
0.0
  0
LINE
  5
1305
330
1F
100
AcDbEntity
  8
SIZE
100
AcDbLine
 10
16.49999999999818
 20
-1928.748001403061
 30
0.0
 11
16.49999999999818
 21
-2085.517828058497
 31
0.0
  0
LINE
  5
1306
330
1F
100
AcDbEntity
  8
SIZE
100
AcDbLine
 10
-0.000000000001819
 20
-1991.748001403059
 30
0.0
 11
-0.000000000001819
 21
-2085.517828058497
 31
0.0
  0
LINE
  5
1307
330
1F
100
AcDbEntity
  8
SIZE
100
AcDbLine
 10
31.49999999999818
 20
-2075.517828058496
 30
0.0
 11
46.49999999999818
 21
-2075.517828058496
 31
0.0
  0
LINE
  5
1308
330
1F
100
AcDbEntity
  8
SIZE
100
AcDbLine
 10
-15.00000000000182
 20
-2075.517828058496
 30
0.0
 11
-120.0000000000018
 21
-2075.517828058496
 31
0.0
  0
LINE
  5
1309
330
1F
100
AcDbEntity
  8
SIZE
100
AcDbLine
 10
16.49999999999818
 20
-2075.517828058496
 30
0.0
 11
-0.000000000001819
 21
-2075.517828058496
 31
0.0
  0
LINE
  5
130A
330
1F
100
AcDbEntity
  8
SIZE
100
AcDbLine
 10
-36.00000000000363
 20
-1769.748001403061
 30
0.0
 11
-36.00000000000363
 21
-1537.573640369161
 31
0.0
  0
LINE
  5
130B
330
1F
100
AcDbEntity
  8
SIZE
100
AcDbLine
 10
-420.0000000000017
 20
-1632.748001403059
 30
0.0
 11
-420.0000000000017
 21
-1537.573640369159
 31
0.0
  0
LINE
  5
130C
330
1F
100
AcDbEntity
  8
SIZE
100
AcDbLine
 10
-51.00000000000363
 20
-1547.573640369161
 30
0.0
 11
-405.0000000000018
 21
-1547.573640369159
 31
0.0
  0
LINE
  5
130D
330
1F
100
AcDbEntity
  8
SIZE
100
AcDbLine
 10
68.99999999999636
 20
-1769.748001403061
 30
0.0
 11
68.99999999999636
 21
-1537.573640369161
 31
0.0
  0
LINE
  5
130E
330
1F
100
AcDbEntity
  8
SIZE
100
AcDbLine
 10
-36.00000000000363
 20
-1769.748001403061
 30
0.0
 11
-36.00000000000363
 21
-1537.573640369161
 31
0.0
  0
LINE
  5
130F
330
1F
100
AcDbEntity
  8
SIZE
100
AcDbLine
 10
53.99999999999636
 20
-1547.573640369161
 30
0.0
 11
-21.00000000000363
 21
-1547.573640369161
 31
0.0
  0
LINE
  5
1310
330
1F
100
AcDbEntity
  8
SIZE
100
AcDbLine
 10
419.9999999999963
 20
-1632.748001403061
 30
0.0
 11
419.9999999999963
 21
-1537.573640369161
 31
0.0
  0
LINE
  5
1311
330
1F
100
AcDbEntity
  8
SIZE
100
AcDbLine
 10
68.99999999999636
 20
-1769.748001403061
 30
0.0
 11
68.99999999999636
 21
-1537.573640369161
 31
0.0
  0
LINE
  5
1312
330
1F
100
AcDbEntity
  8
SIZE
100
AcDbLine
 10
404.9999999999963
 20
-1547.573640369161
 30
0.0
 11
83.99999999999636
 21
-1547.573640369161
 31
0.0
  0
LINE
  5
1313
330
1F
100
AcDbEntity
  8
SIZE
100
AcDbLine
 10
-0.000000000001819
 20
-1632.748001403059
 30
0.0
 11
-0.000000000001819
 21
-1478.315175370108
 31
0.0
  0
LINE
  5
1314
330
1F
100
AcDbEntity
  8
SIZE
100
AcDbLine
 10
-223.5000000000018
 20
-1667.748001403059
 30
0.0
 11
-223.5000000000018
 21
-1478.315175370106
 31
0.0
  0
LINE
  5
1315
330
1F
100
AcDbEntity
  8
SIZE
100
AcDbLine
 10
-15.00000000000182
 20
-1488.315175370108
 30
0.0
 11
-208.5000000000018
 21
-1488.315175370108
 31
0.0
  0
LINE
  5
1316
330
1F
100
AcDbEntity
  8
SIZE
100
AcDbLine
 10
256.4999999999963
 20
-1667.748001403059
 30
0.0
 11
256.4999999999963
 21
-1478.315175370108
 31
0.0
  0
LINE
  5
1317
330
1F
100
AcDbEntity
  8
SIZE
100
AcDbLine
 10
-0.000000000001819
 20
-1632.748001403059
 30
0.0
 11
-0.000000000001819
 21
-1478.315175370108
 31
0.0
  0
LINE
  5
1318
330
1F
100
AcDbEntity
  8
SIZE
100
AcDbLine
 10
241.4999999999963
 20
-1488.315175370108
 30
0.0
 11
14.99999999999818
 21
-1488.315175370108
 31
0.0
  0
TEXT
  5
1319
330
1F
100
AcDbEntity
  8
SIZE
100
AcDbText
 10
68.24999999999636
 20
-1483.315175370107
 30
0.0
 40
40.0
  1
256.5
  7
KAIGAI
100
AcDbText
  0
LINE
  5
131A
330
1F
100
AcDbEntity
  8
SIZE
100
AcDbLine
 10
14.99999999999818
 20
-1492.334413220107
 30
0.0
 11
-0.000000000001819
 21
-1488.315175370108
 31
0.0
  0
LINE
  5
131B
330
1F
100
AcDbEntity
  8
SIZE
100
AcDbLine
 10
-0.000000000001819
 20
-1488.315175370108
 30
0.0
 11
14.99999999999818
 21
-1484.295937520108
 31
0.0
  0
LINE
  5
131C
330
1F
100
AcDbEntity
  8
SIZE
100
AcDbLine
 10
-0.000000000001819
 20
-1488.315175370108
 30
0.0
 11
14.99999999999818
 21
-1488.315175370108
 31
0.0
  0
LINE
  5
131D
330
1F
100
AcDbEntity
  8
SIZE
100
AcDbLine
 10
241.4999999999963
 20
-1484.295937520108
 30
0.0
 11
256.4999999999963
 21
-1488.315175370108
 31
0.0
  0
LINE
  5
131E
330
1F
100
AcDbEntity
  8
SIZE
100
AcDbLine
 10
256.4999999999963
 20
-1488.315175370108
 30
0.0
 11
241.4999999999963
 21
-1492.334413220107
 31
0.0
  0
LINE
  5
131F
330
1F
100
AcDbEntity
  8
SIZE
100
AcDbLine
 10
256.4999999999963
 20
-1488.315175370108
 30
0.0
 11
241.4999999999963
 21
-1488.315175370108
 31
0.0
  0
TEXT
  5
1320
330
1F
100
AcDbEntity
  8
SIZE
100
AcDbText
 10
-171.75
 20
-1483.315175370107
 30
0.0
 40
40.0
  1
223.5
  7
KAIGAI
100
AcDbText
  0
LINE
  5
1321
330
1F
100
AcDbEntity
  8
SIZE
100
AcDbLine
 10
-208.5000000000018
 20
-1492.334413220107
 30
0.0
 11
-223.5000000000018
 21
-1488.315175370106
 31
0.0
  0
LINE
  5
1322
330
1F
100
AcDbEntity
  8
SIZE
100
AcDbLine
 10
-223.5000000000018
 20
-1488.315175370106
 30
0.0
 11
-208.5000000000018
 21
-1484.295937520108
 31
0.0
  0
LINE
  5
1323
330
1F
100
AcDbEntity
  8
SIZE
100
AcDbLine
 10
-223.5000000000018
 20
-1488.315175370106
 30
0.0
 11
-208.5000000000018
 21
-1488.315175370108
 31
0.0
  0
LINE
  5
1324
330
1F
100
AcDbEntity
  8
SIZE
100
AcDbLine
 10
-15.00000000000182
 20
-1484.295937520108
 30
0.0
 11
-0.000000000001819
 21
-1488.315175370108
 31
0.0
  0
LINE
  5
1325
330
1F
100
AcDbEntity
  8
SIZE
100
AcDbLine
 10
-0.000000000001819
 20
-1488.315175370108
 30
0.0
 11
-15.00000000000182
 21
-1492.334413220107
 31
0.0
  0
LINE
  5
1326
330
1F
100
AcDbEntity
  8
SIZE
100
AcDbLine
 10
-0.000000000001819
 20
-1488.315175370108
 30
0.0
 11
-15.00000000000182
 21
-1488.315175370108
 31
0.0
  0
TEXT
  5
1327
330
1F
100
AcDbEntity
  8
SIZE
100
AcDbText
 10
278.5854781245598
 20
-1542.57364036916
 30
0.0
 40
40.0
  1
351
  7
KAIGAI
100
AcDbText
  0
LINE
  5
1328
330
1F
100
AcDbEntity
  8
SIZE
100
AcDbLine
 10
83.99999999999636
 20
-1551.59287821916
 30
0.0
 11
68.99999999999636
 21
-1547.573640369161
 31
0.0
  0
LINE
  5
1329
330
1F
100
AcDbEntity
  8
SIZE
100
AcDbLine
 10
68.99999999999636
 20
-1547.573640369161
 30
0.0
 11
83.99999999999636
 21
-1543.554402519161
 31
0.0
  0
LINE
  5
132A
330
1F
100
AcDbEntity
  8
SIZE
100
AcDbLine
 10
68.99999999999636
 20
-1547.573640369161
 30
0.0
 11
83.99999999999636
 21
-1547.573640369161
 31
0.0
  0
LINE
  5
132B
330
1F
100
AcDbEntity
  8
SIZE
100
AcDbLine
 10
404.9999999999963
 20
-1543.554402519161
 30
0.0
 11
419.9999999999963
 21
-1547.573640369161
 31
0.0
  0
LINE
  5
132C
330
1F
100
AcDbEntity
  8
SIZE
100
AcDbLine
 10
419.9999999999963
 20
-1547.573640369161
 30
0.0
 11
404.9999999999963
 21
-1551.59287821916
 31
0.0
  0
LINE
  5
132D
330
1F
100
AcDbEntity
  8
SIZE
100
AcDbLine
 10
419.9999999999963
 20
-1547.573640369161
 30
0.0
 11
404.9999999999963
 21
-1547.573640369161
 31
0.0
  0
TEXT
  5
132E
330
1F
100
AcDbEntity
  8
SIZE
100
AcDbText
 10
-33.6266613687294
 20
-1542.57364036916
 30
0.0
 40
40.0
  1
105
  7
KAIGAI
100
AcDbText
  0
LINE
  5
132F
330
1F
100
AcDbEntity
  8
SIZE
100
AcDbLine
 10
-21.00000000000363
 20
-1551.59287821916
 30
0.0
 11
-36.00000000000363
 21
-1547.573640369161
 31
0.0
  0
LINE
  5
1330
330
1F
100
AcDbEntity
  8
SIZE
100
AcDbLine
 10
-36.00000000000363
 20
-1547.573640369161
 30
0.0
 11
-21.00000000000363
 21
-1543.554402519161
 31
0.0
  0
LINE
  5
1331
330
1F
100
AcDbEntity
  8
SIZE
100
AcDbLine
 10
-36.00000000000363
 20
-1547.573640369161
 30
0.0
 11
-21.00000000000363
 21
-1547.573640369161
 31
0.0
  0
LINE
  5
1332
330
1F
100
AcDbEntity
  8
SIZE
100
AcDbLine
 10
53.99999999999636
 20
-1543.554402519161
 30
0.0
 11
68.99999999999636
 21
-1547.573640369161
 31
0.0
  0
LINE
  5
1333
330
1F
100
AcDbEntity
  8
SIZE
100
AcDbLine
 10
68.99999999999636
 20
-1547.573640369161
 30
0.0
 11
53.99999999999636
 21
-1551.59287821916
 31
0.0
  0
LINE
  5
1334
330
1F
100
AcDbEntity
  8
SIZE
100
AcDbLine
 10
68.99999999999636
 20
-1547.573640369161
 30
0.0
 11
53.99999999999636
 21
-1547.573640369161
 31
0.0
  0
TEXT
  5
1335
330
1F
100
AcDbEntity
  8
SIZE
100
AcDbText
 10
-339.0593339922233
 20
-1542.57364036916
 30
0.0
 40
40.0
  1
384
  7
KAIGAI
100
AcDbText
  0
LINE
  5
1336
330
1F
100
AcDbEntity
  8
SIZE
100
AcDbLine
 10
-405.0000000000018
 20
-1551.59287821916
 30
0.0
 11
-420.0000000000017
 21
-1547.573640369159
 31
0.0
  0
LINE
  5
1337
330
1F
100
AcDbEntity
  8
SIZE
100
AcDbLine
 10
-420.0000000000017
 20
-1547.573640369159
 30
0.0
 11
-405.0000000000018
 21
-1543.554402519159
 31
0.0
  0
LINE
  5
1338
330
1F
100
AcDbEntity
  8
SIZE
100
AcDbLine
 10
-420.0000000000017
 20
-1547.573640369159
 30
0.0
 11
-405.0000000000018
 21
-1547.573640369159
 31
0.0
  0
LINE
  5
1339
330
1F
100
AcDbEntity
  8
SIZE
100
AcDbLine
 10
-51.00000000000363
 20
-1543.554402519161
 30
0.0
 11
-36.00000000000363
 21
-1547.573640369161
 31
0.0
  0
LINE
  5
133A
330
1F
100
AcDbEntity
  8
SIZE
100
AcDbLine
 10
-36.00000000000363
 20
-1547.573640369161
 30
0.0
 11
-51.00000000000363
 21
-1551.59287821916
 31
0.0
  0
LINE
  5
133B
330
1F
100
AcDbEntity
  8
SIZE
100
AcDbLine
 10
-36.00000000000363
 20
-1547.573640369161
 30
0.0
 11
-51.00000000000363
 21
-1547.573640369161
 31
0.0
  0
TEXT
  5
133C
330
1F
100
AcDbEntity
  8
SIZE
100
AcDbText
 10
-115.0000000000018
 20
-2070.517828058497
 30
0.0
 40
40.0
  1
16.5
  7
KAIGAI
100
AcDbText
  0
LINE
  5
133D
330
1F
100
AcDbEntity
  8
SIZE
100
AcDbLine
 10
-15.00000000000182
 20
-2071.498590208497
 30
0.0
 11
-0.000000000001819
 21
-2075.517828058496
 31
0.0
  0
LINE
  5
133E
330
1F
100
AcDbEntity
  8
SIZE
100
AcDbLine
 10
-0.000000000001819
 20
-2075.517828058496
 30
0.0
 11
-15.00000000000182
 21
-2079.537065908496
 31
0.0
  0
LINE
  5
133F
330
1F
100
AcDbEntity
  8
SIZE
100
AcDbLine
 10
-0.000000000001819
 20
-2075.517828058496
 30
0.0
 11
-15.00000000000182
 21
-2075.517828058496
 31
0.0
  0
LINE
  5
1340
330
1F
100
AcDbEntity
  8
SIZE
100
AcDbLine
 10
31.49999999999818
 20
-2079.537065908496
 30
0.0
 11
16.49999999999818
 21
-2075.517828058496
 31
0.0
  0
LINE
  5
1341
330
1F
100
AcDbEntity
  8
SIZE
100
AcDbLine
 10
16.49999999999818
 20
-2075.517828058496
 30
0.0
 11
31.49999999999818
 21
-2071.498590208497
 31
0.0
  0
LINE
  5
1342
330
1F
100
AcDbEntity
  8
SIZE
100
AcDbLine
 10
16.49999999999818
 20
-2075.517828058496
 30
0.0
 11
31.49999999999818
 21
-2075.517828058496
 31
0.0
  0
TEXT
  5
1343
330
1F
100
AcDbEntity
  8
SIZE
100
AcDbText
 10
620.7285419693071
 20
-1934.746473247259
 30
0.0
 40
40.0
  1
132
 50
90.0
  7
KAIGAI
100
AcDbText
  0
LINE
  5
1344
330
1F
100
AcDbEntity
  8
SIZE
100
AcDbLine
 10
621.7093041193057
 20
-1839.748001403062
 30
0.0
 11
625.7285419693053
 21
-1824.748001403063
 31
0.0
  0
LINE
  5
1345
330
1F
100
AcDbEntity
  8
SIZE
100
AcDbLine
 10
625.7285419693053
 20
-1824.748001403063
 30
0.0
 11
629.7477798193067
 21
-1839.748001403062
 31
0.0
  0
LINE
  5
1346
330
1F
100
AcDbEntity
  8
SIZE
100
AcDbLine
 10
625.7285419693053
 20
-1824.748001403063
 30
0.0
 11
625.7285419693053
 21
-1839.748001403062
 31
0.0
  0
LINE
  5
1347
330
1F
100
AcDbEntity
  8
SIZE
100
AcDbLine
 10
629.7477798193067
 20
-1941.748001403062
 30
0.0
 11
625.7285419693053
 21
-1956.748001403062
 31
0.0
  0
LINE
  5
1348
330
1F
100
AcDbEntity
  8
SIZE
100
AcDbLine
 10
625.7285419693053
 20
-1956.748001403062
 30
0.0
 11
621.7093041193057
 21
-1941.748001403062
 31
0.0
  0
LINE
  5
1349
330
1F
100
AcDbEntity
  8
SIZE
100
AcDbLine
 10
625.7285419693053
 20
-1956.748001403062
 30
0.0
 11
625.7285419693053
 21
-1941.748001403062
 31
0.0
  0
TEXT
  5
134A
330
1F
100
AcDbEntity
  8
SIZE
100
AcDbText
 10
164.7866635143036
 20
-1874.04821088091
 30
0.0
 40
40.0
  1
105
 50
90.0
  7
KAIGAI
100
AcDbText
  0
LINE
  5
134B
330
1F
100
AcDbEntity
  8
SIZE
100
AcDbLine
 10
173.8059013643032
 20
-1864.748001403061
 30
0.0
 11
169.7866635143018
 21
-1879.74800140306
 31
0.0
  0
LINE
  5
134C
330
1F
100
AcDbEntity
  8
SIZE
100
AcDbLine
 10
169.7866635143018
 20
-1879.74800140306
 30
0.0
 11
165.7674256643022
 21
-1864.748001403061
 31
0.0
  0
LINE
  5
134D
330
1F
100
AcDbEntity
  8
SIZE
100
AcDbLine
 10
169.7866635143018
 20
-1879.74800140306
 30
0.0
 11
169.7866635143018
 21
-1864.748001403061
 31
0.0
  0
LINE
  5
134E
330
1F
100
AcDbEntity
  8
SIZE
100
AcDbLine
 10
165.7674256643022
 20
-1789.748001403061
 30
0.0
 11
169.7866635143018
 21
-1774.748001403061
 31
0.0
  0
LINE
  5
134F
330
1F
100
AcDbEntity
  8
SIZE
100
AcDbLine
 10
169.7866635143018
 20
-1774.748001403061
 30
0.0
 11
173.8059013643032
 21
-1789.748001403061
 31
0.0
  0
LINE
  5
1350
330
1F
100
AcDbEntity
  8
SIZE
100
AcDbLine
 10
169.7866635143018
 20
-1774.748001403061
 30
0.0
 11
169.7866635143018
 21
-1789.748001403061
 31
0.0
  0
LINE
  5
1351
330
1F
100
AcDbEntity
  8
BASIS
100
AcDbLine
 10
-256.0
 20
3005.938685239573
 30
0.0
 11
-64.0
 21
3005.938685239571
 31
0.0
  0
LINE
  5
1352
330
1F
100
AcDbEntity
  8
BASIS
100
AcDbLine
 10
-160.0
 20
2909.938685239572
 30
0.0
 11
-160.0
 21
3101.938685239573
 31
0.0
  0
LINE
  5
1353
330
1F
100
AcDbEntity
  8
NOTE
100
AcDbLine
 10
-233.3987666013836
 20
3355.779102686593
 30
0.0
 11
-179.8487666013843
 21
3084.459102686592
 31
0.0
  0
LINE
  5
1354
330
1F
100
AcDbEntity
  8
NOTE
100
AcDbLine
 10
-179.8487666013843
 20
3084.459102686592
 30
0.0
 11
-197.4887666013837
 21
3120.369102686594
 31
0.0
  0
LINE
  5
1355
330
1F
100
AcDbEntity
  8
NOTE
100
AcDbLine
 10
-430.6825962291604
 20
3355.779102686593
 30
0.0
 11
-233.3987666013836
 21
3355.779102686593
 31
0.0
  0
LINE
  5
135A
330
1F
100
AcDbEntity
  8
SIZE
100
AcDbLine
 10
480.0000000000018
 20
3134.938685239571
 30
0.0
 11
631.871212615415
 21
3134.938685239571
 31
0.0
  0
LINE
  5
135B
330
1F
100
AcDbEntity
  8
SIZE
100
AcDbLine
 10
181.0
 20
3005.938685239571
 30
0.0
 11
542.288066384468
 21
3005.938685239569
 31
0.0
  0
LINE
  5
135C
330
1F
100
AcDbEntity
  8
SIZE
100
AcDbLine
 10
621.8712126154151
 20
3119.938685239571
 30
0.0
 11
621.8712126154151
 21
3020.938685239569
 31
0.0
  0
LINE
  5
135D
330
1F
100
AcDbEntity
  8
SIZE
100
AcDbLine
 10
137.5
 20
3057.938685239571
 30
0.0
 11
563.2155534181093
 21
3057.938685239571
 31
0.0
  0
LINE
  5
135E
330
1F
100
AcDbEntity
  8
SIZE
100
AcDbLine
 10
480.0000000000018
 20
3134.938685239565
 30
0.0
 11
563.2155534181093
 21
3134.938685239565
 31
0.0
  0
LINE
  5
135F
330
1F
100
AcDbEntity
  8
SIZE
100
AcDbLine
 10
553.2155534181092
 20
3072.938685239571
 30
0.0
 11
553.2155534181092
 21
3119.938685239565
 31
0.0
  0
LINE
  5
1360
330
1F
100
AcDbEntity
  8
SIZE
100
AcDbLine
 10
137.4999999999981
 20
2952.938685239571
 30
0.0
 11
563.2155534181093
 21
2952.938685239571
 31
0.0
  0
LINE
  5
1361
330
1F
100
AcDbEntity
  8
SIZE
100
AcDbLine
 10
137.5
 20
3057.938685239571
 30
0.0
 11
563.2155534181093
 21
3057.938685239571
 31
0.0
  0
LINE
  5
1362
330
1F
100
AcDbEntity
  8
SIZE
100
AcDbLine
 10
553.2155534181092
 20
2967.938685239571
 30
0.0
 11
553.2155534181092
 21
3042.938685239571
 31
0.0
  0
LINE
  5
1363
330
1F
100
AcDbEntity
  8
SIZE
100
AcDbLine
 10
424.9999999999982
 20
2815.938685239569
 30
0.0
 11
563.2155534181093
 21
2815.938685239569
 31
0.0
  0
LINE
  5
1364
330
1F
100
AcDbEntity
  8
SIZE
100
AcDbLine
 10
137.4999999999981
 20
2952.938685239571
 30
0.0
 11
563.2155534181093
 21
2952.938685239571
 31
0.0
  0
LINE
  5
1365
330
1F
100
AcDbEntity
  8
SIZE
100
AcDbLine
 10
553.2155534181092
 20
2830.938685239569
 30
0.0
 11
553.2155534181092
 21
2937.938685239571
 31
0.0
  0
TEXT
  5
1366
330
1F
100
AcDbEntity
  8
SIZE
100
AcDbText
 10
557.9832104984307
 20
2923.975175917078
 30
0.0
 40
40.0
  1
137
 50
270.0
  7
KAIGAI
100
AcDbText
  0
LINE
  5
1367
330
1F
100
AcDbEntity
  8
SIZE
100
AcDbLine
 10
549.1963155681096
 20
2937.938685239571
 30
0.0
 11
553.2155534181092
 21
2952.938685239571
 31
0.0
  0
LINE
  5
1368
330
1F
100
AcDbEntity
  8
SIZE
100
AcDbLine
 10
553.2155534181092
 20
2952.938685239571
 30
0.0
 11
557.2347912681088
 21
2937.938685239571
 31
0.0
  0
LINE
  5
1369
330
1F
100
AcDbEntity
  8
SIZE
100
AcDbLine
 10
553.2155534181092
 20
2952.938685239571
 30
0.0
 11
553.2155534181092
 21
2937.938685239571
 31
0.0
  0
LINE
  5
136A
330
1F
100
AcDbEntity
  8
SIZE
100
AcDbLine
 10
557.2347912681088
 20
2830.938685239569
 30
0.0
 11
553.2155534181092
 21
2815.938685239569
 31
0.0
  0
LINE
  5
136B
330
1F
100
AcDbEntity
  8
SIZE
100
AcDbLine
 10
553.2155534181092
 20
2815.938685239569
 30
0.0
 11
549.1963155681096
 21
2830.938685239569
 31
0.0
  0
LINE
  5
136C
330
1F
100
AcDbEntity
  8
SIZE
100
AcDbLine
 10
553.2155534181092
 20
2815.938685239569
 30
0.0
 11
553.2155534181092
 21
2830.938685239569
 31
0.0
  0
TEXT
  5
136D
330
1F
100
AcDbEntity
  8
SIZE
100
AcDbText
 10
560.3559006711074
 20
3052.013210714582
 30
0.0
 40
40.0
  1
105
 50
270.0
  7
KAIGAI
100
AcDbText
  0
LINE
  5
136E
330
1F
100
AcDbEntity
  8
SIZE
100
AcDbLine
 10
549.1963155681096
 20
3042.938685239571
 30
0.0
 11
553.2155534181092
 21
3057.938685239571
 31
0.0
  0
LINE
  5
136F
330
1F
100
AcDbEntity
  8
SIZE
100
AcDbLine
 10
553.2155534181092
 20
3057.938685239571
 30
0.0
 11
557.2347912681088
 21
3042.938685239571
 31
0.0
  0
LINE
  5
1370
330
1F
100
AcDbEntity
  8
SIZE
100
AcDbLine
 10
553.2155534181092
 20
3057.938685239571
 30
0.0
 11
553.2155534181092
 21
3042.938685239571
 31
0.0
  0
LINE
  5
1371
330
1F
100
AcDbEntity
  8
SIZE
100
AcDbLine
 10
557.2347912681088
 20
2967.938685239571
 30
0.0
 11
553.2155534181092
 21
2952.938685239571
 31
0.0
  0
LINE
  5
1372
330
1F
100
AcDbEntity
  8
SIZE
100
AcDbLine
 10
553.2155534181092
 20
2952.938685239571
 30
0.0
 11
549.1963155681096
 21
2967.938685239571
 31
0.0
  0
LINE
  5
1373
330
1F
100
AcDbEntity
  8
SIZE
100
AcDbLine
 10
553.2155534181092
 20
2952.938685239571
 30
0.0
 11
553.2155534181092
 21
2967.938685239571
 31
0.0
  0
TEXT
  5
1374
330
1F
100
AcDbEntity
  8
SIZE
100
AcDbText
 10
558.2155534181111
 20
3121.438685239567
 30
0.0
 40
40.0
  1
77
 50
270.0
  7
KAIGAI
100
AcDbText
  0
LINE
  5
1375
330
1F
100
AcDbEntity
  8
SIZE
100
AcDbLine
 10
549.1963155681096
 20
3119.938685239565
 30
0.0
 11
553.2155534181092
 21
3134.938685239565
 31
0.0
  0
LINE
  5
1376
330
1F
100
AcDbEntity
  8
SIZE
100
AcDbLine
 10
553.2155534181092
 20
3134.938685239565
 30
0.0
 11
557.2347912681088
 21
3119.938685239565
 31
0.0
  0
LINE
  5
1377
330
1F
100
AcDbEntity
  8
SIZE
100
AcDbLine
 10
553.2155534181092
 20
3134.938685239565
 30
0.0
 11
553.2155534181092
 21
3119.938685239565
 31
0.0
  0
LINE
  5
1378
330
1F
100
AcDbEntity
  8
SIZE
100
AcDbLine
 10
557.2347912681088
 20
3072.938685239571
 30
0.0
 11
553.2155534181092
 21
3057.938685239571
 31
0.0
  0
LINE
  5
1379
330
1F
100
AcDbEntity
  8
SIZE
100
AcDbLine
 10
553.2155534181092
 20
3057.938685239571
 30
0.0
 11
549.1963155681096
 21
3072.938685239571
 31
0.0
  0
LINE
  5
137A
330
1F
100
AcDbEntity
  8
SIZE
100
AcDbLine
 10
553.2155534181092
 20
3057.938685239571
 30
0.0
 11
553.2155534181092
 21
3072.938685239571
 31
0.0
  0
TEXT
  5
137B
330
1F
100
AcDbEntity
  8
SIZE
100
AcDbText
 10
625.8904504654164
 20
3119.938685239571
 30
0.0
 40
40.0
  1
129
 50
270.0
  7
KAIGAI
100
AcDbText
  0
LINE
  5
137C
330
1F
100
AcDbEntity
  8
SIZE
100
AcDbLine
 10
625.8904504654147
 20
3020.938685239569
 30
0.0
 11
621.8712126154151
 21
3005.938685239569
 31
0.0
  0
LINE
  5
137D
330
1F
100
AcDbEntity
  8
SIZE
100
AcDbLine
 10
621.8712126154151
 20
3005.938685239569
 30
0.0
 11
617.8519747654154
 21
3020.938685239569
 31
0.0
  0
LINE
  5
137E
330
1F
100
AcDbEntity
  8
SIZE
100
AcDbLine
 10
621.8712126154151
 20
3005.938685239569
 30
0.0
 11
621.8712126154151
 21
3020.938685239569
 31
0.0
  0
LINE
  5
137F
330
1F
100
AcDbEntity
  8
SIZE
100
AcDbLine
 10
617.8519747654154
 20
3119.938685239571
 30
0.0
 11
621.8712126154151
 21
3134.938685239571
 31
0.0
  0
LINE
  5
1380
330
1F
100
AcDbEntity
  8
SIZE
100
AcDbLine
 10
621.8712126154151
 20
3134.938685239571
 30
0.0
 11
625.8904504654147
 21
3119.938685239571
 31
0.0
  0
LINE
  5
1381
330
1F
100
AcDbEntity
  8
SIZE
100
AcDbLine
 10
621.8712126154151
 20
3134.938685239571
 30
0.0
 11
621.8712126154151
 21
3119.938685239571
 31
0.0
  0
LINE
  5
1382
330
1F
100
AcDbEntity
  8
SIZE
100
AcDbLine
 10
593.4349675890571
 20
3005.938685239569
 30
0.0
 11
631.871212615415
 21
3005.938685239569
 31
0.0
  0
LINE
  5
1383
330
1F
100
AcDbEntity
  8
SIZE
100
AcDbLine
 10
0.000000000001819
 20
2810.938685239571
 30
0.0
 11
0.000000000001819
 21
2705.392682964229
 31
0.0
  0
LINE
  5
1384
330
1F
100
AcDbEntity
  8
SIZE
100
AcDbLine
 10
80.0
 20
2879.928685239569
 30
0.0
 11
80.0
 21
2705.392682964229
 31
0.0
  0
LINE
  5
1385
330
1F
100
AcDbEntity
  8
SIZE
100
AcDbLine
 10
15.00000000000182
 20
2715.39268296423
 30
0.0
 11
65.0
 21
2715.39268296423
 31
0.0
  0
LINE
  5
1386
330
1F
100
AcDbEntity
  8
SIZE
100
AcDbLine
 10
-160.0
 20
2947.93868523957
 30
0.0
 11
-160.0
 21
2641.395818944158
 31
0.0
  0
LINE
  5
1387
330
1F
100
AcDbEntity
  8
SIZE
100
AcDbLine
 10
80.0
 20
2947.93868523957
 30
0.0
 11
80.0
 21
2641.395818944158
 31
0.0
  0
LINE
  5
1388
330
1F
100
AcDbEntity
  8
SIZE
100
AcDbLine
 10
-145.0
 20
2651.395818944158
 30
0.0
 11
65.0
 21
2651.395818944158
 31
0.0
  0
LINE
  5
1389
330
1F
100
AcDbEntity
  8
SIZE
100
AcDbLine
 10
132.4999999999981
 20
2947.928685239569
 30
0.0
 11
132.4999999999981
 21
2576.419026216012
 31
0.0
  0
LINE
  5
138A
330
1F
100
AcDbEntity
  8
SIZE
100
AcDbLine
 10
419.9999999999981
 20
2810.938685239569
 30
0.0
 11
419.9999999999981
 21
2576.419026216012
 31
0.0
  0
LINE
  5
138B
330
1F
100
AcDbEntity
  8
SIZE
100
AcDbLine
 10
147.4999999999981
 20
2586.419026216011
 30
0.0
 11
404.9999999999982
 21
2586.419026216011
 31
0.0
  0
LINE
  5
138C
330
1F
100
AcDbEntity
  8
SIZE
100
AcDbLine
 10
27.49999999999818
 20
2947.92868523957
 30
0.0
 11
27.49999999999818
 21
2737.716437298997
 31
0.0
  0
LINE
  5
138D
330
1F
100
AcDbEntity
  8
SIZE
100
AcDbLine
 10
132.4999999999981
 20
2884.938685239571
 30
0.0
 11
132.4999999999981
 21
2576.419026216012
 31
0.0
  0
LINE
  5
138E
330
1F
100
AcDbEntity
  8
SIZE
100
AcDbLine
 10
42.49999999999817
 20
2586.419026216011
 30
0.0
 11
117.4999999999981
 21
2586.419026216011
 31
0.0
  0
LINE
  5
138F
330
1F
100
AcDbEntity
  8
SIZE
100
AcDbLine
 10
-107.5000000000018
 20
2884.928685239568
 30
0.0
 11
-107.5000000000018
 21
2576.419026216012
 31
0.0
  0
LINE
  5
1390
330
1F
100
AcDbEntity
  8
SIZE
100
AcDbLine
 10
27.49999999999818
 20
2884.938685239571
 30
0.0
 11
27.49999999999818
 21
2737.716437298997
 31
0.0
  0
LINE
  5
1391
330
1F
100
AcDbEntity
  8
SIZE
100
AcDbLine
 10
-92.50000000000182
 20
2586.419026216011
 30
0.0
 11
12.49999999999818
 21
2586.419026216011
 31
0.0
  0
LINE
  5
1392
330
1F
100
AcDbEntity
  8
SIZE
100
AcDbLine
 10
-212.5000000000018
 20
2884.92868523957
 30
0.0
 11
-212.5000000000018
 21
2576.419026216012
 31
0.0
  0
LINE
  5
1393
330
1F
100
AcDbEntity
  8
SIZE
100
AcDbLine
 10
-107.5000000000018
 20
2947.93868523957
 30
0.0
 11
-107.5000000000018
 21
2576.419026216012
 31
0.0
  0
LINE
  5
1394
330
1F
100
AcDbEntity
  8
SIZE
100
AcDbLine
 10
-197.5000000000018
 20
2586.419026216011
 30
0.0
 11
-122.5000000000018
 21
2586.419026216011
 31
0.0
  0
LINE
  5
1395
330
1F
100
AcDbEntity
  8
SIZE
100
AcDbLine
 10
-420.0
 20
2810.938685239571
 30
0.0
 11
-420.0
 21
2576.419026216012
 31
0.0
  0
LINE
  5
1396
330
1F
100
AcDbEntity
  8
SIZE
100
AcDbLine
 10
-212.5000000000018
 20
2947.93868523957
 30
0.0
 11
-212.5000000000018
 21
2576.419026216012
 31
0.0
  0
LINE
  5
1397
330
1F
100
AcDbEntity
  8
SIZE
100
AcDbLine
 10
-405.0
 20
2586.419026216011
 30
0.0
 11
-227.5000000000018
 21
2586.419026216011
 31
0.0
  0
LINE
  5
1398
330
1F
100
AcDbEntity
  8
SIZE
100
AcDbLine
 10
419.9999999999981
 20
2810.938685239569
 30
0.0
 11
419.9999999999981
 21
2509.350165209809
 31
0.0
  0
LINE
  5
1399
330
1F
100
AcDbEntity
  8
SIZE
100
AcDbLine
 10
-420.0
 20
2810.938685239571
 30
0.0
 11
-420.0
 21
2509.350165209809
 31
0.0
  0
LINE
  5
139A
330
1F
100
AcDbEntity
  8
SIZE
100
AcDbLine
 10
404.9999999999982
 20
2519.350165209809
 30
0.0
 11
-405.0
 21
2519.350165209809
 31
0.0
  0
TEXT
  5
139B
330
1F
100
AcDbEntity
  8
SIZE
100
AcDbText
 10
367.1103003196185
 20
2514.35016520981
 30
0.0
 40
40.0
  1
840
 50
180.0
  7
KAIGAI
100
AcDbText
  0
LINE
  5
139C
330
1F
100
AcDbEntity
  8
SIZE
100
AcDbLine
 10
-405.0
 20
2515.330927359809
 30
0.0
 11
-420.0
 21
2519.350165209809
 31
0.0
  0
LINE
  5
139D
330
1F
100
AcDbEntity
  8
SIZE
100
AcDbLine
 10
-420.0
 20
2519.350165209809
 30
0.0
 11
-405.0
 21
2523.369403059809
 31
0.0
  0
LINE
  5
139E
330
1F
100
AcDbEntity
  8
SIZE
100
AcDbLine
 10
-420.0
 20
2519.350165209809
 30
0.0
 11
-405.0
 21
2519.350165209809
 31
0.0
  0
LINE
  5
139F
330
1F
100
AcDbEntity
  8
SIZE
100
AcDbLine
 10
404.9999999999982
 20
2523.369403059809
 30
0.0
 11
419.9999999999981
 21
2519.350165209809
 31
0.0
  0
LINE
  5
13A0
330
1F
100
AcDbEntity
  8
SIZE
100
AcDbLine
 10
419.9999999999981
 20
2519.350165209809
 30
0.0
 11
404.9999999999982
 21
2515.330927359809
 31
0.0
  0
LINE
  5
13A1
330
1F
100
AcDbEntity
  8
SIZE
100
AcDbLine
 10
419.9999999999981
 20
2519.350165209809
 30
0.0
 11
404.9999999999982
 21
2519.350165209809
 31
0.0
  0
TEXT
  5
13A2
330
1F
100
AcDbEntity
  8
SIZE
100
AcDbText
 10
-252.12366193255
 20
2580.199752211526
 30
0.0
 40
40.0
  1
207.5
 50
180.0
  7
KAIGAI
100
AcDbText
  0
LINE
  5
13A3
330
1F
100
AcDbEntity
  8
SIZE
100
AcDbLine
 10
-227.5000000000018
 20
2590.438264066011
 30
0.0
 11
-212.5000000000018
 21
2586.419026216011
 31
0.0
  0
LINE
  5
13A4
330
1F
100
AcDbEntity
  8
SIZE
100
AcDbLine
 10
-212.5000000000018
 20
2586.419026216011
 30
0.0
 11
-227.5000000000018
 21
2582.399788366012
 31
0.0
  0
LINE
  5
13A5
330
1F
100
AcDbEntity
  8
SIZE
100
AcDbLine
 10
-212.5000000000018
 20
2586.419026216011
 30
0.0
 11
-227.5000000000018
 21
2586.419026216011
 31
0.0
  0
LINE
  5
13A6
330
1F
100
AcDbEntity
  8
SIZE
100
AcDbLine
 10
-405.0
 20
2582.399788366012
 30
0.0
 11
-420.0
 21
2586.419026216011
 31
0.0
  0
LINE
  5
13A7
330
1F
100
AcDbEntity
  8
SIZE
100
AcDbLine
 10
-420.0
 20
2586.419026216011
 30
0.0
 11
-405.0
 21
2590.438264066011
 31
0.0
  0
LINE
  5
13A8
330
1F
100
AcDbEntity
  8
SIZE
100
AcDbLine
 10
-420.0
 20
2586.419026216011
 30
0.0
 11
-405.0
 21
2586.419026216011
 31
0.0
  0
TEXT
  5
13A9
330
1F
100
AcDbEntity
  8
SIZE
100
AcDbText
 10
-116.0586223154168
 20
2579.574034295342
 30
0.0
 40
40.0
  1
105
 50
180.0
  7
KAIGAI
100
AcDbText
  0
LINE
  5
13AA
330
1F
100
AcDbEntity
  8
SIZE
100
AcDbLine
 10
-122.5000000000018
 20
2590.438264066013
 30
0.0
 11
-107.5000000000018
 21
2586.419026216011
 31
0.0
  0
LINE
  5
13AB
330
1F
100
AcDbEntity
  8
SIZE
100
AcDbLine
 10
-107.5000000000018
 20
2586.419026216011
 30
0.0
 11
-122.5000000000018
 21
2582.399788366012
 31
0.0
  0
LINE
  5
13AC
330
1F
100
AcDbEntity
  8
SIZE
100
AcDbLine
 10
-107.5000000000018
 20
2586.419026216011
 30
0.0
 11
-122.5000000000018
 21
2586.419026216011
 31
0.0
  0
LINE
  5
13AD
330
1F
100
AcDbEntity
  8
SIZE
100
AcDbLine
 10
-197.5000000000018
 20
2582.399788366012
 30
0.0
 11
-212.5000000000018
 21
2586.419026216011
 31
0.0
  0
LINE
  5
13AE
330
1F
100
AcDbEntity
  8
SIZE
100
AcDbLine
 10
-212.5000000000018
 20
2586.419026216011
 30
0.0
 11
-197.5000000000018
 21
2590.438264066013
 31
0.0
  0
LINE
  5
13AF
330
1F
100
AcDbEntity
  8
SIZE
100
AcDbLine
 10
-212.5000000000018
 20
2586.419026216011
 30
0.0
 11
-197.5000000000018
 21
2586.419026216011
 31
0.0
  0
TEXT
  5
13B0
330
1F
100
AcDbEntity
  8
SIZE
100
AcDbText
 10
5.868520303323748
 20
2580.162052969964
 30
0.0
 40
40.0
  1
135
 50
180.0
  7
KAIGAI
100
AcDbText
  0
LINE
  5
13B1
330
1F
100
AcDbEntity
  8
SIZE
100
AcDbLine
 10
12.49999999999818
 20
2590.438264066011
 30
0.0
 11
27.49999999999818
 21
2586.419026216011
 31
0.0
  0
LINE
  5
13B2
330
1F
100
AcDbEntity
  8
SIZE
100
AcDbLine
 10
27.49999999999818
 20
2586.419026216011
 30
0.0
 11
12.49999999999818
 21
2582.399788366012
 31
0.0
  0
LINE
  5
13B3
330
1F
100
AcDbEntity
  8
SIZE
100
AcDbLine
 10
27.49999999999818
 20
2586.419026216011
 30
0.0
 11
12.49999999999818
 21
2586.419026216011
 31
0.0
  0
LINE
  5
13B4
330
1F
100
AcDbEntity
  8
SIZE
100
AcDbLine
 10
-92.50000000000182
 20
2582.399788366012
 30
0.0
 11
-107.5000000000018
 21
2586.419026216011
 31
0.0
  0
LINE
  5
13B5
330
1F
100
AcDbEntity
  8
SIZE
100
AcDbLine
 10
-107.5000000000018
 20
2586.419026216011
 30
0.0
 11
-92.50000000000182
 21
2590.438264066011
 31
0.0
  0
LINE
  5
13B6
330
1F
100
AcDbEntity
  8
SIZE
100
AcDbLine
 10
-107.5000000000018
 20
2586.419026216011
 30
0.0
 11
-92.50000000000182
 21
2586.419026216011
 31
0.0
  0
TEXT
  5
13B7
330
1F
100
AcDbEntity
  8
SIZE
100
AcDbText
 10
123.7741249625105
 20
2580.643462216662
 30
0.0
 40
40.0
  1
105
 50
180.0
  7
KAIGAI
100
AcDbText
  0
LINE
  5
13B8
330
1F
100
AcDbEntity
  8
SIZE
100
AcDbLine
 10
117.4999999999981
 20
2590.438264066013
 30
0.0
 11
132.4999999999981
 21
2586.419026216011
 31
0.0
  0
LINE
  5
13B9
330
1F
100
AcDbEntity
  8
SIZE
100
AcDbLine
 10
132.4999999999981
 20
2586.419026216011
 30
0.0
 11
117.4999999999981
 21
2582.399788366012
 31
0.0
  0
LINE
  5
13BA
330
1F
100
AcDbEntity
  8
SIZE
100
AcDbLine
 10
132.4999999999981
 20
2586.419026216011
 30
0.0
 11
117.4999999999981
 21
2586.419026216011
 31
0.0
  0
LINE
  5
13BB
330
1F
100
AcDbEntity
  8
SIZE
100
AcDbLine
 10
42.49999999999817
 20
2582.399788366012
 30
0.0
 11
27.49999999999818
 21
2586.419026216011
 31
0.0
  0
LINE
  5
13BC
330
1F
100
AcDbEntity
  8
SIZE
100
AcDbLine
 10
27.49999999999818
 20
2586.419026216011
 30
0.0
 11
42.49999999999817
 21
2590.438264066013
 31
0.0
  0
LINE
  5
13BD
330
1F
100
AcDbEntity
  8
SIZE
100
AcDbLine
 10
27.49999999999818
 20
2586.419026216011
 30
0.0
 11
42.49999999999817
 21
2586.419026216011
 31
0.0
  0
TEXT
  5
13BE
330
1F
100
AcDbEntity
  8
SIZE
100
AcDbText
 10
336.25
 20
2581.419026216012
 30
0.0
 40
40.0
  1
287.5
 50
180.0
  7
KAIGAI
100
AcDbText
  0
LINE
  5
13BF
330
1F
100
AcDbEntity
  8
SIZE
100
AcDbLine
 10
404.9999999999982
 20
2590.438264066011
 30
0.0
 11
419.9999999999981
 21
2586.419026216011
 31
0.0
  0
LINE
  5
13C0
330
1F
100
AcDbEntity
  8
SIZE
100
AcDbLine
 10
419.9999999999981
 20
2586.419026216011
 30
0.0
 11
404.9999999999982
 21
2582.399788366012
 31
0.0
  0
LINE
  5
13C1
330
1F
100
AcDbEntity
  8
SIZE
100
AcDbLine
 10
419.9999999999981
 20
2586.419026216011
 30
0.0
 11
404.9999999999982
 21
2586.419026216011
 31
0.0
  0
LINE
  5
13C2
330
1F
100
AcDbEntity
  8
SIZE
100
AcDbLine
 10
147.4999999999981
 20
2582.399788366012
 30
0.0
 11
132.4999999999981
 21
2586.419026216011
 31
0.0
  0
LINE
  5
13C3
330
1F
100
AcDbEntity
  8
SIZE
100
AcDbLine
 10
132.4999999999981
 20
2586.419026216011
 30
0.0
 11
147.4999999999981
 21
2590.438264066011
 31
0.0
  0
LINE
  5
13C4
330
1F
100
AcDbEntity
  8
SIZE
100
AcDbLine
 10
132.4999999999981
 20
2586.419026216011
 30
0.0
 11
147.4999999999981
 21
2586.419026216011
 31
0.0
  0
TEXT
  5
13C5
330
1F
100
AcDbEntity
  8
SIZE
100
AcDbText
 10
-2.499999999998181
 20
2646.395818944159
 30
0.0
 40
40.0
  1
240
 50
180.0
  7
KAIGAI
100
AcDbText
  0
LINE
  5
13C6
330
1F
100
AcDbEntity
  8
SIZE
100
AcDbLine
 10
65.0
 20
2655.415056794158
 30
0.0
 11
80.0
 21
2651.395818944158
 31
0.0
  0
LINE
  5
13C7
330
1F
100
AcDbEntity
  8
SIZE
100
AcDbLine
 10
80.0
 20
2651.395818944158
 30
0.0
 11
65.0
 21
2647.376581094158
 31
0.0
  0
LINE
  5
13C8
330
1F
100
AcDbEntity
  8
SIZE
100
AcDbLine
 10
80.0
 20
2651.395818944158
 30
0.0
 11
65.0
 21
2651.395818944158
 31
0.0
  0
LINE
  5
13C9
330
1F
100
AcDbEntity
  8
SIZE
100
AcDbLine
 10
-145.0
 20
2647.376581094158
 30
0.0
 11
-160.0
 21
2651.395818944158
 31
0.0
  0
LINE
  5
13CA
330
1F
100
AcDbEntity
  8
SIZE
100
AcDbLine
 10
-160.0
 20
2651.395818944158
 30
0.0
 11
-145.0
 21
2655.415056794158
 31
0.0
  0
LINE
  5
13CB
330
1F
100
AcDbEntity
  8
SIZE
100
AcDbLine
 10
-160.0
 20
2651.395818944158
 30
0.0
 11
-145.0
 21
2651.395818944158
 31
0.0
  0
TEXT
  5
13CC
330
1F
100
AcDbEntity
  8
SIZE
100
AcDbText
 10
62.50000000000182
 20
2710.39268296423
 30
0.0
 40
40.0
  1
80
 50
180.0
  7
KAIGAI
100
AcDbText
  0
LINE
  5
13CD
330
1F
100
AcDbEntity
  8
SIZE
100
AcDbLine
 10
65.0
 20
2719.411920814229
 30
0.0
 11
80.0
 21
2715.39268296423
 31
0.0
  0
LINE
  5
13CE
330
1F
100
AcDbEntity
  8
SIZE
100
AcDbLine
 10
80.0
 20
2715.39268296423
 30
0.0
 11
65.0
 21
2711.373445114229
 31
0.0
  0
LINE
  5
13CF
330
1F
100
AcDbEntity
  8
SIZE
100
AcDbLine
 10
80.0
 20
2715.39268296423
 30
0.0
 11
65.0
 21
2715.39268296423
 31
0.0
  0
LINE
  5
13D0
330
1F
100
AcDbEntity
  8
SIZE
100
AcDbLine
 10
15.00000000000182
 20
2711.373445114229
 30
0.0
 11
0.000000000001819
 21
2715.39268296423
 31
0.0
  0
LINE
  5
13D1
330
1F
100
AcDbEntity
  8
SIZE
100
AcDbLine
 10
0.000000000001819
 20
2715.39268296423
 30
0.0
 11
15.00000000000182
 21
2719.411920814229
 31
0.0
  0
LINE
  5
13D2
330
1F
100
AcDbEntity
  8
SIZE
100
AcDbLine
 10
0.000000000001819
 20
2715.39268296423
 30
0.0
 11
15.00000000000182
 21
2715.39268296423
 31
0.0
  0
LINE
  5
13D3
330
1F
100
AcDbEntity
  8
SIZE
100
AcDbLine
 10
27.49999999999818
 20
2667.48364175413
 30
0.0
 11
27.49999999999818
 21
2576.419026216012
 31
0.0
  0
LINE
  5
13D4
330
1F
100
AcDbEntity
  8
SIZE
100
AcDbLine
 10
27.49999999999818
 20
2667.48364175413
 30
0.0
 11
27.49999999999818
 21
2576.419026216012
 31
0.0
  0
LINE
  5
13D5
330
1F
100
AcDbEntity
  8
BASIS
100
AcDbLine
 10
418.0000000000018
 20
2962.938685239571
 30
0.0
 11
335.0000000000018
 21
2962.938685239571
 31
0.0
  0
LINE
  5
13D6
330
1F
100
AcDbEntity
  8
BASIS
100
AcDbLine
 10
418.0000000000018
 20
3022.938685239571
 30
0.0
 11
335.0000000000018
 21
3022.938685239571
 31
0.0
  0
CIRCLE
  5
13D8
330
1F
100
AcDbEntity
  8
ARRANGE
100
AcDbCircle
 10
2473.987319740066
 20
-0.0000000000071623
 30
0.0
 40
20.0
  0
POINT
  5
13D9
330
1F
100
AcDbEntity
  8
ARRANGE
100
AcDbPoint
 10
2473.987319740066
 20
-0.0000000000060254
 30
0.0
  0
LINE
  5
13DA
330
1F
100
AcDbEntity
  8
SIZE
100
AcDbLine
 10
2224.487319740066
 20
22.49999999999397
 30
0.0
 11
2100.997319740065
 21
22.49999999999408
 31
0.0
  0
LINE
  5
13DB
330
1F
100
AcDbEntity
  8
SIZE
100
AcDbLine
 10
2149.987319740068
 20
419.9999999999956
 30
0.0
 11
2100.997319740065
 21
419.9999999999959
 31
0.0
  0
LINE
  5
13DC
330
1F
100
AcDbEntity
  8
SIZE
100
AcDbLine
 10
2110.997319740064
 20
37.49999999999397
 30
0.0
 11
2110.997319740064
 21
404.9999999999957
 31
0.0
  0
LINE
  5
13DD
330
1F
100
AcDbEntity
  8
SIZE
100
AcDbLine
 10
2269.477319740068
 20
313.4999999999938
 30
0.0
 11
2001.431993276605
 21
313.4999999999941
 31
0.0
  0
LINE
  5
13DE
330
1F
100
AcDbEntity
  8
SIZE
100
AcDbLine
 10
2149.987319740068
 20
419.9999999999956
 30
0.0
 11
2001.431993276605
 21
419.9999999999959
 31
0.0
  0
LINE
  5
13DF
330
1F
100
AcDbEntity
  8
SIZE
100
AcDbLine
 10
2011.431993276604
 20
328.4999999999941
 30
0.0
 11
2011.431993276604
 21
404.9999999999958
 31
0.0
  0
LINE
  5
13E0
330
1F
100
AcDbEntity
  8
SIZE
100
AcDbLine
 10
2401.867319740067
 20
262.9999999999938
 30
0.0
 11
2050.057141906669
 21
262.999999999994
 31
0.0
  0
LINE
  5
13E1
330
1F
100
AcDbEntity
  8
SIZE
100
AcDbLine
 10
2149.987319740068
 20
419.9999999999956
 30
0.0
 11
2050.057141906669
 21
419.9999999999959
 31
0.0
  0
LINE
  5
13E2
330
1F
100
AcDbEntity
  8
SIZE
100
AcDbLine
 10
2060.057141906669
 20
277.999999999994
 30
0.0
 11
2060.057141906669
 21
404.9999999999958
 31
0.0
  0
LINE
  5
13E3
330
1F
100
AcDbEntity
  8
SIZE
100
AcDbLine
 10
2286.987319740066
 20
22.49999999999397
 30
0.0
 11
2100.497319740065
 21
22.49999999999408
 31
0.0
  0
LINE
  5
13E4
330
1F
100
AcDbEntity
  8
SIZE
100
AcDbLine
 10
2223.987319740066
 20
-82.50000000000591
 30
0.0
 11
2100.497319740065
 21
-82.50000000000591
 31
0.0
  0
LINE
  5
13E5
330
1F
100
AcDbEntity
  8
SIZE
100
AcDbLine
 10
2110.497319740065
 20
7.499999999993974
 30
0.0
 11
2110.497319740065
 21
-67.50000000000591
 31
0.0
  0
LINE
  5
13E6
330
1F
100
AcDbEntity
  8
SIZE
100
AcDbLine
 10
2473.98731974007
 20
479.9999999999938
 30
0.0
 11
2473.98731974007
 21
760.9960303636701
 31
0.0
  0
LINE
  5
13E7
330
1F
100
AcDbEntity
  8
SIZE
100
AcDbLine
 10
2301.987319740068
 20
337.9199999999939
 30
0.0
 11
2301.987319740068
 21
760.9960303636703
 31
0.0
  0
LINE
  5
13E8
330
1F
100
AcDbEntity
  8
SIZE
100
AcDbLine
 10
2458.98731974007
 20
750.9960303636701
 30
0.0
 11
2316.987319740068
 21
750.9960303636703
 31
0.0
  0
LINE
  5
13E9
330
1F
100
AcDbEntity
  8
SIZE
100
AcDbLine
 10
2473.98731974007
 20
479.9999999999938
 30
0.0
 11
2473.98731974007
 21
703.5285459434756
 31
0.0
  0
LINE
  5
13EA
330
1F
100
AcDbEntity
  8
SIZE
100
AcDbLine
 10
2361.987319740068
 20
258.7099999999929
 30
0.0
 11
2361.987319740068
 21
703.5285459434756
 31
0.0
  0
LINE
  5
13EB
330
1F
100
AcDbEntity
  8
SIZE
100
AcDbLine
 10
2458.98731974007
 20
693.5285459434756
 30
0.0
 11
2376.987319740068
 21
693.5285459434756
 31
0.0
  0
LINE
  5
13EC
330
1F
100
AcDbEntity
  8
SIZE
100
AcDbLine
 10
2429.987319740068
 20
299.1999999999927
 30
0.0
 11
2429.987319740068
 21
635.9199999999957
 31
0.0
  0
LINE
  5
13ED
330
1F
100
AcDbEntity
  8
SIZE
100
AcDbLine
 10
2473.98731974007
 20
479.9999999999938
 30
0.0
 11
2473.98731974007
 21
635.9199999999957
 31
0.0
  0
LINE
  5
13EE
330
1F
100
AcDbEntity
  8
SIZE
100
AcDbLine
 10
2444.987319740068
 20
625.9199999999957
 30
0.0
 11
2458.98731974007
 21
625.9199999999957
 31
0.0
  0
LINE
  5
13EF
330
1F
100
AcDbEntity
  8
SIZE
100
AcDbLine
 10
2473.98731974007
 20
625.9199999999957
 30
0.0
 11
2548.98731974007
 21
625.9199999999957
 31
0.0
  0
TEXT
  5
13F0
330
1F
100
AcDbEntity
  8
SIZE
100
AcDbText
 10
2103.703555690846
 20
-77.06177400663
 30
0.0
 40
40.0
  1
105
 50
90.0
  7
KAIGAI
100
AcDbText
  0
LINE
  5
13F1
330
1F
100
AcDbEntity
  8
SIZE
100
AcDbLine
 10
2114.516557590064
 20
-67.50000000000591
 30
0.0
 11
2110.497319740065
 21
-82.50000000000591
 31
0.0
  0
LINE
  5
13F2
330
1F
100
AcDbEntity
  8
SIZE
100
AcDbLine
 10
2110.497319740065
 20
-82.50000000000591
 30
0.0
 11
2106.478081890065
 21
-67.50000000000591
 31
0.0
  0
LINE
  5
13F3
330
1F
100
AcDbEntity
  8
SIZE
100
AcDbLine
 10
2110.497319740065
 20
-82.50000000000591
 30
0.0
 11
2110.497319740065
 21
-67.50000000000591
 31
0.0
  0
LINE
  5
13F4
330
1F
100
AcDbEntity
  8
SIZE
100
AcDbLine
 10
2106.478081890065
 20
7.499999999993974
 30
0.0
 11
2110.497319740065
 21
22.49999999999397
 31
0.0
  0
LINE
  5
13F5
330
1F
100
AcDbEntity
  8
SIZE
100
AcDbLine
 10
2110.497319740065
 20
22.49999999999397
 30
0.0
 11
2114.516557590064
 21
7.499999999993974
 31
0.0
  0
LINE
  5
13F6
330
1F
100
AcDbEntity
  8
SIZE
100
AcDbLine
 10
2110.497319740065
 20
22.49999999999397
 30
0.0
 11
2110.497319740065
 21
7.499999999993974
 31
0.0
  0
TEXT
  5
13F7
330
1F
100
AcDbEntity
  8
SIZE
100
AcDbText
 10
2055.91948734304
 20
310.6584086405491
 30
0.0
 40
40.0
  1
157
 50
90.0
  7
KAIGAI
100
AcDbText
  0
LINE
  5
13F8
330
1F
100
AcDbEntity
  8
SIZE
100
AcDbLine
 10
2056.037904056667
 20
404.9999999999958
 30
0.0
 11
2060.057141906669
 21
419.9999999999959
 31
0.0
  0
LINE
  5
13F9
330
1F
100
AcDbEntity
  8
SIZE
100
AcDbLine
 10
2060.057141906669
 20
419.9999999999959
 30
0.0
 11
2064.076379756668
 21
404.9999999999958
 31
0.0
  0
LINE
  5
13FA
330
1F
100
AcDbEntity
  8
SIZE
100
AcDbLine
 10
2060.057141906669
 20
419.9999999999959
 30
0.0
 11
2060.057141906669
 21
404.9999999999958
 31
0.0
  0
LINE
  5
13FB
330
1F
100
AcDbEntity
  8
SIZE
100
AcDbLine
 10
2064.076379756668
 20
277.999999999994
 30
0.0
 11
2060.057141906669
 21
262.999999999994
 31
0.0
  0
LINE
  5
13FC
330
1F
100
AcDbEntity
  8
SIZE
100
AcDbLine
 10
2060.057141906669
 20
262.999999999994
 30
0.0
 11
2056.037904056667
 21
277.999999999994
 31
0.0
  0
LINE
  5
13FD
330
1F
100
AcDbEntity
  8
SIZE
100
AcDbLine
 10
2060.057141906669
 20
262.999999999994
 30
0.0
 11
2060.057141906669
 21
277.999999999994
 31
0.0
  0
TEXT
  5
13FE
330
1F
100
AcDbEntity
  8
SIZE
100
AcDbText
 10
2005.433580354126
 20
316.5570228438009
 30
0.0
 40
40.0
  1
106.5
 50
90.0
  7
KAIGAI
100
AcDbText
  0
LINE
  5
13FF
330
1F
100
AcDbEntity
  8
SIZE
100
AcDbLine
 10
2007.412755426603
 20
404.9999999999958
 30
0.0
 11
2011.431993276604
 21
419.9999999999959
 31
0.0
  0
LINE
  5
1400
330
1F
100
AcDbEntity
  8
SIZE
100
AcDbLine
 10
2011.431993276604
 20
419.9999999999959
 30
0.0
 11
2015.451231126604
 21
404.9999999999958
 31
0.0
  0
LINE
  5
1401
330
1F
100
AcDbEntity
  8
SIZE
100
AcDbLine
 10
2011.431993276604
 20
419.9999999999959
 30
0.0
 11
2011.431993276604
 21
404.9999999999958
 31
0.0
  0
LINE
  5
1402
330
1F
100
AcDbEntity
  8
SIZE
100
AcDbLine
 10
2015.451231126604
 20
328.4999999999941
 30
0.0
 11
2011.431993276604
 21
313.4999999999941
 31
0.0
  0
LINE
  5
1403
330
1F
100
AcDbEntity
  8
SIZE
100
AcDbLine
 10
2011.431993276604
 20
313.4999999999941
 30
0.0
 11
2007.412755426603
 21
328.4999999999941
 31
0.0
  0
LINE
  5
1404
330
1F
100
AcDbEntity
  8
SIZE
100
AcDbLine
 10
2011.431993276604
 20
313.4999999999941
 30
0.0
 11
2011.431993276604
 21
328.4999999999941
 31
0.0
  0
LINE
  5
1405
330
1F
100
AcDbEntity
  8
SIZE
100
AcDbLine
 10
2330.257319740069
 20
241.4999999999938
 30
0.0
 11
2001.431993276605
 21
241.499999999994
 31
0.0
  0
LINE
  5
1406
330
1F
100
AcDbEntity
  8
SIZE
100
AcDbLine
 10
2269.477319740068
 20
313.4999999999938
 30
0.0
 11
2001.431993276605
 21
313.4999999999941
 31
0.0
  0
LINE
  5
1407
330
1F
100
AcDbEntity
  8
SIZE
100
AcDbLine
 10
2011.431993276604
 20
256.499999999994
 30
0.0
 11
2011.431993276604
 21
298.499999999994
 31
0.0
  0
LINE
  5
1408
330
1F
100
AcDbEntity
  8
SIZE
100
AcDbLine
 10
2212.987319740066
 20
-0.0000000000060254
 30
0.0
 11
2001.431993276605
 21
-0.0000000000059117
 31
0.0
  0
LINE
  5
1409
330
1F
100
AcDbEntity
  8
SIZE
100
AcDbLine
 10
2330.257319740069
 20
241.4999999999938
 30
0.0
 11
2001.431993276605
 21
241.499999999994
 31
0.0
  0
LINE
  5
140A
330
1F
100
AcDbEntity
  8
SIZE
100
AcDbLine
 10
2011.431993276604
 20
14.99999999999408
 30
0.0
 11
2011.431993276604
 21
226.4999999999941
 31
0.0
  0
TEXT
  5
140B
330
1F
100
AcDbEntity
  8
SIZE
100
AcDbText
 10
2105.273723508545
 20
83.70016464116634
 30
0.0
 40
40.0
  1
397.5
 50
90.0
  7
KAIGAI
100
AcDbText
  0
LINE
  5
140C
330
1F
100
AcDbEntity
  8
SIZE
100
AcDbLine
 10
2106.978081890065
 20
404.9999999999957
 30
0.0
 11
2110.997319740064
 21
419.9999999999956
 31
0.0
  0
LINE
  5
140D
330
1F
100
AcDbEntity
  8
SIZE
100
AcDbLine
 10
2110.997319740064
 20
419.9999999999956
 30
0.0
 11
2115.016557590066
 21
404.9999999999957
 31
0.0
  0
LINE
  5
140E
330
1F
100
AcDbEntity
  8
SIZE
100
AcDbLine
 10
2110.997319740064
 20
419.9999999999956
 30
0.0
 11
2110.997319740064
 21
404.9999999999957
 31
0.0
  0
LINE
  5
140F
330
1F
100
AcDbEntity
  8
SIZE
100
AcDbLine
 10
2115.016557590066
 20
37.49999999999397
 30
0.0
 11
2110.997319740064
 21
22.49999999999397
 31
0.0
  0
LINE
  5
1410
330
1F
100
AcDbEntity
  8
SIZE
100
AcDbLine
 10
2110.997319740064
 20
22.49999999999397
 30
0.0
 11
2106.978081890065
 21
37.49999999999397
 31
0.0
  0
LINE
  5
1411
330
1F
100
AcDbEntity
  8
SIZE
100
AcDbLine
 10
2110.997319740064
 20
22.49999999999397
 30
0.0
 11
2110.997319740064
 21
37.49999999999397
 31
0.0
  0
LINE
  5
1412
330
1F
100
AcDbEntity
  8
SIZE
100
AcDbLine
 10
2212.987319740066
 20
-0.0000000000060254
 30
0.0
 11
2050.057141906669
 21
-0.0000000000059117
 31
0.0
  0
LINE
  5
1413
330
1F
100
AcDbEntity
  8
SIZE
100
AcDbLine
 10
2401.867319740067
 20
262.9999999999938
 30
0.0
 11
2050.057141906669
 21
262.999999999994
 31
0.0
  0
LINE
  5
1414
330
1F
100
AcDbEntity
  8
SIZE
100
AcDbLine
 10
2060.057141906669
 20
14.99999999999408
 30
0.0
 11
2060.057141906669
 21
247.999999999994
 31
0.0
  0
LINE
  5
1415
330
1F
100
AcDbEntity
  8
SIZE
100
AcDbLine
 10
2396.987319740066
 20
27.49999999999397
 30
0.0
 11
2396.987319740066
 21
128.5104638502755
 31
0.0
  0
LINE
  5
1416
330
1F
100
AcDbEntity
  8
SIZE
100
AcDbLine
 10
2473.987319740068
 20
4.999999999993974
 30
0.0
 11
2473.987319740068
 21
128.5104638502755
 31
0.0
  0
LINE
  5
1417
330
1F
100
AcDbEntity
  8
SIZE
100
AcDbLine
 10
2411.987319740066
 20
118.5104638502755
 30
0.0
 11
2458.987319740068
 21
118.5104638502755
 31
0.0
  0
LINE
  5
1418
330
1F
100
AcDbEntity
  8
SIZE
100
AcDbLine
 10
2291.987319740066
 20
27.49999999999397
 30
0.0
 11
2291.987319740066
 21
128.5104638502755
 31
0.0
  0
LINE
  5
1419
330
1F
100
AcDbEntity
  8
SIZE
100
AcDbLine
 10
2396.987319740066
 20
27.49999999999397
 30
0.0
 11
2396.987319740066
 21
128.5104638502755
 31
0.0
  0
LINE
  5
141A
330
1F
100
AcDbEntity
  8
SIZE
100
AcDbLine
 10
2306.987319740066
 20
118.5104638502755
 30
0.0
 11
2381.987319740066
 21
118.5104638502755
 31
0.0
  0
LINE
  5
141B
330
1F
100
AcDbEntity
  8
SIZE
100
AcDbLine
 10
2154.987319740067
 20
27.49999999999397
 30
0.0
 11
2154.987319740067
 21
128.5104638502755
 31
0.0
  0
LINE
  5
141C
330
1F
100
AcDbEntity
  8
SIZE
100
AcDbLine
 10
2291.987319740066
 20
27.49999999999397
 30
0.0
 11
2291.987319740066
 21
128.5104638502755
 31
0.0
  0
LINE
  5
141D
330
1F
100
AcDbEntity
  8
SIZE
100
AcDbLine
 10
2169.987319740066
 20
118.5104638502755
 30
0.0
 11
2276.987319740066
 21
118.5104638502755
 31
0.0
  0
LINE
  5
141E
330
1F
100
AcDbEntity
  8
SIZE
100
AcDbLine
 10
2287.487319740066
 20
-82.50000000000591
 30
0.0
 11
2100.997319740065
 21
-82.50000000000591
 31
0.0
  0
LINE
  5
141F
330
1F
100
AcDbEntity
  8
SIZE
100
AcDbLine
 10
2149.987319740062
 20
-420.0000000000058
 30
0.0
 11
2100.997319740065
 21
-420.0000000000058
 31
0.0
  0
LINE
  5
1420
330
1F
100
AcDbEntity
  8
SIZE
100
AcDbLine
 10
2110.997319740064
 20
-97.50000000000591
 30
0.0
 11
2110.997319740064
 21
-405.0000000000059
 31
0.0
  0
LINE
  5
1421
330
1F
100
AcDbEntity
  8
SIZE
100
AcDbLine
 10
2473.987319740066
 20
-480.0000000000077
 30
0.0
 11
2473.987319740066
 21
-611.6660457760085
 31
0.0
  0
LINE
  5
1422
330
1F
100
AcDbEntity
  8
SIZE
100
AcDbLine
 10
2284.987319740066
 20
-343.9984874285096
 30
0.0
 11
2284.987319740066
 21
-611.6660457760085
 31
0.0
  0
LINE
  5
1423
330
1F
100
AcDbEntity
  8
SIZE
100
AcDbLine
 10
2458.987319740066
 20
-601.6660457760085
 30
0.0
 11
2299.987319740066
 21
-601.6660457760085
 31
0.0
  0
TEXT
  5
1424
330
1F
100
AcDbEntity
  8
SIZE
100
AcDbText
 10
2427.292031157898
 20
-607.3874480872109
 30
0.0
 40
40.0
  1
189
 50
180.0
  7
KAIGAI
100
AcDbText
  0
LINE
  5
1425
330
1F
100
AcDbEntity
  8
SIZE
100
AcDbLine
 10
2299.987319740066
 20
-605.6852836260081
 30
0.0
 11
2284.987319740066
 21
-601.6660457760085
 31
0.0
  0
LINE
  5
1426
330
1F
100
AcDbEntity
  8
SIZE
100
AcDbLine
 10
2284.987319740066
 20
-601.6660457760085
 30
0.0
 11
2299.987319740066
 21
-597.6468079260071
 31
0.0
  0
LINE
  5
1427
330
1F
100
AcDbEntity
  8
SIZE
100
AcDbLine
 10
2284.987319740066
 20
-601.6660457760085
 30
0.0
 11
2299.987319740066
 21
-601.6660457760085
 31
0.0
  0
LINE
  5
1428
330
1F
100
AcDbEntity
  8
SIZE
100
AcDbLine
 10
2458.987319740066
 20
-597.6468079260071
 30
0.0
 11
2473.987319740066
 21
-601.6660457760085
 31
0.0
  0
LINE
  5
1429
330
1F
100
AcDbEntity
  8
SIZE
100
AcDbLine
 10
2473.987319740066
 20
-601.6660457760085
 30
0.0
 11
2458.987319740066
 21
-605.6852836260081
 31
0.0
  0
LINE
  5
142A
330
1F
100
AcDbEntity
  8
SIZE
100
AcDbLine
 10
2473.987319740066
 20
-601.6660457760085
 30
0.0
 11
2458.987319740066
 21
-601.6660457760085
 31
0.0
  0
TEXT
  5
142B
330
1F
100
AcDbEntity
  8
SIZE
100
AcDbText
 10
2106.042765662974
 20
-320.2783341722315
 30
0.0
 40
40.0
  1
337.5
 50
90.0
  7
KAIGAI
100
AcDbText
  0
LINE
  5
142C
330
1F
100
AcDbEntity
  8
SIZE
100
AcDbLine
 10
2115.016557590065
 20
-405.0000000000059
 30
0.0
 11
2110.997319740064
 21
-420.0000000000058
 31
0.0
  0
LINE
  5
142D
330
1F
100
AcDbEntity
  8
SIZE
100
AcDbLine
 10
2110.997319740064
 20
-420.0000000000058
 30
0.0
 11
2106.978081890065
 21
-405.0000000000059
 31
0.0
  0
LINE
  5
142E
330
1F
100
AcDbEntity
  8
SIZE
100
AcDbLine
 10
2110.997319740064
 20
-420.0000000000058
 30
0.0
 11
2110.997319740064
 21
-405.0000000000059
 31
0.0
  0
LINE
  5
142F
330
1F
100
AcDbEntity
  8
SIZE
100
AcDbLine
 10
2106.978081890065
 20
-97.50000000000591
 30
0.0
 11
2110.997319740064
 21
-82.50000000000591
 31
0.0
  0
LINE
  5
1430
330
1F
100
AcDbEntity
  8
SIZE
100
AcDbLine
 10
2110.997319740064
 20
-82.50000000000591
 30
0.0
 11
2115.016557590066
 21
-97.50000000000591
 31
0.0
  0
LINE
  5
1431
330
1F
100
AcDbEntity
  8
SIZE
100
AcDbLine
 10
2110.997319740064
 20
-82.50000000000591
 30
0.0
 11
2110.997319740064
 21
-97.50000000000591
 31
0.0
  0
TEXT
  5
1432
330
1F
100
AcDbEntity
  8
SIZE
100
AcDbText
 10
2268.092966703969
 20
110.7583652691318
 30
0.0
 40
40.0
  1
137
 50
180.0
  7
KAIGAI
100
AcDbText
  0
LINE
  5
1433
330
1F
100
AcDbEntity
  8
SIZE
100
AcDbLine
 10
2276.987319740066
 20
122.5297017002751
 30
0.0
 11
2291.987319740066
 21
118.5104638502755
 31
0.0
  0
LINE
  5
1434
330
1F
100
AcDbEntity
  8
SIZE
100
AcDbLine
 10
2291.987319740066
 20
118.5104638502755
 30
0.0
 11
2276.987319740066
 21
114.491226000274
 31
0.0
  0
LINE
  5
1435
330
1F
100
AcDbEntity
  8
SIZE
100
AcDbLine
 10
2291.987319740066
 20
118.5104638502755
 30
0.0
 11
2276.987319740066
 21
118.5104638502755
 31
0.0
  0
LINE
  5
1436
330
1F
100
AcDbEntity
  8
SIZE
100
AcDbLine
 10
2169.987319740066
 20
114.4912260002759
 30
0.0
 11
2154.987319740067
 21
118.5104638502755
 31
0.0
  0
LINE
  5
1437
330
1F
100
AcDbEntity
  8
SIZE
100
AcDbLine
 10
2154.987319740067
 20
118.5104638502755
 30
0.0
 11
2169.987319740066
 21
122.5297017002751
 31
0.0
  0
LINE
  5
1438
330
1F
100
AcDbEntity
  8
SIZE
100
AcDbLine
 10
2154.987319740067
 20
118.5104638502755
 30
0.0
 11
2169.987319740066
 21
118.5104638502755
 31
0.0
  0
TEXT
  5
1439
330
1F
100
AcDbEntity
  8
SIZE
100
AcDbText
 10
2391.812033198135
 20
109.9094594535927
 30
0.0
 40
40.0
  1
105
 50
180.0
  7
KAIGAI
100
AcDbText
  0
LINE
  5
143A
330
1F
100
AcDbEntity
  8
SIZE
100
AcDbLine
 10
2381.987319740066
 20
122.5297017002751
 30
0.0
 11
2396.987319740066
 21
118.5104638502755
 31
0.0
  0
LINE
  5
143B
330
1F
100
AcDbEntity
  8
SIZE
100
AcDbLine
 10
2396.987319740066
 20
118.5104638502755
 30
0.0
 11
2381.987319740066
 21
114.491226000274
 31
0.0
  0
LINE
  5
143C
330
1F
100
AcDbEntity
  8
SIZE
100
AcDbLine
 10
2396.987319740066
 20
118.5104638502755
 30
0.0
 11
2381.987319740066
 21
118.5104638502755
 31
0.0
  0
LINE
  5
143D
330
1F
100
AcDbEntity
  8
SIZE
100
AcDbLine
 10
2306.987319740066
 20
114.491226000274
 30
0.0
 11
2291.987319740066
 21
118.5104638502755
 31
0.0
  0
LINE
  5
143E
330
1F
100
AcDbEntity
  8
SIZE
100
AcDbLine
 10
2291.987319740066
 20
118.5104638502755
 30
0.0
 11
2306.987319740066
 21
122.5297017002751
 31
0.0
  0
LINE
  5
143F
330
1F
100
AcDbEntity
  8
SIZE
100
AcDbLine
 10
2291.987319740066
 20
118.5104638502755
 30
0.0
 11
2306.987319740066
 21
118.5104638502755
 31
0.0
  0
TEXT
  5
1440
330
1F
100
AcDbEntity
  8
SIZE
100
AcDbText
 10
2460.487319740066
 20
113.5104638502743
 30
0.0
 40
40.0
  1
77
 50
180.0
  7
KAIGAI
100
AcDbText
  0
LINE
  5
1441
330
1F
100
AcDbEntity
  8
SIZE
100
AcDbLine
 10
2458.987319740068
 20
122.5297017002751
 30
0.0
 11
2473.987319740068
 21
118.5104638502755
 31
0.0
  0
LINE
  5
1442
330
1F
100
AcDbEntity
  8
SIZE
100
AcDbLine
 10
2473.987319740068
 20
118.5104638502755
 30
0.0
 11
2458.987319740068
 21
114.491226000274
 31
0.0
  0
LINE
  5
1443
330
1F
100
AcDbEntity
  8
SIZE
100
AcDbLine
 10
2473.987319740068
 20
118.5104638502755
 30
0.0
 11
2458.987319740068
 21
118.5104638502755
 31
0.0
  0
LINE
  5
1444
330
1F
100
AcDbEntity
  8
SIZE
100
AcDbLine
 10
2411.987319740066
 20
114.491226000274
 30
0.0
 11
2396.987319740066
 21
118.5104638502755
 31
0.0
  0
LINE
  5
1445
330
1F
100
AcDbEntity
  8
SIZE
100
AcDbLine
 10
2396.987319740066
 20
118.5104638502755
 30
0.0
 11
2411.987319740066
 21
122.5297017002751
 31
0.0
  0
LINE
  5
1446
330
1F
100
AcDbEntity
  8
SIZE
100
AcDbLine
 10
2396.987319740066
 20
118.5104638502755
 30
0.0
 11
2411.987319740066
 21
118.5104638502755
 31
0.0
  0
TEXT
  5
1447
330
1F
100
AcDbEntity
  8
SIZE
100
AcDbText
 10
2055.057141906669
 20
91.49999999999455
 30
0.0
 40
40.0
  1
263
 50
90.0
  7
KAIGAI
100
AcDbText
  0
LINE
  5
1448
330
1F
100
AcDbEntity
  8
SIZE
100
AcDbLine
 10
2056.037904056667
 20
247.999999999994
 30
0.0
 11
2060.057141906669
 21
262.999999999994
 31
0.0
  0
LINE
  5
1449
330
1F
100
AcDbEntity
  8
SIZE
100
AcDbLine
 10
2060.057141906669
 20
262.999999999994
 30
0.0
 11
2064.076379756668
 21
247.999999999994
 31
0.0
  0
LINE
  5
144A
330
1F
100
AcDbEntity
  8
SIZE
100
AcDbLine
 10
2060.057141906669
 20
262.999999999994
 30
0.0
 11
2060.057141906669
 21
247.999999999994
 31
0.0
  0
LINE
  5
144B
330
1F
100
AcDbEntity
  8
SIZE
100
AcDbLine
 10
2064.076379756668
 20
14.99999999999408
 30
0.0
 11
2060.057141906669
 21
-0.0000000000059117
 31
0.0
  0
LINE
  5
144C
330
1F
100
AcDbEntity
  8
SIZE
100
AcDbLine
 10
2060.057141906669
 20
-0.0000000000059117
 30
0.0
 11
2056.037904056667
 21
14.99999999999408
 31
0.0
  0
LINE
  5
144D
330
1F
100
AcDbEntity
  8
SIZE
100
AcDbLine
 10
2060.057141906669
 20
-0.0000000000059117
 30
0.0
 11
2060.057141906669
 21
14.99999999999408
 31
0.0
  0
TEXT
  5
144E
330
1F
100
AcDbEntity
  8
SIZE
100
AcDbText
 10
2006.431993276606
 20
65.74999999999454
 30
0.0
 40
40.0
  1
241.5
 50
90.0
  7
KAIGAI
100
AcDbText
  0
LINE
  5
144F
330
1F
100
AcDbEntity
  8
SIZE
100
AcDbLine
 10
2007.412755426603
 20
226.4999999999941
 30
0.0
 11
2011.431993276604
 21
241.499999999994
 31
0.0
  0
LINE
  5
1450
330
1F
100
AcDbEntity
  8
SIZE
100
AcDbLine
 10
2011.431993276604
 20
241.499999999994
 30
0.0
 11
2015.451231126604
 21
226.4999999999941
 31
0.0
  0
LINE
  5
1451
330
1F
100
AcDbEntity
  8
SIZE
100
AcDbLine
 10
2011.431993276604
 20
241.499999999994
 30
0.0
 11
2011.431993276604
 21
226.4999999999941
 31
0.0
  0
LINE
  5
1452
330
1F
100
AcDbEntity
  8
SIZE
100
AcDbLine
 10
2015.451231126604
 20
14.99999999999408
 30
0.0
 11
2011.431993276604
 21
-0.0000000000059117
 31
0.0
  0
LINE
  5
1453
330
1F
100
AcDbEntity
  8
SIZE
100
AcDbLine
 10
2011.431993276604
 20
-0.0000000000059117
 30
0.0
 11
2007.412755426603
 21
14.99999999999408
 31
0.0
  0
LINE
  5
1454
330
1F
100
AcDbEntity
  8
SIZE
100
AcDbLine
 10
2011.431993276604
 20
-0.0000000000059117
 30
0.0
 11
2011.431993276604
 21
14.99999999999408
 31
0.0
  0
TEXT
  5
1455
330
1F
100
AcDbEntity
  8
SIZE
100
AcDbText
 10
2006.206627353798
 20
245.4212041163846
 30
0.0
 40
40.0
  1
72
 50
90.0
  7
KAIGAI
100
AcDbText
  0
LINE
  5
1456
330
1F
100
AcDbEntity
  8
SIZE
100
AcDbLine
 10
2007.412755426603
 20
298.499999999994
 30
0.0
 11
2011.431993276604
 21
313.4999999999941
 31
0.0
  0
LINE
  5
1457
330
1F
100
AcDbEntity
  8
SIZE
100
AcDbLine
 10
2011.431993276604
 20
313.4999999999941
 30
0.0
 11
2015.451231126604
 21
298.499999999994
 31
0.0
  0
LINE
  5
1458
330
1F
100
AcDbEntity
  8
SIZE
100
AcDbLine
 10
2011.431993276604
 20
313.4999999999941
 30
0.0
 11
2011.431993276604
 21
298.499999999994
 31
0.0
  0
LINE
  5
1459
330
1F
100
AcDbEntity
  8
SIZE
100
AcDbLine
 10
2015.451231126604
 20
256.499999999994
 30
0.0
 11
2011.431993276604
 21
241.499999999994
 31
0.0
  0
LINE
  5
145A
330
1F
100
AcDbEntity
  8
SIZE
100
AcDbLine
 10
2011.431993276604
 20
241.499999999994
 30
0.0
 11
2007.412755426603
 21
256.499999999994
 31
0.0
  0
LINE
  5
145B
330
1F
100
AcDbEntity
  8
SIZE
100
AcDbLine
 10
2011.431993276604
 20
241.499999999994
 30
0.0
 11
2011.431993276604
 21
256.499999999994
 31
0.0
  0
TEXT
  5
145C
330
1F
100
AcDbEntity
  8
SIZE
100
AcDbText
 10
2543.98731974007
 20
620.9199999999945
 30
0.0
 40
40.0
  1
44
 50
180.0
  7
KAIGAI
100
AcDbText
  0
LINE
  5
145D
330
1F
100
AcDbEntity
  8
SIZE
100
AcDbLine
 10
2458.98731974007
 20
629.9392378499954
 30
0.0
 11
2473.98731974007
 21
625.9199999999957
 31
0.0
  0
LINE
  5
145E
330
1F
100
AcDbEntity
  8
SIZE
100
AcDbLine
 10
2473.98731974007
 20
625.9199999999957
 30
0.0
 11
2458.98731974007
 21
621.9007621499943
 31
0.0
  0
LINE
  5
145F
330
1F
100
AcDbEntity
  8
SIZE
100
AcDbLine
 10
2473.98731974007
 20
625.9199999999957
 30
0.0
 11
2458.98731974007
 21
625.9199999999957
 31
0.0
  0
LINE
  5
1460
330
1F
100
AcDbEntity
  8
SIZE
100
AcDbLine
 10
2444.987319740068
 20
621.9007621499943
 30
0.0
 11
2429.987319740068
 21
625.9199999999957
 31
0.0
  0
LINE
  5
1461
330
1F
100
AcDbEntity
  8
SIZE
100
AcDbLine
 10
2429.987319740068
 20
625.9199999999957
 30
0.0
 11
2444.987319740068
 21
629.9392378499954
 31
0.0
  0
LINE
  5
1462
330
1F
100
AcDbEntity
  8
SIZE
100
AcDbLine
 10
2429.987319740068
 20
625.9199999999957
 30
0.0
 11
2444.987319740068
 21
625.9199999999957
 31
0.0
  0
TEXT
  5
1463
330
1F
100
AcDbEntity
  8
SIZE
100
AcDbText
 10
2464.707018201183
 20
685.8263776627209
 30
0.0
 40
40.0
  1
112
 50
180.0
  7
KAIGAI
100
AcDbText
  0
LINE
  5
1464
330
1F
100
AcDbEntity
  8
SIZE
100
AcDbLine
 10
2376.987319740068
 20
689.5093080934759
 30
0.0
 11
2361.987319740068
 21
693.5285459434756
 31
0.0
  0
LINE
  5
1465
330
1F
100
AcDbEntity
  8
SIZE
100
AcDbLine
 10
2361.987319740068
 20
693.5285459434756
 30
0.0
 11
2376.987319740068
 21
697.5477837934752
 31
0.0
  0
LINE
  5
1466
330
1F
100
AcDbEntity
  8
SIZE
100
AcDbLine
 10
2361.987319740068
 20
693.5285459434756
 30
0.0
 11
2376.987319740068
 21
693.5285459434756
 31
0.0
  0
LINE
  5
1467
330
1F
100
AcDbEntity
  8
SIZE
100
AcDbLine
 10
2458.98731974007
 20
697.5477837934752
 30
0.0
 11
2473.98731974007
 21
693.5285459434756
 31
0.0
  0
LINE
  5
1468
330
1F
100
AcDbEntity
  8
SIZE
100
AcDbLine
 10
2473.98731974007
 20
693.5285459434756
 30
0.0
 11
2458.98731974007
 21
689.5093080934759
 31
0.0
  0
LINE
  5
1469
330
1F
100
AcDbEntity
  8
SIZE
100
AcDbLine
 10
2473.98731974007
 20
693.5285459434756
 30
0.0
 11
2458.98731974007
 21
693.5285459434756
 31
0.0
  0
TEXT
  5
146A
330
1F
100
AcDbEntity
  8
SIZE
100
AcDbText
 10
2433.585209180046
 20
746.2269526387172
 30
0.0
 40
40.0
  1
172
 50
180.0
  7
KAIGAI
100
AcDbText
  0
LINE
  5
146B
330
1F
100
AcDbEntity
  8
SIZE
100
AcDbLine
 10
2316.987319740068
 20
746.9767925136707
 30
0.0
 11
2301.987319740068
 21
750.9960303636703
 31
0.0
  0
LINE
  5
146C
330
1F
100
AcDbEntity
  8
SIZE
100
AcDbLine
 10
2301.987319740068
 20
750.9960303636703
 30
0.0
 11
2316.987319740068
 21
755.0152682136699
 31
0.0
  0
LINE
  5
146D
330
1F
100
AcDbEntity
  8
SIZE
100
AcDbLine
 10
2301.987319740068
 20
750.9960303636703
 30
0.0
 11
2316.987319740068
 21
750.9960303636703
 31
0.0
  0
LINE
  5
146E
330
1F
100
AcDbEntity
  8
SIZE
100
AcDbLine
 10
2458.98731974007
 20
755.0152682136697
 30
0.0
 11
2473.98731974007
 21
750.9960303636701
 31
0.0
  0
LINE
  5
146F
330
1F
100
AcDbEntity
  8
SIZE
100
AcDbLine
 10
2473.98731974007
 20
750.9960303636701
 30
0.0
 11
2458.98731974007
 21
746.9767925136705
 31
0.0
  0
LINE
  5
1470
330
1F
100
AcDbEntity
  8
SIZE
100
AcDbLine
 10
2473.98731974007
 20
750.9960303636701
 30
0.0
 11
2458.98731974007
 21
750.9960303636701
 31
0.0
  0
LINE
  5
1471
330
1F
100
AcDbEntity
  8
OUTLINE
100
AcDbLine
 10
-2503.987319740065
 20
-344.9999999999963
 30
0.0
 11
-2503.987319740065
 21
345.0000000000036
 31
0.0
  0
LINE
  5
1472
330
1F
100
AcDbEntity
  8
OUTLINE
100
AcDbLine
 10
-2473.987319740064
 20
-475.0
 30
0.0
 11
-2480.987319740064
 21
-475.0
 31
0.0
  0
LINE
  5
1473
330
1F
100
AcDbEntity
  8
OUTLINE
100
AcDbLine
 10
-2480.987319740064
 20
-475.0
 30
0.0
 11
-2488.987319740064
 21
-419.9999999999981
 31
0.0
  0
LINE
  5
1474
330
1F
100
AcDbEntity
  8
OUTLINE
100
AcDbLine
 10
-2473.987319740068
 20
475.0000000000018
 30
0.0
 11
-2480.987319740068
 21
475.0000000000018
 31
0.0
  0
LINE
  5
1475
330
1F
100
AcDbEntity
  8
OUTLINE
100
AcDbLine
 10
-2480.987319740068
 20
475.0000000000018
 30
0.0
 11
-2488.987319740068
 21
420.0
 31
0.0
  0
LINE
  5
1476
330
1F
100
AcDbEntity
  8
OUTLINE
100
AcDbLine
 10
-2488.987319740064
 20
420.0000000000218
 30
0.0
 11
-2488.987319740064
 21
-419.9999999999981
 31
0.0
  0
LINE
  5
1477
330
1F
100
AcDbEntity
  8
OUTLINE
100
AcDbLine
 10
-2503.987319740065
 20
-344.9999999999963
 30
0.0
 11
-2503.987319740065
 21
345.0000000000036
 31
0.0
  0
LINE
  5
1478
330
1F
100
AcDbEntity
  8
OUTLINE
100
AcDbLine
 10
-2503.987319740065
 20
345.0000000000036
 30
0.0
 11
-2488.987319740064
 21
345.0000000000036
 31
0.0
  0
LINE
  5
1479
330
1F
100
AcDbEntity
  8
OUTLINE
100
AcDbLine
 10
-2473.987319740068
 20
475.0000000000018
 30
0.0
 11
-2473.987319740064
 21
-475.0
 31
0.0
  0
LINE
  5
147A
330
1F
100
AcDbEntity
  8
OUTLINE
100
AcDbLine
 10
-2503.987319740065
 20
-344.9999999999963
 30
0.0
 11
-2488.987319740064
 21
-344.9999999999963
 31
0.0
  0
LINE
  5
147B
330
1F
100
AcDbEntity
  8
OUTLINE
100
AcDbLine
 10
-2154.987319740063
 20
-420.0
 30
0.0
 11
-2154.987319740067
 21
420.0
 31
0.0
  0
LINE
  5
147C
330
1F
100
AcDbEntity
  8
OUTLINE
100
AcDbLine
 10
-2154.987319740067
 20
420.0
 30
0.0
 11
-2461.987319740066
 21
420.0000000000017
 31
0.0
  0
LINE
  5
147D
330
1F
100
AcDbEntity
  8
OUTLINE
100
AcDbLine
 10
-2461.987319740066
 20
420.0000000000017
 30
0.0
 11
-2461.987319740066
 21
430.0000000000018
 31
0.0
  0
LINE
  5
147E
330
1F
100
AcDbEntity
  8
OUTLINE
100
AcDbLine
 10
-2461.987319740066
 20
430.0000000000018
 30
0.0
 11
-2473.987319740066
 21
430.0000000000018
 31
0.0
  0
LINE
  5
147F
330
1F
100
AcDbEntity
  8
OUTLINE
100
AcDbLine
 10
-2473.987319740066
 20
-430.0
 30
0.0
 11
-2461.987319740066
 21
-430.0
 31
0.0
  0
LINE
  5
1480
330
1F
100
AcDbEntity
  8
OUTLINE
100
AcDbLine
 10
-2461.987319740066
 20
-430.0
 30
0.0
 11
-2461.987319740066
 21
-420.0
 31
0.0
  0
LINE
  5
1481
330
1F
100
AcDbEntity
  8
OUTLINE
100
AcDbLine
 10
-2461.987319740066
 20
-420.0
 30
0.0
 11
-2154.987319740063
 21
-420.0
 31
0.0
  0
LINE
  5
1482
330
1F
100
AcDbEntity
  8
BASIS
100
AcDbLine
 10
-2344.987319740066
 20
91.0
 30
0.0
 11
-2344.987319740064
 21
-81.0
 31
0.0
  0
CIRCLE
  5
1483
330
1F
100
AcDbEntity
  8
FIX
100
AcDbCircle
 10
-2387.987319740063
 20
-394.999999999999
 30
0.0
 40
20.0
  0
LINE
  5
1484
330
1F
100
AcDbEntity
  8
BASIS
100
AcDbLine
 10
-2365.207319740066
 20
-395.0
 30
0.0
 11
-2405.567319740063
 21
-395.0
 31
0.0
  0
LINE
  5
1485
330
1F
100
AcDbEntity
  8
BASIS
100
AcDbLine
 10
-2503.987319740065
 20
0.0
 30
0.0
 11
-2154.987319740064
 21
0.0
 31
0.0
  0
LINE
  5
1486
330
1F
100
AcDbEntity
  8
BASIS
100
AcDbLine
 10
-2252.577319740065
 20
5.0
 30
0.0
 11
-2433.597319740065
 21
5.0
 31
0.0
  0
POINT
  5
1487
330
1F
100
AcDbEntity
  8
ARRANGE
100
AcDbPoint
 10
-2473.987319740064
 20
0.0
 30
0.0
  0
CIRCLE
  5
1488
330
1F
100
AcDbEntity
  8
ARRANGE
100
AcDbCircle
 10
-2473.987319740063
 20
0.0000000000009095
 30
0.0
 40
20.0
  0
LINE
  5
1489
330
1F
100
AcDbEntity
  8
BASIS
100
AcDbLine
 10
-2365.207319740066
 20
395.0000000000018
 30
0.0
 11
-2405.567319740066
 21
395.0000000000018
 31
0.0
  0
CIRCLE
  5
148A
330
1F
100
AcDbEntity
  8
FIX
100
AcDbCircle
 10
-2388.977319740062
 20
395.0000000000045
 30
0.0
 40
20.0
  0
CIRCLE
  5
148B
330
1F
100
AcDbEntity
  8
ARRANGE
100
AcDbCircle
 10
-2473.987319740063
 20
0.0000000000009095
 30
0.0
 40
20.0
  0
POINT
  5
148C
330
1F
100
AcDbEntity
  8
ARRANGE
100
AcDbPoint
 10
-2473.987319740064
 20
0.0
 30
0.0
  0
LINE
  5
148D
330
1F
100
AcDbEntity
  8
SIZE
100
AcDbLine
 10
-2473.987319740064
 20
0.0
 30
0.0
 11
-2473.987319740064
 21
5.0
 31
0.0
  0
LINE
  5
148E
330
1F
100
AcDbEntity
  8
SIZE
100
AcDbLine
 10
-2149.987319740062
 20
-420.0
 30
0.0
 11
-1932.020674638142
 21
-420.0
 31
0.0
  0
LINE
  5
148F
330
1F
100
AcDbEntity
  8
SIZE
100
AcDbLine
 10
-2149.987319740066
 20
420.0
 30
0.0
 11
-1932.020674638142
 21
420.0
 31
0.0
  0
LINE
  5
1490
330
1F
100
AcDbEntity
  8
SIZE
100
AcDbLine
 10
-1942.020674638142
 20
-405.0
 30
0.0
 11
-1942.020674638142
 21
405.0
 31
0.0
  0
LINE
  5
1491
330
1F
100
AcDbEntity
  8
SIZE
100
AcDbLine
 10
-2184.987319740068
 20
245.0000000000018
 30
0.0
 11
-1981.733468876033
 21
245.0000000000018
 31
0.0
  0
LINE
  5
1492
330
1F
100
AcDbEntity
  8
SIZE
100
AcDbLine
 10
-2149.987319740066
 20
420.0
 30
0.0
 11
-1981.733468876033
 21
420.0
 31
0.0
  0
LINE
  5
1493
330
1F
100
AcDbEntity
  8
SIZE
100
AcDbLine
 10
-1991.733468876033
 20
260.0000000000018
 30
0.0
 11
-1991.733468876033
 21
405.0
 31
0.0
  0
LINE
  5
1494
330
1F
100
AcDbEntity
  8
SIZE
100
AcDbLine
 10
-2184.987319740068
 20
245.0000000000018
 30
0.0
 11
-1981.733468876033
 21
245.0000000000018
 31
0.0
  0
LINE
  5
1495
330
1F
100
AcDbEntity
  8
SIZE
100
AcDbLine
 10
-2184.987319740068
 20
-234.9999999999981
 30
0.0
 11
-1981.733468876033
 21
-234.9999999999981
 31
0.0
  0
LINE
  5
1496
330
1F
100
AcDbEntity
  8
SIZE
100
AcDbLine
 10
-1991.733468876033
 20
230.0000000000018
 30
0.0
 11
-1991.733468876033
 21
-219.9999999999981
 31
0.0
  0
LINE
  5
1497
330
1F
100
AcDbEntity
  8
SIZE
100
AcDbLine
 10
-2149.987319740062
 20
-420.0
 30
0.0
 11
-1981.733468876033
 21
-420.0
 31
0.0
  0
LINE
  5
1498
330
1F
100
AcDbEntity
  8
SIZE
100
AcDbLine
 10
-2184.987319740068
 20
-234.9999999999981
 30
0.0
 11
-1981.733468876033
 21
-234.9999999999981
 31
0.0
  0
LINE
  5
1499
330
1F
100
AcDbEntity
  8
SIZE
100
AcDbLine
 10
-1991.733468876033
 20
-405.0
 30
0.0
 11
-1991.733468876033
 21
-249.9999999999981
 31
0.0
  0
LINE
  5
149A
330
1F
100
AcDbEntity
  8
SIZE
100
AcDbLine
 10
-2212.987319740065
 20
0.0
 30
0.0
 11
-2035.023338221622
 21
0.0
 31
0.0
  0
LINE
  5
149B
330
1F
100
AcDbEntity
  8
SIZE
100
AcDbLine
 10
-2184.987319740068
 20
-234.9999999999981
 30
0.0
 11
-2035.023338221622
 21
-234.9999999999981
 31
0.0
  0
LINE
  5
149C
330
1F
100
AcDbEntity
  8
SIZE
100
AcDbLine
 10
-2045.023338221623
 20
-15.0
 30
0.0
 11
-2045.023338221623
 21
-219.9999999999981
 31
0.0
  0
LINE
  5
149D
330
1F
100
AcDbEntity
  8
SIZE
100
AcDbLine
 10
-2286.987319740066
 20
57.50000000000182
 30
0.0
 11
-2088.756249196931
 21
57.5
 31
0.0
  0
LINE
  5
149E
330
1F
100
AcDbEntity
  8
SIZE
100
AcDbLine
 10
-2149.987319740066
 20
420.0
 30
0.0
 11
-2088.756249196931
 21
420.0
 31
0.0
  0
LINE
  5
149F
330
1F
100
AcDbEntity
  8
SIZE
100
AcDbLine
 10
-2098.75624919693
 20
72.5
 30
0.0
 11
-2098.75624919693
 21
405.0
 31
0.0
  0
LINE
  5
14A0
330
1F
100
AcDbEntity
  8
SIZE
100
AcDbLine
 10
-2223.987319740066
 20
-47.5
 30
0.0
 11
-2088.756249196931
 21
-47.5
 31
0.0
  0
LINE
  5
14A1
330
1F
100
AcDbEntity
  8
SIZE
100
AcDbLine
 10
-2286.987319740066
 20
57.50000000000182
 30
0.0
 11
-2088.756249196931
 21
57.5
 31
0.0
  0
LINE
  5
14A2
330
1F
100
AcDbEntity
  8
SIZE
100
AcDbLine
 10
-2098.75624919693
 20
-32.5
 30
0.0
 11
-2098.75624919693
 21
42.5
 31
0.0
  0
LINE
  5
14A3
330
1F
100
AcDbEntity
  8
SIZE
100
AcDbLine
 10
-2149.987319740062
 20
-420.0
 30
0.0
 11
-2088.756249196931
 21
-420.0
 31
0.0
  0
LINE
  5
14A4
330
1F
100
AcDbEntity
  8
SIZE
100
AcDbLine
 10
-2286.987319740066
 20
-47.49999999999817
 30
0.0
 11
-2088.756249196931
 21
-47.5
 31
0.0
  0
LINE
  5
14A5
330
1F
100
AcDbEntity
  8
SIZE
100
AcDbLine
 10
-2098.75624919693
 20
-405.0
 30
0.0
 11
-2098.75624919693
 21
-62.5
 31
0.0
  0
LINE
  5
14A6
330
1F
100
AcDbEntity
  8
SIZE
100
AcDbLine
 10
-2291.987319740066
 20
-52.49999999999818
 30
0.0
 11
-2291.987319740066
 21
-175.5479999999988
 31
0.0
  0
LINE
  5
14A7
330
1F
100
AcDbEntity
  8
SIZE
100
AcDbLine
 10
-2154.987319740064
 20
-87.5
 30
0.0
 11
-2154.987319740064
 21
-175.5479999999988
 31
0.0
  0
LINE
  5
14A8
330
1F
100
AcDbEntity
  8
SIZE
100
AcDbLine
 10
-2276.987319740066
 20
-165.5479999999988
 30
0.0
 11
-2169.987319740064
 21
-165.5479999999988
 31
0.0
  0
LINE
  5
14A9
330
1F
100
AcDbEntity
  8
SIZE
100
AcDbLine
 10
-2396.987319740066
 20
-52.49999999999818
 30
0.0
 11
-2396.987319740066
 21
-175.5479999999988
 31
0.0
  0
LINE
  5
14AA
330
1F
100
AcDbEntity
  8
SIZE
100
AcDbLine
 10
-2291.987319740066
 20
-52.49999999999818
 30
0.0
 11
-2291.987319740066
 21
-175.5479999999988
 31
0.0
  0
LINE
  5
14AB
330
1F
100
AcDbEntity
  8
SIZE
100
AcDbLine
 10
-2381.987319740066
 20
-165.5479999999988
 30
0.0
 11
-2306.987319740066
 21
-165.5479999999988
 31
0.0
  0
LINE
  5
14AC
330
1F
100
AcDbEntity
  8
SIZE
100
AcDbLine
 10
-2473.987319740066
 20
-87.5
 30
0.0
 11
-2473.987319740066
 21
-175.4599999999991
 31
0.0
  0
LINE
  5
14AD
330
1F
100
AcDbEntity
  8
SIZE
100
AcDbLine
 10
-2396.987319740066
 20
-52.49999999999818
 30
0.0
 11
-2396.987319740066
 21
-175.4599999999991
 31
0.0
  0
LINE
  5
14AE
330
1F
100
AcDbEntity
  8
SIZE
100
AcDbLine
 10
-2458.987319740066
 20
-165.4599999999991
 30
0.0
 11
-2411.987319740066
 21
-165.4599999999991
 31
0.0
  0
LINE
  5
14AF
330
1F
100
AcDbEntity
  8
SIZE
100
AcDbLine
 10
-2430.832851465697
 20
0.0
 30
0.0
 11
-2563.742723297286
 21
0.0000000000001137
 31
0.0
  0
LINE
  5
14B0
330
1F
100
AcDbEntity
  8
SIZE
100
AcDbLine
 10
-2430.987319740065
 20
5.0
 30
0.0
 11
-2563.742723297286
 21
5.000000000000113
 31
0.0
  0
LINE
  5
14B1
330
1F
100
AcDbEntity
  8
SIZE
100
AcDbLine
 10
-2553.742723297286
 20
-14.99999999999988
 30
0.0
 11
-2553.742723297286
 21
-29.99999999999988
 31
0.0
  0
LINE
  5
14B2
330
1F
100
AcDbEntity
  8
SIZE
100
AcDbLine
 10
-2553.742723297286
 20
20.00000000000011
 30
0.0
 11
-2553.742723297286
 21
65.00000000000023
 31
0.0
  0
LINE
  5
14B3
330
1F
100
AcDbEntity
  8
SIZE
100
AcDbLine
 10
-2553.742723297286
 20
0.0000000000001137
 30
0.0
 11
-2553.742723297286
 21
5.000000000000113
 31
0.0
  0
LINE
  5
14B4
330
1F
100
AcDbEntity
  8
SIZE
100
AcDbLine
 10
-2344.987319740066
 20
62.50000000000182
 30
0.0
 11
-2344.987319740066
 21
168.5310367831334
 31
0.0
  0
LINE
  5
14B5
330
1F
100
AcDbEntity
  8
SIZE
100
AcDbLine
 10
-2473.987319740064
 20
5.0
 30
0.0
 11
-2473.987319740064
 21
168.5310367831334
 31
0.0
  0
LINE
  5
14B6
330
1F
100
AcDbEntity
  8
SIZE
100
AcDbLine
 10
-2359.987319740066
 20
158.5310367831334
 30
0.0
 11
-2458.987319740065
 21
158.5310367831334
 31
0.0
  0
LINE
  5
14B7
330
1F
100
AcDbEntity
  8
SIZE
100
AcDbLine
 10
-2189.987319740066
 20
425.0
 30
0.0
 11
-2189.987319740066
 21
606.2876422861736
 31
0.0
  0
LINE
  5
14B8
330
1F
100
AcDbEntity
  8
SIZE
100
AcDbLine
 10
-2154.987319740067
 20
425.0
 30
0.0
 11
-2154.987319740067
 21
606.2876422861736
 31
0.0
  0
LINE
  5
14B9
330
1F
100
AcDbEntity
  8
SIZE
100
AcDbLine
 10
-2204.987319740066
 20
596.2876422861736
 30
0.0
 11
-2282.987319740066
 21
596.2876422861736
 31
0.0
  0
LINE
  5
14BA
330
1F
100
AcDbEntity
  8
SIZE
100
AcDbLine
 10
-2139.987319740066
 20
596.2876422861736
 30
0.0
 11
-2064.987319740066
 21
596.2876422861736
 31
0.0
  0
LINE
  5
14BB
330
1F
100
AcDbEntity
  8
SIZE
100
AcDbLine
 10
-2189.987319740066
 20
596.2876422861736
 30
0.0
 11
-2154.987319740067
 21
596.2876422861736
 31
0.0
  0
LINE
  5
14BC
330
1F
100
AcDbEntity
  8
SIZE
100
AcDbLine
 10
-2372.987319740068
 20
250.0000000000018
 30
0.0
 11
-2372.987319740067
 21
606.2876422861736
 31
0.0
  0
LINE
  5
14BD
330
1F
100
AcDbEntity
  8
SIZE
100
AcDbLine
 10
-2189.987319740068
 20
250.0000000000018
 30
0.0
 11
-2189.987319740066
 21
606.2876422861736
 31
0.0
  0
LINE
  5
14BE
330
1F
100
AcDbEntity
  8
SIZE
100
AcDbLine
 10
-2357.987319740066
 20
596.2876422861736
 30
0.0
 11
-2204.987319740066
 21
596.2876422861736
 31
0.0
  0
LINE
  5
14BF
330
1F
100
AcDbEntity
  8
SIZE
100
AcDbLine
 10
-2473.987319740068
 20
480.0000000000018
 30
0.0
 11
-2473.987319740068
 21
606.2876422861736
 31
0.0
  0
LINE
  5
14C0
330
1F
100
AcDbEntity
  8
SIZE
100
AcDbLine
 10
-2372.987319740068
 20
250.0000000000018
 30
0.0
 11
-2372.987319740067
 21
606.2876422861736
 31
0.0
  0
LINE
  5
14C1
330
1F
100
AcDbEntity
  8
SIZE
100
AcDbLine
 10
-2458.987319740068
 20
596.2876422861736
 30
0.0
 11
-2387.987319740066
 21
596.2876422861736
 31
0.0
  0
TEXT
  5
14C2
330
1F
100
AcDbEntity
  8
SIZE
100
AcDbText
 10
-2462.443363326241
 20
605.1828800012199
 30
0.0
 40
40.0
  1
101
  7
KAIGAI
100
AcDbText
  0
LINE
  5
14C3
330
1F
100
AcDbEntity
  8
SIZE
100
AcDbLine
 10
-2387.987319740066
 20
600.3068801361733
 30
0.0
 11
-2372.987319740067
 21
596.2876422861736
 31
0.0
  0
LINE
  5
14C4
330
1F
100
AcDbEntity
  8
SIZE
100
AcDbLine
 10
-2372.987319740067
 20
596.2876422861736
 30
0.0
 11
-2387.987319740066
 21
592.268404436174
 31
0.0
  0
LINE
  5
14C5
330
1F
100
AcDbEntity
  8
SIZE
100
AcDbLine
 10
-2372.987319740067
 20
596.2876422861736
 30
0.0
 11
-2387.987319740066
 21
596.2876422861736
 31
0.0
  0
LINE
  5
14C6
330
1F
100
AcDbEntity
  8
SIZE
100
AcDbLine
 10
-2458.987319740068
 20
592.268404436174
 30
0.0
 11
-2473.987319740068
 21
596.2876422861736
 31
0.0
  0
LINE
  5
14C7
330
1F
100
AcDbEntity
  8
SIZE
100
AcDbLine
 10
-2473.987319740068
 20
596.2876422861736
 30
0.0
 11
-2458.987319740068
 21
600.3068801361733
 31
0.0
  0
LINE
  5
14C8
330
1F
100
AcDbEntity
  8
SIZE
100
AcDbLine
 10
-2473.987319740068
 20
596.2876422861736
 30
0.0
 11
-2458.987319740068
 21
596.2876422861736
 31
0.0
  0
TEXT
  5
14C9
330
1F
100
AcDbEntity
  8
SIZE
100
AcDbText
 10
-2329.100787946437
 20
605.0126840690036
 30
0.0
 40
40.0
  1
183
  7
KAIGAI
100
AcDbText
  0
LINE
  5
14CA
330
1F
100
AcDbEntity
  8
SIZE
100
AcDbLine
 10
-2204.987319740066
 20
600.3068801361733
 30
0.0
 11
-2189.987319740066
 21
596.2876422861736
 31
0.0
  0
LINE
  5
14CB
330
1F
100
AcDbEntity
  8
SIZE
100
AcDbLine
 10
-2189.987319740066
 20
596.2876422861736
 30
0.0
 11
-2204.987319740066
 21
592.268404436174
 31
0.0
  0
LINE
  5
14CC
330
1F
100
AcDbEntity
  8
SIZE
100
AcDbLine
 10
-2189.987319740066
 20
596.2876422861736
 30
0.0
 11
-2204.987319740066
 21
596.2876422861736
 31
0.0
  0
LINE
  5
14CD
330
1F
100
AcDbEntity
  8
SIZE
100
AcDbLine
 10
-2357.987319740066
 20
592.268404436174
 30
0.0
 11
-2372.987319740067
 21
596.2876422861736
 31
0.0
  0
LINE
  5
14CE
330
1F
100
AcDbEntity
  8
SIZE
100
AcDbLine
 10
-2372.987319740067
 20
596.2876422861736
 30
0.0
 11
-2357.987319740066
 21
600.3068801361733
 31
0.0
  0
LINE
  5
14CF
330
1F
100
AcDbEntity
  8
SIZE
100
AcDbLine
 10
-2372.987319740067
 20
596.2876422861736
 30
0.0
 11
-2357.987319740066
 21
596.2876422861736
 31
0.0
  0
TEXT
  5
14D0
330
1F
100
AcDbEntity
  8
SIZE
100
AcDbText
 10
-2119.987319740065
 20
601.2876422861745
 30
0.0
 40
40.0
  1
35
  7
KAIGAI
100
AcDbText
  0
LINE
  5
14D1
330
1F
100
AcDbEntity
  8
SIZE
100
AcDbLine
 10
-2139.987319740066
 20
592.268404436174
 30
0.0
 11
-2154.987319740067
 21
596.2876422861736
 31
0.0
  0
LINE
  5
14D2
330
1F
100
AcDbEntity
  8
SIZE
100
AcDbLine
 10
-2154.987319740067
 20
596.2876422861736
 30
0.0
 11
-2139.987319740066
 21
600.3068801361733
 31
0.0
  0
LINE
  5
14D3
330
1F
100
AcDbEntity
  8
SIZE
100
AcDbLine
 10
-2154.987319740067
 20
596.2876422861736
 30
0.0
 11
-2139.987319740066
 21
596.2876422861736
 31
0.0
  0
LINE
  5
14D4
330
1F
100
AcDbEntity
  8
SIZE
100
AcDbLine
 10
-2204.987319740066
 20
600.3068801361733
 30
0.0
 11
-2189.987319740066
 21
596.2876422861736
 31
0.0
  0
LINE
  5
14D5
330
1F
100
AcDbEntity
  8
SIZE
100
AcDbLine
 10
-2189.987319740066
 20
596.2876422861736
 30
0.0
 11
-2204.987319740066
 21
592.268404436174
 31
0.0
  0
LINE
  5
14D6
330
1F
100
AcDbEntity
  8
SIZE
100
AcDbLine
 10
-2189.987319740066
 20
596.2876422861736
 30
0.0
 11
-2204.987319740066
 21
596.2876422861736
 31
0.0
  0
TEXT
  5
14D7
330
1F
100
AcDbEntity
  8
SIZE
100
AcDbText
 10
-2454.283524697566
 20
163.2555389942399
 30
0.0
 40
40.0
  1
129
  7
KAIGAI
100
AcDbText
  0
LINE
  5
14D8
330
1F
100
AcDbEntity
  8
SIZE
100
AcDbLine
 10
-2458.987319740065
 20
154.5117989331338
 30
0.0
 11
-2473.987319740064
 21
158.5310367831334
 31
0.0
  0
LINE
  5
14D9
330
1F
100
AcDbEntity
  8
SIZE
100
AcDbLine
 10
-2473.987319740064
 20
158.5310367831334
 30
0.0
 11
-2458.987319740065
 21
162.550274633133
 31
0.0
  0
LINE
  5
14DA
330
1F
100
AcDbEntity
  8
SIZE
100
AcDbLine
 10
-2473.987319740064
 20
158.5310367831334
 30
0.0
 11
-2458.987319740065
 21
158.5310367831334
 31
0.0
  0
LINE
  5
14DB
330
1F
100
AcDbEntity
  8
SIZE
100
AcDbLine
 10
-2359.987319740066
 20
162.550274633133
 30
0.0
 11
-2344.987319740066
 21
158.5310367831334
 31
0.0
  0
LINE
  5
14DC
330
1F
100
AcDbEntity
  8
SIZE
100
AcDbLine
 10
-2344.987319740066
 20
158.5310367831334
 30
0.0
 11
-2359.987319740066
 21
154.5117989331338
 31
0.0
  0
LINE
  5
14DD
330
1F
100
AcDbEntity
  8
SIZE
100
AcDbLine
 10
-2344.987319740066
 20
158.5310367831334
 30
0.0
 11
-2359.987319740066
 21
158.5310367831334
 31
0.0
  0
TEXT
  5
14DE
330
1F
100
AcDbEntity
  8
SIZE
100
AcDbText
 10
-2548.742723297284
 20
60.00000000000091
 30
0.0
 40
40.0
  1
5
 50
270.0
  7
KAIGAI
100
AcDbText
  0
LINE
  5
14DF
330
1F
100
AcDbEntity
  8
SIZE
100
AcDbLine
 10
-2549.723485447286
 20
20.00000000000011
 30
0.0
 11
-2553.742723297286
 21
5.000000000000113
 31
0.0
  0
LINE
  5
14E0
330
1F
100
AcDbEntity
  8
SIZE
100
AcDbLine
 10
-2553.742723297286
 20
5.000000000000113
 30
0.0
 11
-2557.761961147285
 21
20.00000000000011
 31
0.0
  0
LINE
  5
14E1
330
1F
100
AcDbEntity
  8
SIZE
100
AcDbLine
 10
-2553.742723297286
 20
5.000000000000113
 30
0.0
 11
-2553.742723297286
 21
20.00000000000011
 31
0.0
  0
LINE
  5
14E2
330
1F
100
AcDbEntity
  8
SIZE
100
AcDbLine
 10
-2557.761961147285
 20
-14.99999999999988
 30
0.0
 11
-2553.742723297286
 21
0.0000000000001137
 31
0.0
  0
LINE
  5
14E3
330
1F
100
AcDbEntity
  8
SIZE
100
AcDbLine
 10
-2553.742723297286
 20
0.0000000000001137
 30
0.0
 11
-2549.723485447286
 21
-14.99999999999988
 31
0.0
  0
LINE
  5
14E4
330
1F
100
AcDbEntity
  8
SIZE
100
AcDbLine
 10
-2553.742723297286
 20
0.0000000000001137
 30
0.0
 11
-2553.742723297286
 21
-14.99999999999988
 31
0.0
  0
TEXT
  5
14E5
330
1F
100
AcDbEntity
  8
SIZE
100
AcDbText
 10
-2460.487319740065
 20
-160.4599999999981
 30
0.0
 40
40.0
  1
77
  7
KAIGAI
100
AcDbText
  0
LINE
  5
14E6
330
1F
100
AcDbEntity
  8
SIZE
100
AcDbLine
 10
-2411.987319740066
 20
-161.4407621499994
 30
0.0
 11
-2396.987319740066
 21
-165.4599999999991
 31
0.0
  0
LINE
  5
14E7
330
1F
100
AcDbEntity
  8
SIZE
100
AcDbLine
 10
-2396.987319740066
 20
-165.4599999999991
 30
0.0
 11
-2411.987319740066
 21
-169.4792378499987
 31
0.0
  0
LINE
  5
14E8
330
1F
100
AcDbEntity
  8
SIZE
100
AcDbLine
 10
-2396.987319740066
 20
-165.4599999999991
 30
0.0
 11
-2411.987319740066
 21
-165.4599999999991
 31
0.0
  0
LINE
  5
14E9
330
1F
100
AcDbEntity
  8
SIZE
100
AcDbLine
 10
-2458.987319740066
 20
-169.4792378499987
 30
0.0
 11
-2473.987319740066
 21
-165.4599999999991
 31
0.0
  0
LINE
  5
14EA
330
1F
100
AcDbEntity
  8
SIZE
100
AcDbLine
 10
-2473.987319740066
 20
-165.4599999999991
 30
0.0
 11
-2458.987319740066
 21
-161.4407621499994
 31
0.0
  0
LINE
  5
14EB
330
1F
100
AcDbEntity
  8
SIZE
100
AcDbLine
 10
-2473.987319740066
 20
-165.4599999999991
 30
0.0
 11
-2458.987319740066
 21
-165.4599999999991
 31
0.0
  0
TEXT
  5
14EC
330
1F
100
AcDbEntity
  8
SIZE
100
AcDbText
 10
-2384.683319166415
 20
-158.4344568423938
 30
0.0
 40
40.0
  1
105
  7
KAIGAI
100
AcDbText
  0
LINE
  5
14ED
330
1F
100
AcDbEntity
  8
SIZE
100
AcDbLine
 10
-2306.987319740066
 20
-161.5287621499992
 30
0.0
 11
-2291.987319740066
 21
-165.5479999999988
 31
0.0
  0
LINE
  5
14EE
330
1F
100
AcDbEntity
  8
SIZE
100
AcDbLine
 10
-2291.987319740066
 20
-165.5479999999988
 30
0.0
 11
-2306.987319740066
 21
-169.5672378499985
 31
0.0
  0
LINE
  5
14EF
330
1F
100
AcDbEntity
  8
SIZE
100
AcDbLine
 10
-2291.987319740066
 20
-165.5479999999988
 30
0.0
 11
-2306.987319740066
 21
-165.5479999999988
 31
0.0
  0
LINE
  5
14F0
330
1F
100
AcDbEntity
  8
SIZE
100
AcDbLine
 10
-2381.987319740066
 20
-169.5672378499985
 30
0.0
 11
-2396.987319740066
 21
-165.5479999999988
 31
0.0
  0
LINE
  5
14F1
330
1F
100
AcDbEntity
  8
SIZE
100
AcDbLine
 10
-2396.987319740066
 20
-165.5479999999988
 30
0.0
 11
-2381.987319740066
 21
-161.5287621499992
 31
0.0
  0
LINE
  5
14F2
330
1F
100
AcDbEntity
  8
SIZE
100
AcDbLine
 10
-2396.987319740066
 20
-165.5479999999988
 30
0.0
 11
-2381.987319740066
 21
-165.5479999999988
 31
0.0
  0
TEXT
  5
14F3
330
1F
100
AcDbEntity
  8
SIZE
100
AcDbText
 10
-2248.487319740063
 20
-160.5479999999978
 30
0.0
 40
40.0
  1
137
  7
KAIGAI
100
AcDbText
  0
LINE
  5
14F4
330
1F
100
AcDbEntity
  8
SIZE
100
AcDbLine
 10
-2169.987319740064
 20
-161.5287621499992
 30
0.0
 11
-2154.987319740064
 21
-165.5479999999988
 31
0.0
  0
LINE
  5
14F5
330
1F
100
AcDbEntity
  8
SIZE
100
AcDbLine
 10
-2154.987319740064
 20
-165.5479999999988
 30
0.0
 11
-2169.987319740064
 21
-169.5672378499985
 31
0.0
  0
LINE
  5
14F6
330
1F
100
AcDbEntity
  8
SIZE
100
AcDbLine
 10
-2154.987319740064
 20
-165.5479999999988
 30
0.0
 11
-2169.987319740064
 21
-165.5479999999988
 31
0.0
  0
LINE
  5
14F7
330
1F
100
AcDbEntity
  8
SIZE
100
AcDbLine
 10
-2276.987319740066
 20
-169.5672378499985
 30
0.0
 11
-2291.987319740066
 21
-165.5479999999988
 31
0.0
  0
LINE
  5
14F8
330
1F
100
AcDbEntity
  8
SIZE
100
AcDbLine
 10
-2291.987319740066
 20
-165.5479999999988
 30
0.0
 11
-2276.987319740066
 21
-161.5287621499992
 31
0.0
  0
LINE
  5
14F9
330
1F
100
AcDbEntity
  8
SIZE
100
AcDbLine
 10
-2291.987319740066
 20
-165.5479999999988
 30
0.0
 11
-2276.987319740066
 21
-165.5479999999988
 31
0.0
  0
TEXT
  5
14FA
330
1F
100
AcDbEntity
  8
SIZE
100
AcDbText
 10
-2093.756249196929
 20
-239.3689806883403
 30
0.0
 40
40.0
  1
372.5
 50
270.0
  7
KAIGAI
100
AcDbText
  0
LINE
  5
14FB
330
1F
100
AcDbEntity
  8
SIZE
100
AcDbLine
 10
-2102.775487046931
 20
-62.5
 30
0.0
 11
-2098.75624919693
 21
-47.5
 31
0.0
  0
LINE
  5
14FC
330
1F
100
AcDbEntity
  8
SIZE
100
AcDbLine
 10
-2098.75624919693
 20
-47.5
 30
0.0
 11
-2094.737011346931
 21
-62.5
 31
0.0
  0
LINE
  5
14FD
330
1F
100
AcDbEntity
  8
SIZE
100
AcDbLine
 10
-2098.75624919693
 20
-47.5
 30
0.0
 11
-2098.75624919693
 21
-62.5
 31
0.0
  0
LINE
  5
14FE
330
1F
100
AcDbEntity
  8
SIZE
100
AcDbLine
 10
-2094.737011346931
 20
-405.0
 30
0.0
 11
-2098.75624919693
 21
-420.0
 31
0.0
  0
LINE
  5
14FF
330
1F
100
AcDbEntity
  8
SIZE
100
AcDbLine
 10
-2098.75624919693
 20
-420.0
 30
0.0
 11
-2102.775487046931
 21
-405.0
 31
0.0
  0
LINE
  5
1500
330
1F
100
AcDbEntity
  8
SIZE
100
AcDbLine
 10
-2098.75624919693
 20
-420.0
 30
0.0
 11
-2098.75624919693
 21
-405.0
 31
0.0
  0
TEXT
  5
1501
330
1F
100
AcDbEntity
  8
SIZE
100
AcDbText
 10
-2091.246898461588
 20
48.39444500595425
 30
0.0
 40
40.0
  1
105
 50
270.0
  7
KAIGAI
100
AcDbText
  0
LINE
  5
1502
330
1F
100
AcDbEntity
  8
SIZE
100
AcDbLine
 10
-2102.775487046931
 20
42.5
 30
0.0
 11
-2098.75624919693
 21
57.5
 31
0.0
  0
LINE
  5
1503
330
1F
100
AcDbEntity
  8
SIZE
100
AcDbLine
 10
-2098.75624919693
 20
57.5
 30
0.0
 11
-2094.737011346931
 21
42.5
 31
0.0
  0
LINE
  5
1504
330
1F
100
AcDbEntity
  8
SIZE
100
AcDbLine
 10
-2098.75624919693
 20
57.5
 30
0.0
 11
-2098.75624919693
 21
42.5
 31
0.0
  0
LINE
  5
1505
330
1F
100
AcDbEntity
  8
SIZE
100
AcDbLine
 10
-2094.737011346931
 20
-32.5
 30
0.0
 11
-2098.75624919693
 21
-47.5
 31
0.0
  0
LINE
  5
1506
330
1F
100
AcDbEntity
  8
SIZE
100
AcDbLine
 10
-2098.75624919693
 20
-47.5
 30
0.0
 11
-2102.775487046931
 21
-32.5
 31
0.0
  0
LINE
  5
1507
330
1F
100
AcDbEntity
  8
SIZE
100
AcDbLine
 10
-2098.75624919693
 20
-47.5
 30
0.0
 11
-2098.75624919693
 21
-32.5
 31
0.0
  0
TEXT
  5
1508
330
1F
100
AcDbEntity
  8
SIZE
100
AcDbText
 10
-2093.756249196929
 20
230.2912042012912
 30
0.0
 40
40.0
  1
362.5
 50
270.0
  7
KAIGAI
100
AcDbText
  0
LINE
  5
1509
330
1F
100
AcDbEntity
  8
SIZE
100
AcDbLine
 10
-2102.775487046931
 20
405.0
 30
0.0
 11
-2098.75624919693
 21
420.0
 31
0.0
  0
LINE
  5
150A
330
1F
100
AcDbEntity
  8
SIZE
100
AcDbLine
 10
-2098.75624919693
 20
420.0
 30
0.0
 11
-2094.737011346931
 21
405.0
 31
0.0
  0
LINE
  5
150B
330
1F
100
AcDbEntity
  8
SIZE
100
AcDbLine
 10
-2098.75624919693
 20
420.0
 30
0.0
 11
-2098.75624919693
 21
405.0
 31
0.0
  0
LINE
  5
150C
330
1F
100
AcDbEntity
  8
SIZE
100
AcDbLine
 10
-2094.737011346931
 20
72.5
 30
0.0
 11
-2098.75624919693
 21
57.5
 31
0.0
  0
LINE
  5
150D
330
1F
100
AcDbEntity
  8
SIZE
100
AcDbLine
 10
-2098.75624919693
 20
57.5
 30
0.0
 11
-2102.775487046931
 21
72.5
 31
0.0
  0
LINE
  5
150E
330
1F
100
AcDbEntity
  8
SIZE
100
AcDbLine
 10
-2098.75624919693
 20
57.5
 30
0.0
 11
-2098.75624919693
 21
72.5
 31
0.0
  0
TEXT
  5
150F
330
1F
100
AcDbEntity
  8
SIZE
100
AcDbText
 10
-2040.023338221621
 20
-77.49999999999932
 30
0.0
 40
40.0
  1
235
 50
270.0
  7
KAIGAI
100
AcDbText
  0
LINE
  5
1510
330
1F
100
AcDbEntity
  8
SIZE
100
AcDbLine
 10
-2041.004100371623
 20
-219.9999999999981
 30
0.0
 11
-2045.023338221623
 21
-234.9999999999981
 31
0.0
  0
LINE
  5
1511
330
1F
100
AcDbEntity
  8
SIZE
100
AcDbLine
 10
-2045.023338221623
 20
-234.9999999999981
 30
0.0
 11
-2049.042576071622
 21
-219.9999999999981
 31
0.0
  0
LINE
  5
1512
330
1F
100
AcDbEntity
  8
SIZE
100
AcDbLine
 10
-2045.023338221623
 20
-234.9999999999981
 30
0.0
 11
-2045.023338221623
 21
-219.9999999999981
 31
0.0
  0
LINE
  5
1513
330
1F
100
AcDbEntity
  8
SIZE
100
AcDbLine
 10
-2049.042576071622
 20
-15.0
 30
0.0
 11
-2045.023338221623
 21
0.0
 31
0.0
  0
LINE
  5
1514
330
1F
100
AcDbEntity
  8
SIZE
100
AcDbLine
 10
-2045.023338221623
 20
0.0
 30
0.0
 11
-2041.004100371623
 21
-15.0
 31
0.0
  0
LINE
  5
1515
330
1F
100
AcDbEntity
  8
SIZE
100
AcDbLine
 10
-2045.023338221623
 20
0.0
 30
0.0
 11
-2045.023338221623
 21
-15.0
 31
0.0
  0
TEXT
  5
1516
330
1F
100
AcDbEntity
  8
SIZE
100
AcDbText
 10
-1986.920456067542
 20
-278.5388650000125
 30
0.0
 40
40.0
  1
185
 50
270.0
  7
KAIGAI
100
AcDbText
  0
LINE
  5
1517
330
1F
100
AcDbEntity
  8
SIZE
100
AcDbLine
 10
-1995.752706726032
 20
-249.9999999999981
 30
0.0
 11
-1991.733468876033
 21
-234.9999999999981
 31
0.0
  0
LINE
  5
1518
330
1F
100
AcDbEntity
  8
SIZE
100
AcDbLine
 10
-1991.733468876033
 20
-234.9999999999981
 30
0.0
 11
-1987.714231026033
 21
-249.9999999999981
 31
0.0
  0
LINE
  5
1519
330
1F
100
AcDbEntity
  8
SIZE
100
AcDbLine
 10
-1991.733468876033
 20
-234.9999999999981
 30
0.0
 11
-1991.733468876033
 21
-249.9999999999981
 31
0.0
  0
LINE
  5
151A
330
1F
100
AcDbEntity
  8
SIZE
100
AcDbLine
 10
-1987.714231026033
 20
-405.0
 30
0.0
 11
-1991.733468876033
 21
-420.0
 31
0.0
  0
LINE
  5
151B
330
1F
100
AcDbEntity
  8
SIZE
100
AcDbLine
 10
-1991.733468876033
 20
-420.0
 30
0.0
 11
-1995.752706726032
 21
-405.0
 31
0.0
  0
LINE
  5
151C
330
1F
100
AcDbEntity
  8
SIZE
100
AcDbLine
 10
-1991.733468876033
 20
-420.0
 30
0.0
 11
-1991.733468876033
 21
-405.0
 31
0.0
  0
TEXT
  5
151D
330
1F
100
AcDbEntity
  8
SIZE
100
AcDbText
 10
-1986.733468876031
 20
42.50000000000079
 30
0.0
 40
40.0
  1
480
 50
270.0
  7
KAIGAI
100
AcDbText
  0
LINE
  5
151E
330
1F
100
AcDbEntity
  8
SIZE
100
AcDbLine
 10
-1987.714231026033
 20
-219.9999999999981
 30
0.0
 11
-1991.733468876033
 21
-234.9999999999981
 31
0.0
  0
LINE
  5
151F
330
1F
100
AcDbEntity
  8
SIZE
100
AcDbLine
 10
-1991.733468876033
 20
-234.9999999999981
 30
0.0
 11
-1995.752706726032
 21
-219.9999999999981
 31
0.0
  0
LINE
  5
1520
330
1F
100
AcDbEntity
  8
SIZE
100
AcDbLine
 10
-1991.733468876033
 20
-234.9999999999981
 30
0.0
 11
-1991.733468876033
 21
-219.9999999999981
 31
0.0
  0
LINE
  5
1521
330
1F
100
AcDbEntity
  8
SIZE
100
AcDbLine
 10
-1995.752706726032
 20
230.0000000000018
 30
0.0
 11
-1991.733468876033
 21
245.0000000000018
 31
0.0
  0
LINE
  5
1522
330
1F
100
AcDbEntity
  8
SIZE
100
AcDbLine
 10
-1991.733468876033
 20
245.0000000000018
 30
0.0
 11
-1987.714231026033
 21
230.0000000000018
 31
0.0
  0
LINE
  5
1523
330
1F
100
AcDbEntity
  8
SIZE
100
AcDbLine
 10
-1991.733468876033
 20
245.0000000000018
 30
0.0
 11
-1991.733468876033
 21
230.0000000000018
 31
0.0
  0
TEXT
  5
1524
330
1F
100
AcDbEntity
  8
SIZE
100
AcDbText
 10
-1986.733468876031
 20
367.5000000000009
 30
0.0
 40
40.0
  1
175
 50
270.0
  7
KAIGAI
100
AcDbText
  0
LINE
  5
1525
330
1F
100
AcDbEntity
  8
SIZE
100
AcDbLine
 10
-1995.752706726032
 20
405.0
 30
0.0
 11
-1991.733468876033
 21
420.0
 31
0.0
  0
LINE
  5
1526
330
1F
100
AcDbEntity
  8
SIZE
100
AcDbLine
 10
-1991.733468876033
 20
420.0
 30
0.0
 11
-1987.714231026033
 21
405.0
 31
0.0
  0
LINE
  5
1527
330
1F
100
AcDbEntity
  8
SIZE
100
AcDbLine
 10
-1991.733468876033
 20
420.0
 30
0.0
 11
-1991.733468876033
 21
405.0
 31
0.0
  0
LINE
  5
1528
330
1F
100
AcDbEntity
  8
SIZE
100
AcDbLine
 10
-1987.714231026033
 20
260.0000000000018
 30
0.0
 11
-1991.733468876033
 21
245.0000000000018
 31
0.0
  0
LINE
  5
1529
330
1F
100
AcDbEntity
  8
SIZE
100
AcDbLine
 10
-1991.733468876033
 20
245.0000000000018
 30
0.0
 11
-1995.752706726032
 21
260.0000000000018
 31
0.0
  0
LINE
  5
152A
330
1F
100
AcDbEntity
  8
SIZE
100
AcDbLine
 10
-1991.733468876033
 20
245.0000000000018
 30
0.0
 11
-1991.733468876033
 21
260.0000000000018
 31
0.0
  0
TEXT
  5
152B
330
1F
100
AcDbEntity
  8
SIZE
100
AcDbText
 10
-1934.790795026212
 20
367.7805390712501
 30
0.0
 40
40.0
  1
840
 50
270.0
  7
KAIGAI
100
AcDbText
  0
LINE
  5
152C
330
1F
100
AcDbEntity
  8
SIZE
100
AcDbLine
 10
-1946.039912488142
 20
405.0
 30
0.0
 11
-1942.020674638142
 21
420.0
 31
0.0
  0
LINE
  5
152D
330
1F
100
AcDbEntity
  8
SIZE
100
AcDbLine
 10
-1942.020674638142
 20
420.0
 30
0.0
 11
-1938.001436788143
 21
405.0
 31
0.0
  0
LINE
  5
152E
330
1F
100
AcDbEntity
  8
SIZE
100
AcDbLine
 10
-1942.020674638142
 20
420.0
 30
0.0
 11
-1942.020674638142
 21
405.0
 31
0.0
  0
LINE
  5
152F
330
1F
100
AcDbEntity
  8
SIZE
100
AcDbLine
 10
-1938.001436788143
 20
-405.0
 30
0.0
 11
-1942.020674638142
 21
-420.0
 31
0.0
  0
LINE
  5
1530
330
1F
100
AcDbEntity
  8
SIZE
100
AcDbLine
 10
-1942.020674638142
 20
-420.0
 30
0.0
 11
-1946.039912488142
 21
-405.0
 31
0.0
  0
LINE
  5
1531
330
1F
100
AcDbEntity
  8
SIZE
100
AcDbLine
 10
-1942.020674638142
 20
-420.0
 30
0.0
 11
-1942.020674638142
 21
-405.0
 31
0.0
  0
LINE
  5
1535
330
1F
100
AcDbEntity
  8
SIZE
100
AcDbLine
 10
-217.5000000000018
 20
2952.938685239571
 30
0.0
 11
-540.5995070551743
 21
2952.938685239571
 31
0.0
  0
LINE
  5
1536
330
1F
100
AcDbEntity
  8
SIZE
100
AcDbLine
 10
-217.5
 20
3057.938685239571
 30
0.0
 11
-540.5995070551743
 21
3057.938685239573
 31
0.0
  0
LINE
  5
1537
330
1F
100
AcDbEntity
  8
SIZE
100
AcDbLine
 10
-530.5995070551744
 20
2967.938685239571
 30
0.0
 11
-530.5995070551744
 21
3042.938685239573
 31
0.0
  0
TEXT
  5
1538
330
1F
100
AcDbEntity
  8
SIZE
100
AcDbText
 10
-522.0392959521705
 20
3055.204244558513
 30
0.0
 40
40.0
  1
105
 50
270.0
  7
KAIGAI
100
AcDbText
  0
LINE
  5
1539
330
1F
100
AcDbEntity
  8
SIZE
100
AcDbLine
 10
-534.618744905174
 20
3042.938685239573
 30
0.0
 11
-530.5995070551744
 21
3057.938685239573
 31
0.0
  0
LINE
  5
153A
330
1F
100
AcDbEntity
  8
SIZE
100
AcDbLine
 10
-530.5995070551744
 20
3057.938685239573
 30
0.0
 11
-526.5802692051748
 21
3042.938685239573
 31
0.0
  0
LINE
  5
153B
330
1F
100
AcDbEntity
  8
SIZE
100
AcDbLine
 10
-530.5995070551744
 20
3057.938685239573
 30
0.0
 11
-530.5995070551744
 21
3042.938685239573
 31
0.0
  0
LINE
  5
153C
330
1F
100
AcDbEntity
  8
SIZE
100
AcDbLine
 10
-526.5802692051748
 20
2967.938685239571
 30
0.0
 11
-530.5995070551744
 21
2952.938685239571
 31
0.0
  0
LINE
  5
153D
330
1F
100
AcDbEntity
  8
SIZE
100
AcDbLine
 10
-530.5995070551744
 20
2952.938685239571
 30
0.0
 11
-534.618744905174
 21
2967.938685239571
 31
0.0
  0
LINE
  5
153E
330
1F
100
AcDbEntity
  8
SIZE
100
AcDbLine
 10
-530.5995070551744
 20
2952.938685239571
 30
0.0
 11
-530.5995070551744
 21
2967.938685239571
 31
0.0
  0
LINE
  5
1540
330
1F
100
AcDbEntity
  8
SIZE
100
AcDbLine
 10
479.9999999999982
 20
-1956.748001403062
 30
0.0
 11
578.7425079920849
 21
-1956.748001403062
 31
0.0
  0
LINE
  5
1541
330
1F
100
AcDbEntity
  8
SIZE
100
AcDbLine
 10
117.4999999999981
 20
-1827.748001403059
 30
0.0
 11
578.7425079920849
 21
-1827.748001403059
 31
0.0
  0
LINE
  5
1542
330
1F
100
AcDbEntity
  8
SIZE
100
AcDbLine
 10
568.7425079920849
 20
-1941.748001403062
 30
0.0
 11
568.7425079920849
 21
-1842.748001403059
 31
0.0
  0
LINE
  5
1543
330
1F
100
AcDbEntity
  8
SIZE
100
AcDbLine
 10
424.9999999999963
 20
-1637.74800140306
 30
0.0
 11
578.7425079920867
 21
-1637.74800140306
 31
0.0
  0
LINE
  5
1544
330
1F
100
AcDbEntity
  8
SIZE
100
AcDbLine
 10
73.99999999999636
 20
-1774.748001403061
 30
0.0
 11
578.7425079920867
 21
-1774.748001403061
 31
0.0
  0
LINE
  5
1545
330
1F
100
AcDbEntity
  8
SIZE
100
AcDbLine
 10
568.7425079920867
 20
-1652.74800140306
 30
0.0
 11
568.7425079920867
 21
-1759.74800140306
 31
0.0
  0
TEXT
  5
1546
330
1F
100
AcDbEntity
  8
SIZE
100
AcDbText
 10
558.7425079920867
 20
-1938.405447528735
 30
0.0
 40
40.0
  1
129
 50
90.0
  7
KAIGAI
100
AcDbText
  0
LINE
  5
1547
330
1F
100
AcDbEntity
  8
SIZE
100
AcDbLine
 10
564.7232701420853
 20
-1842.748001403059
 30
0.0
 11
568.7425079920849
 21
-1827.748001403059
 31
0.0
  0
LINE
  5
1548
330
1F
100
AcDbEntity
  8
SIZE
100
AcDbLine
 10
568.7425079920849
 20
-1827.748001403059
 30
0.0
 11
572.7617458420864
 21
-1842.748001403059
 31
0.0
  0
LINE
  5
1549
330
1F
100
AcDbEntity
  8
SIZE
100
AcDbLine
 10
568.7425079920849
 20
-1827.748001403059
 30
0.0
 11
568.7425079920849
 21
-1842.748001403059
 31
0.0
  0
LINE
  5
154A
330
1F
100
AcDbEntity
  8
SIZE
100
AcDbLine
 10
572.7617458420864
 20
-1941.748001403062
 30
0.0
 11
568.7425079920849
 21
-1956.748001403062
 31
0.0
  0
LINE
  5
154B
330
1F
100
AcDbEntity
  8
SIZE
100
AcDbLine
 10
568.7425079920849
 20
-1956.748001403062
 30
0.0
 11
564.7232701420853
 21
-1941.748001403062
 31
0.0
  0
LINE
  5
154C
330
1F
100
AcDbEntity
  8
SIZE
100
AcDbLine
 10
568.7425079920849
 20
-1956.748001403062
 30
0.0
 11
568.7425079920849
 21
-1941.748001403062
 31
0.0
  0
TEXT
  5
154D
330
1F
100
AcDbEntity
  8
SIZE
100
AcDbText
 10
563.7425079920867
 20
-1748.138784891836
 30
0.0
 40
40.0
  1
137
 50
90.0
  7
KAIGAI
100
AcDbText
  0
LINE
  5
154E
330
1F
100
AcDbEntity
  8
SIZE
100
AcDbLine
 10
572.7617458420864
 20
-1759.74800140306
 30
0.0
 11
568.7425079920867
 21
-1774.748001403061
 31
0.0
  0
LINE
  5
154F
330
1F
100
AcDbEntity
  8
SIZE
100
AcDbLine
 10
568.7425079920867
 20
-1774.748001403061
 30
0.0
 11
564.7232701420853
 21
-1759.74800140306
 31
0.0
  0
LINE
  5
1550
330
1F
100
AcDbEntity
  8
SIZE
100
AcDbLine
 10
568.7425079920867
 20
-1774.748001403061
 30
0.0
 11
568.7425079920867
 21
-1759.74800140306
 31
0.0
  0
LINE
  5
1551
330
1F
100
AcDbEntity
  8
SIZE
100
AcDbLine
 10
564.7232701420853
 20
-1652.74800140306
 30
0.0
 11
568.7425079920867
 21
-1637.74800140306
 31
0.0
  0
LINE
  5
1552
330
1F
100
AcDbEntity
  8
SIZE
100
AcDbLine
 10
568.7425079920867
 20
-1637.74800140306
 30
0.0
 11
572.7617458420864
 21
-1652.74800140306
 31
0.0
  0
LINE
  5
1553
330
1F
100
AcDbEntity
  8
SIZE
100
AcDbLine
 10
568.7425079920867
 20
-1637.74800140306
 30
0.0
 11
568.7425079920867
 21
-1652.74800140306
 31
0.0
  0
LINE
  5
1554
330
1F
100
AcDbEntity
  8
BASIS
100
AcDbLine
 10
2414.989569301438
 20
-39.99999036369684
 30
0.0
 11
2414.989569301438
 21
-59.99999036369672
 31
0.0
  0
LINE
  5
1555
330
1F
100
AcDbEntity
  8
BASIS
100
AcDbLine
 10
2424.614521461379
 20
-49.99997680398212
 30
0.0
 11
2405.364521461379
 21
-49.99997680398212
 31
0.0
  0
LINE
  5
1556
330
1F
100
AcDbEntity
  8
SIZE
100
AcDbLine
 10
2154.989573464854
 20
-0.0213144293435335
 30
0.0
 11
2258.989573464854
 21
-0.0213144293435335
 31
0.0
  0
LINE
  5
1557
330
1F
100
AcDbEntity
  8
BASIS
100
AcDbLine
 10
2258.989579313949
 20
-40.00001237024537
 30
0.0
 11
2258.989579313949
 21
-60.00001237024526
 31
0.0
  0
LINE
  5
1558
330
1F
100
AcDbEntity
  8
BASIS
100
AcDbLine
 10
2268.614531473891
 20
-49.99999881053065
 30
0.0
 11
2249.364531473891
 21
-49.99999881053065
 31
0.0
  0
LINE
  5
1559
330
1F
100
AcDbEntity
  8
SIZE
100
AcDbLine
 10
2258.989585711362
 20
-59.99998890839242
 30
0.0
 11
2258.989585711362
 21
-166.5430613594949
 31
0.0
  0
LINE
  5
155A
330
1F
100
AcDbEntity
  8
SIZE
100
AcDbLine
 10
2414.98957569885
 20
-59.99998890839242
 30
0.0
 11
2414.98957569885
 21
-166.5430613594949
 31
0.0
  0
LINE
  5
155B
330
1F
100
AcDbEntity
  8
SIZE
100
AcDbLine
 10
2288.989585711362
 20
-156.5430613594949
 30
0.0
 11
2384.989575698849
 21
-156.5430613594949
 31
0.0
  0
LINE
  5
155C
330
1F
100
AcDbEntity
  8
SIZE
100
AcDbLine
 10
2258.989585711362
 20
-60.00001091494095
 30
0.0
 11
2258.989585711362
 21
-121.3907308938728
 31
0.0
  0
LINE
  5
155D
330
1F
100
AcDbEntity
  8
SIZE
100
AcDbLine
 10
2154.98731707387
 20
-60.00001091493913
 30
0.0
 11
2154.98731707387
 21
-121.390730893871
 31
0.0
  0
LINE
  5
155E
330
1F
100
AcDbEntity
  8
SIZE
100
AcDbLine
 10
2228.989585711362
 20
-111.3907308938728
 30
0.0
 11
2184.98731707387
 21
-111.390730893871
 31
0.0
  0
LINE
  5
155F
330
1F
100
AcDbEntity
  8
SIZE
100
AcDbLine
 10
2154.98731707387
 20
-111.390730893871
 30
0.0
 11
1998.320650407202
 21
-111.390730893871
 31
0.0
  0
LINE
  5
1560
330
1F
100
AcDbEntity
  8
SIZE
100
AcDbLine
 10
2483.987303058351
 20
0.0000099154252666
 30
0.0
 11
2571.443101825798
 21
0.0000099154234476
 31
0.0
  0
LINE
  5
1561
330
1F
100
AcDbEntity
  8
SIZE
100
AcDbLine
 10
2424.98957569885
 20
-49.99998890839072
 30
0.0
 11
2571.443101825798
 21
-49.99998890839254
 31
0.0
  0
LINE
  5
1562
330
1F
100
AcDbEntity
  8
SIZE
100
AcDbLine
 10
2561.443101825798
 20
30.00000991542345
 30
0.0
 11
2561.443101825798
 21
60.00000991542515
 31
0.0
  0
LINE
  5
1563
330
1F
100
AcDbEntity
  8
SIZE
100
AcDbLine
 10
2561.443101825798
 20
-79.99998890839242
 30
0.0
 11
2561.443101825798
 21
-189.9999889083924
 31
0.0
  0
LINE
  5
1564
330
1F
100
AcDbEntity
  8
SIZE
100
AcDbLine
 10
2561.443101825798
 20
0.0000099154234476
 30
0.0
 11
2561.443101825798
 21
-49.99998890839254
 31
0.0
  0
TEXT
  5
1565
330
1F
100
AcDbEntity
  8
SIZE
100
AcDbText
 10
2558.458812150367
 20
-181.3886818090105
 30
0.0
 40
40.0
  1
50
 50
90.0
  7
KAIGAI
100
AcDbText
  0
LINE
  5
1566
330
1F
100
AcDbEntity
  8
SIZE
100
AcDbLine
 10
2553.404626125799
 20
-79.99998890839242
 30
0.0
 11
2561.443101825798
 21
-49.99998890839254
 31
0.0
  0
LINE
  5
1567
330
1F
100
AcDbEntity
  8
SIZE
100
AcDbLine
 10
2561.443101825798
 20
-49.99998890839254
 30
0.0
 11
2569.481577525797
 21
-79.99998890839265
 31
0.0
  0
LINE
  5
1568
330
1F
100
AcDbEntity
  8
SIZE
100
AcDbLine
 10
2561.443101825798
 20
-49.99998890839254
 30
0.0
 11
2561.443101825798
 21
-79.99998890839242
 31
0.0
  0
LINE
  5
1569
330
1F
100
AcDbEntity
  8
SIZE
100
AcDbLine
 10
2569.481577525797
 20
30.00000991542345
 30
0.0
 11
2561.443101825798
 21
0.0000099154234476
 31
0.0
  0
LINE
  5
156A
330
1F
100
AcDbEntity
  8
SIZE
100
AcDbLine
 10
2561.443101825798
 20
0.0000099154234476
 30
0.0
 11
2553.404626125799
 21
30.00000991542345
 31
0.0
  0
LINE
  5
156B
330
1F
100
AcDbEntity
  8
SIZE
100
AcDbLine
 10
2561.443101825798
 20
0.0000099154234476
 30
0.0
 11
2561.443101825798
 21
30.00000991542345
 31
0.0
  0
TEXT
  5
156C
330
1F
100
AcDbEntity
  8
SIZE
100
AcDbText
 10
2377.741736562837
 20
-163.9382911188295
 30
0.0
 40
40.0
  1
156
 50
180.0
  7
KAIGAI
100
AcDbText
  0
LINE
  5
156D
330
1F
100
AcDbEntity
  8
SIZE
100
AcDbLine
 10
2384.989575698849
 20
-148.5045856594938
 30
0.0
 11
2414.98957569885
 21
-156.5430613594949
 31
0.0
  0
LINE
  5
156E
330
1F
100
AcDbEntity
  8
SIZE
100
AcDbLine
 10
2414.98957569885
 20
-156.5430613594949
 30
0.0
 11
2384.989575698849
 21
-164.5815370594941
 31
0.0
  0
LINE
  5
156F
330
1F
100
AcDbEntity
  8
SIZE
100
AcDbLine
 10
2414.98957569885
 20
-156.5430613594949
 30
0.0
 11
2384.989575698849
 21
-156.5430613594949
 31
0.0
  0
LINE
  5
1570
330
1F
100
AcDbEntity
  8
SIZE
100
AcDbLine
 10
2288.989585711362
 20
-164.5815370594941
 30
0.0
 11
2258.989585711362
 21
-156.5430613594949
 31
0.0
  0
LINE
  5
1571
330
1F
100
AcDbEntity
  8
SIZE
100
AcDbLine
 10
2258.989585711362
 20
-156.5430613594949
 30
0.0
 11
2288.989585711362
 21
-148.5045856594938
 31
0.0
  0
LINE
  5
1572
330
1F
100
AcDbEntity
  8
SIZE
100
AcDbLine
 10
2258.989585711362
 20
-156.5430613594949
 30
0.0
 11
2288.989585711362
 21
-156.5430613594949
 31
0.0
  0
LINE
  5
1573
330
1F
100
AcDbEntity
  8
SIZE
100
AcDbLine
 10
2184.98731707387
 20
-119.4292065938721
 30
0.0
 11
2154.98731707387
 21
-111.390730893871
 31
0.0
  0
LINE
  5
1574
330
1F
100
AcDbEntity
  8
SIZE
100
AcDbLine
 10
2154.98731707387
 20
-111.390730893871
 30
0.0
 11
2184.98731707387
 21
-103.3522551938717
 31
0.0
  0
LINE
  5
1575
330
1F
100
AcDbEntity
  8
SIZE
100
AcDbLine
 10
2154.98731707387
 20
-111.390730893871
 30
0.0
 11
2184.98731707387
 21
-111.390730893871
 31
0.0
  0
LINE
  5
1576
330
1F
100
AcDbEntity
  8
SIZE
100
AcDbLine
 10
2228.989585711362
 20
-103.3522551938717
 30
0.0
 11
2258.989585711362
 21
-111.3907308938728
 31
0.0
  0
LINE
  5
1577
330
1F
100
AcDbEntity
  8
SIZE
100
AcDbLine
 10
2258.989585711362
 20
-111.3907308938728
 30
0.0
 11
2228.989585711362
 21
-119.4292065938721
 31
0.0
  0
LINE
  5
1578
330
1F
100
AcDbEntity
  8
SIZE
100
AcDbLine
 10
2258.989585711362
 20
-111.3907308938728
 30
0.0
 11
2228.989585711362
 21
-111.3907308938728
 31
0.0
  0
TEXT
  5
1579
330
1F
100
AcDbEntity
  8
SIZE
100
AcDbText
 10
2108.767179102144
 20
-115.9071853127534
 30
0.0
 40
40.0
  1
104
 50
180.0
  7
KAIGAI
100
AcDbText
  0
POLYLINE
  5
15D7
330
1F
100
AcDbEntity
  8
DETAIL
  6
CONTINUOUS
100
AcDb2dPolyline
 66
     1
 10
0.0
 20
0.0
 30
0.0
  0
VERTEX
  5
1A43
330
15D7
100
AcDbEntity
  8
DETAIL
  6
CONTINUOUS
100
AcDbVertex
100
AcDb2dVertex
 10
2385.987319740065
 20
-423.590000000006
 30
0.0
  0
VERTEX
  5
1A44
330
15D7
100
AcDbEntity
  8
DETAIL
  6
CONTINUOUS
100
AcDbVertex
100
AcDb2dVertex
 10
2385.987319740065
 20
-358.3300000000058
 30
0.0
  0
VERTEX
  5
1A45
330
15D7
100
AcDbEntity
  8
DETAIL
  6
CONTINUOUS
100
AcDbVertex
100
AcDb2dVertex
 10
2387.987319740064
 20
-358.3300000000058
 30
0.0
  0
VERTEX
  5
1A46
330
15D7
100
AcDbEntity
  8
DETAIL
  6
CONTINUOUS
100
AcDbVertex
100
AcDb2dVertex
 10
2387.987319740064
 20
-423.590000000006
 30
0.0
  0
VERTEX
  5
1A47
330
15D7
100
AcDbEntity
  8
DETAIL
  6
CONTINUOUS
100
AcDbVertex
100
AcDb2dVertex
 10
2385.987319740065
 20
-423.590000000006
 30
0.0
  0
SEQEND
  5
1A48
330
15D7
100
AcDbEntity
  8
DETAIL
  6
CONTINUOUS
  0
LINE
  5
15D8
330
1F
100
AcDbEntity
  8
DETAIL
  6
CONTINUOUS
100
AcDbLine
 10
2154.987319740067
 20
-282.5000000000059
 30
0.0
 11
2461.987319740066
 21
-282.5000000000059
 31
0.0
  0
LINE
  5
15D9
330
1F
100
AcDbEntity
  8
DETAIL
  6
CONTINUOUS
100
AcDbLine
 10
2154.987319740067
 20
-254.5000000000058
 30
0.0
 11
2461.987319740066
 21
-254.5000000000058
 31
0.0
  0
CIRCLE
  5
15DA
330
1F
100
AcDbEntity
  8
DETAIL
  6
CONTINUOUS
100
AcDbCircle
 10
2285.207319740064
 20
-323.0000000000054
 30
0.0
 40
16.0
  0
LINE
  5
15DB
330
1F
100
AcDbEntity
  8
DETAIL
  6
CONTINUOUS
100
AcDbLine
 10
2385.987319740063
 20
-375.7700000000081
 30
0.0
 11
2387.987319740063
 21
-375.7700000000081
 31
0.0
  0
CIRCLE
  5
15DC
330
1F
100
AcDbEntity
  8
DETAIL
  6
PHANTOM
100
AcDbCircle
 10
2344.987319740066
 20
-30.00000000000534
 30
0.0
 40
81.0
  0
POLYLINE
  5
15DD
330
1F
100
AcDbEntity
  8
DETAIL
  6
PHANTOM
100
AcDb2dPolyline
 66
     1
 10
0.0
 20
0.0
 30
0.0
  0
VERTEX
  5
1A49
330
15DD
100
AcDbEntity
  8
DETAIL
  6
PHANTOM
100
AcDbVertex
100
AcDb2dVertex
 10
2291.987319740066
 20
-82.50000000000591
 30
0.0
  0
VERTEX
  5
1A4A
330
15DD
100
AcDbEntity
  8
DETAIL
  6
PHANTOM
100
AcDbVertex
100
AcDb2dVertex
 10
2291.987319740066
 20
22.49999999999397
 30
0.0
  0
VERTEX
  5
1A4B
330
15DD
100
AcDbEntity
  8
DETAIL
  6
PHANTOM
100
AcDbVertex
100
AcDb2dVertex
 10
2396.987319740066
 20
22.49999999999397
 30
0.0
  0
VERTEX
  5
1A4C
330
15DD
100
AcDbEntity
  8
DETAIL
  6
PHANTOM
100
AcDbVertex
100
AcDb2dVertex
 10
2396.987319740066
 20
-82.50000000000591
 30
0.0
  0
VERTEX
  5
1A4D
330
15DD
100
AcDbEntity
  8
DETAIL
  6
PHANTOM
100
AcDbVertex
100
AcDb2dVertex
 10
2291.987319740066
 20
-82.50000000000591
 30
0.0
  0
SEQEND
  5
1A4E
330
15DD
100
AcDbEntity
  8
DETAIL
  6
PHANTOM
  0
LINE
  5
15DE
330
1F
100
AcDbEntity
  8
DETAIL
  6
CONTINUOUS
100
AcDbLine
 10
2154.987319740068
 20
199.9999999999957
 30
0.0
 11
2461.987319740068
 21
199.9999999999938
 31
0.0
  0
LINE
  5
15DF
330
1F
100
AcDbEntity
  8
DETAIL
  6
CONTINUOUS
100
AcDbLine
 10
2154.987319740068
 20
219.9999999999956
 30
0.0
 11
2461.987319740068
 21
219.9999999999938
 31
0.0
  0
LINE
  5
15E0
330
1F
100
AcDbEntity
  8
DETAIL
  6
CONTINUOUS
100
AcDbLine
 10
2301.987319740068
 20
326.4999999999938
 30
0.0
 11
2290.737319740068
 21
319.9999999999938
 31
0.0
  0
LINE
  5
15E1
330
1F
100
AcDbEntity
  8
DETAIL
  6
CONTINUOUS
100
AcDbLine
 10
2313.247319740068
 20
319.9999999999938
 30
0.0
 11
2301.987319740068
 21
326.4999999999938
 31
0.0
  0
LINE
  5
15E2
330
1F
100
AcDbEntity
  8
DETAIL
  6
CONTINUOUS
100
AcDbLine
 10
2369.777319740067
 20
236.9999999999938
 30
0.0
 11
2361.987319740068
 21
232.4999999999938
 31
0.0
  0
LINE
  5
15E3
330
1F
100
AcDbEntity
  8
DETAIL
  6
CONTINUOUS
100
AcDbLine
 10
2361.987319740068
 20
250.4999999999938
 30
0.0
 11
2369.777319740067
 21
245.9999999999938
 31
0.0
  0
LINE
  5
15E4
330
1F
100
AcDbEntity
  8
DETAIL
  6
CONTINUOUS
100
AcDbLine
 10
2290.727319740068
 20
306.9999999999938
 30
0.0
 11
2301.987319740068
 21
300.4999999999938
 31
0.0
  0
LINE
  5
15E5
330
1F
100
AcDbEntity
  8
DETAIL
  6
CONTINUOUS
100
AcDbLine
 10
2290.727319740068
 20
319.9999999999938
 30
0.0
 11
2290.737319740068
 21
306.9999999999938
 31
0.0
  0
CIRCLE
  5
15E6
330
1F
100
AcDbEntity
  8
DETAIL
  6
CONTINUOUS
100
AcDbCircle
 10
2361.98731974007
 20
241.4999999999908
 30
0.0
 40
4.75
  0
LINE
  5
15E7
330
1F
100
AcDbEntity
  8
DETAIL
  6
CONTINUOUS
100
AcDbLine
 10
2361.987319740068
 20
232.4999999999938
 30
0.0
 11
2354.197319740067
 21
236.9999999999938
 31
0.0
  0
LINE
  5
15E8
330
1F
100
AcDbEntity
  8
DETAIL
  6
CONTINUOUS
100
AcDbLine
 10
2354.197319740067
 20
236.9999999999938
 30
0.0
 11
2354.197319740067
 21
245.9999999999938
 31
0.0
  0
LINE
  5
15E9
330
1F
100
AcDbEntity
  8
DETAIL
  6
CONTINUOUS
100
AcDbLine
 10
2354.197319740067
 20
245.9999999999938
 30
0.0
 11
2361.987319740068
 21
250.4999999999938
 31
0.0
  0
LINE
  5
15EA
330
1F
100
AcDbEntity
  8
DETAIL
  6
CONTINUOUS
100
AcDbLine
 10
2313.247319740068
 20
306.9899999999936
 30
0.0
 11
2313.237319740068
 21
319.9999999999938
 31
0.0
  0
CIRCLE
  5
15EB
330
1F
100
AcDbEntity
  8
DETAIL
  6
CONTINUOUS
100
AcDbCircle
 10
2301.987319740066
 20
313.4999999999927
 30
0.0
 40
7.95
  0
LINE
  5
15EC
330
1F
100
AcDbEntity
  8
DETAIL
  6
CONTINUOUS
100
AcDbLine
 10
2301.987319740068
 20
300.4999999999938
 30
0.0
 11
2313.237319740068
 21
306.9999999999938
 31
0.0
  0
LINE
  5
15ED
330
1F
100
AcDbEntity
  8
DETAIL
  6
CONTINUOUS
100
AcDbLine
 10
2369.777319740067
 20
245.9999999999938
 30
0.0
 11
2369.777319740067
 21
236.9999999999938
 31
0.0
  0
LINE
  5
15EE
330
1F
100
AcDbEntity
  8
DETAIL
  6
CONTINUOUS
100
AcDbLine
 10
2416.987319740066
 20
255.9999999999938
 30
0.0
 11
2416.987319740066
 21
269.9999999999938
 31
0.0
  0
ARC
  5
15EF
330
1F
100
AcDbEntity
  8
DETAIL
  6
CONTINUOUS
100
AcDbCircle
 10
2429.987319740066
 20
255.9999999999927
 30
0.0
 40
13.0
100
AcDbArc
 50
270.0
 51
0.0
  0
LINE
  5
15F0
330
1F
100
AcDbEntity
  8
DETAIL
  6
CONTINUOUS
100
AcDbLine
 10
2442.987319740068
 20
269.9999999999938
 30
0.0
 11
2442.987319740068
 21
255.9999999999938
 31
0.0
  0
ARC
  5
15F1
330
1F
100
AcDbEntity
  8
DETAIL
  6
CONTINUOUS
100
AcDbCircle
 10
2429.98731974007
 20
269.9999999999945
 30
0.0
 40
13.0
100
AcDbArc
 50
0.0
 51
90.0
  0
ARC
  5
15F2
330
1F
100
AcDbEntity
  8
DETAIL
  6
CONTINUOUS
100
AcDbCircle
 10
2429.987319740066
 20
255.9999999999927
 30
0.0
 40
13.0
100
AcDbArc
 50
180.0
 51
270.0
  0
ARC
  5
15F3
330
1F
100
AcDbEntity
  8
DETAIL
  6
CONTINUOUS
100
AcDbCircle
 10
2429.987319740066
 20
269.9999999999927
 30
0.0
 40
13.0
100
AcDbArc
 50
90.0
 51
180.0
  0
LINE
  5
15F4
330
1F
100
AcDbEntity
  8
DETAIL
  6
CONTINUOUS
100
AcDbLine
 10
2385.987319740068
 20
374.9899999999936
 30
0.0
 11
2387.987319740068
 21
374.9899999999936
 31
0.0
  0
POLYLINE
  5
15F5
330
1F
100
AcDbEntity
  8
DETAIL
  6
CONTINUOUS
100
AcDb2dPolyline
 66
     1
 10
0.0
 20
0.0
 30
0.0
  0
VERTEX
  5
1A4F
330
15F5
100
AcDbEntity
  8
DETAIL
  6
CONTINUOUS
100
AcDbVertex
100
AcDb2dVertex
 10
2385.987319740068
 20
362.6899999999925
 30
0.0
  0
VERTEX
  5
1A50
330
15F5
100
AcDbEntity
  8
DETAIL
  6
CONTINUOUS
100
AcDbVertex
100
AcDb2dVertex
 10
2385.987319740068
 20
423.2799999999927
 30
0.0
  0
VERTEX
  5
1A51
330
15F5
100
AcDbEntity
  8
DETAIL
  6
CONTINUOUS
100
AcDbVertex
100
AcDb2dVertex
 10
2387.987319740068
 20
423.2799999999927
 30
0.0
  0
VERTEX
  5
1A52
330
15F5
100
AcDbEntity
  8
DETAIL
  6
CONTINUOUS
100
AcDbVertex
100
AcDb2dVertex
 10
2387.987319740068
 20
362.6899999999925
 30
0.0
  0
VERTEX
  5
1A53
330
15F5
100
AcDbEntity
  8
DETAIL
  6
CONTINUOUS
100
AcDbVertex
100
AcDb2dVertex
 10
2385.987319740068
 20
362.6899999999925
 30
0.0
  0
SEQEND
  5
1A54
330
15F5
100
AcDbEntity
  8
DETAIL
  6
CONTINUOUS
  0
LINE
  5
15F6
330
1F
100
AcDbEntity
  8
DETAIL
  6
CONTINUOUS
100
AcDbLine
 10
2473.987319740066
 20
-430.0000000000059
 30
0.0
 11
2461.987319740066
 21
-430.0000000000059
 31
0.0
  0
LINE
  5
15F7
330
1F
100
AcDbEntity
  8
DETAIL
  6
CONTINUOUS
100
AcDbLine
 10
2461.987319740066
 20
-430.0000000000059
 30
0.0
 11
2461.987319740068
 21
429.9999999999938
 31
0.0
  0
LINE
  5
15F8
330
1F
100
AcDbEntity
  8
DETAIL
  6
CONTINUOUS
100
AcDbLine
 10
2461.987319740068
 20
429.9999999999938
 30
0.0
 11
2473.987319740068
 21
429.9999999999938
 31
0.0
  0
LINE
  5
167D
330
1F
100
AcDbEntity
  8
DETAIL
  6
CONTINUOUS
100
AcDbLine
 10
-334.9999999999981
 20
3164.938685239572
 30
0.0
 11
335.0
 21
3164.938685239567
 31
0.0
  0
POLYLINE
  5
167E
330
1F
100
AcDbEntity
  8
DETAIL
  6
CONTINUOUS
100
AcDb2dPolyline
 66
     1
 10
0.0
 20
0.0
 30
0.0
  0
VERTEX
  5
1A55
330
167E
100
AcDbEntity
  8
DETAIL
  6
CONTINUOUS
100
AcDbVertex
100
AcDb2dVertex
 10
-372.4499999999989
 20
3004.928685239574
 30
0.0
  0
VERTEX
  5
1A56
330
167E
100
AcDbEntity
  8
DETAIL
  6
CONTINUOUS
100
AcDbVertex
100
AcDb2dVertex
 10
-372.4499999999989
 20
3002.938685239574
 30
0.0
  0
VERTEX
  5
1A57
330
167E
100
AcDbEntity
  8
DETAIL
  6
CONTINUOUS
100
AcDbVertex
100
AcDb2dVertex
 10
-303.8999999999978
 20
3002.938685239574
 30
0.0
  0
VERTEX
  5
1A58
330
167E
100
AcDbEntity
  8
DETAIL
  6
CONTINUOUS
100
AcDbVertex
100
AcDb2dVertex
 10
-303.8999999999978
 20
3004.928685239574
 30
0.0
  0
VERTEX
  5
1A59
330
167E
100
AcDbEntity
  8
DETAIL
  6
CONTINUOUS
100
AcDbVertex
100
AcDb2dVertex
 10
-372.4499999999989
 20
3004.928685239574
 30
0.0
  0
SEQEND
  5
1A5A
330
167E
100
AcDbEntity
  8
DETAIL
  6
CONTINUOUS
  0
LINE
  5
167F
330
1F
100
AcDbEntity
  8
DETAIL
  6
CONTINUOUS
100
AcDbLine
 10
-343.7699999999986
 20
3002.938685239574
 30
0.0
 11
-343.7699999999986
 21
3004.928685239574
 31
0.0
  0
POLYLINE
  5
1680
330
1F
100
AcDbEntity
  8
DETAIL
  6
CONTINUOUS
100
AcDb2dPolyline
 66
     1
 10
0.0
 20
0.0
 30
0.0
  0
VERTEX
  5
1A5B
330
1680
100
AcDbEntity
  8
DETAIL
  6
CONTINUOUS
100
AcDbVertex
100
AcDb2dVertex
 10
297.2087128712828
 20
3004.928685239571
 30
0.0
  0
VERTEX
  5
1A5C
330
1680
100
AcDbEntity
  8
DETAIL
  6
CONTINUOUS
100
AcDbVertex
100
AcDb2dVertex
 10
297.2087128712828
 20
3002.938685239571
 30
0.0
  0
VERTEX
  5
1A5D
330
1680
100
AcDbEntity
  8
DETAIL
  6
CONTINUOUS
100
AcDbVertex
100
AcDb2dVertex
 10
368.0187128712823
 20
3002.938685239572
 30
0.0
  0
VERTEX
  5
1A5E
330
1680
100
AcDbEntity
  8
DETAIL
  6
CONTINUOUS
100
AcDbVertex
100
AcDb2dVertex
 10
368.0187128712823
 20
3004.928685239573
 30
0.0
  0
VERTEX
  5
1A5F
330
1680
100
AcDbEntity
  8
DETAIL
  6
CONTINUOUS
100
AcDbVertex
100
AcDb2dVertex
 10
297.2087128712828
 20
3004.928685239571
 30
0.0
  0
SEQEND
  5
1A60
330
1680
100
AcDbEntity
  8
DETAIL
  6
CONTINUOUS
  0
LINE
  5
1681
330
1F
100
AcDbEntity
  8
DETAIL
  6
CONTINUOUS
100
AcDbLine
 10
354.0787128712818
 20
3002.938685239572
 30
0.0
 11
354.0787128712818
 21
3004.928685239573
 31
0.0
  0
LINE
  5
1682
330
1F
100
AcDbEntity
  8
DETAIL
  6
CONTINUOUS
100
AcDbLine
 10
-429.9999999999982
 20
3134.938685239573
 30
0.0
 11
-429.9999999999982
 21
3122.938685239569
 31
0.0
  0
LINE
  5
1683
330
1F
100
AcDbEntity
  8
DETAIL
  6
CONTINUOUS
100
AcDbLine
 10
-429.9999999999982
 20
3122.938685239569
 30
0.0
 11
430.0
 21
3122.938685239567
 31
0.0
  0
LINE
  5
1684
330
1F
100
AcDbEntity
  8
DETAIL
  6
CONTINUOUS
100
AcDbLine
 10
430.0
 20
3122.938685239567
 30
0.0
 11
430.0
 21
3134.938685239569
 31
0.0
  0
LINE
  5
1685
330
1F
100
AcDbEntity
  8
DETAIL
100
AcDbLine
 10
-475.0
 20
3134.938685239573
 30
0.0
 11
-475.0
 21
3141.938685239573
 31
0.0
  0
LINE
  5
1686
330
1F
100
AcDbEntity
  8
DETAIL
100
AcDbLine
 10
-475.0
 20
3141.938685239573
 30
0.0
 11
-419.9999999999981
 21
3149.938685239573
 31
0.0
  0
LINE
  5
1687
330
1F
100
AcDbEntity
  8
DETAIL
100
AcDbLine
 10
475.0000000000018
 20
3134.938685239571
 30
0.0
 11
475.0000000000018
 21
3141.938685239571
 31
0.0
  0
LINE
  5
1688
330
1F
100
AcDbEntity
  8
DETAIL
100
AcDbLine
 10
475.0000000000018
 20
3141.938685239571
 30
0.0
 11
420.0
 21
3149.93868523957
 31
0.0
  0
LINE
  5
1689
330
1F
100
AcDbEntity
  8
DETAIL
100
AcDbLine
 10
420.0000000000218
 20
3149.938685239567
 30
0.0
 11
-419.9999999999981
 21
3149.938685239573
 31
0.0
  0
LINE
  5
168A
330
1F
100
AcDbEntity
  8
DETAIL
100
AcDbLine
 10
-344.9999999999963
 20
3149.938685239573
 30
0.0
 11
-344.9999999999963
 21
3164.938685239572
 31
0.0
  0
LINE
  5
168B
330
1F
100
AcDbEntity
  8
DETAIL
100
AcDbLine
 10
-344.9999999999963
 20
3164.938685239572
 30
0.0
 11
345.0000000000036
 21
3164.938685239567
 31
0.0
  0
LINE
  5
168C
330
1F
100
AcDbEntity
  8
DETAIL
100
AcDbLine
 10
345.0000000000036
 20
3164.938685239567
 30
0.0
 11
345.0000000000036
 21
3149.938685239567
 31
0.0
  0
LINE
  5
168D
330
1F
100
AcDbEntity
  8
DETAIL
100
AcDbLine
 10
475.0000000000018
 20
3134.938685239571
 30
0.0
 11
-475.0
 21
3134.938685239573
 31
0.0
  0
LINE
  5
168E
330
1F
100
AcDbEntity
  8
DETAIL
  6
CONTINUOUS
100
AcDbLine
 10
420.0
 20
3122.938685239567
 30
0.0
 11
419.9999999999981
 21
2815.938685239569
 31
0.0
  0
LINE
  5
168F
330
1F
100
AcDbEntity
  8
DETAIL
  6
CONTINUOUS
100
AcDbLine
 10
-420.0
 20
2815.93868523957
 30
0.0
 11
-419.9999999999981
 21
3122.938685239569
 31
0.0
  0
LINE
  5
1690
330
1F
100
AcDbEntity
  8
DETAIL
100
AcDbLine
 10
-269.2369071229058
 20
3122.938685239569
 30
0.0
 11
-269.2369071229077
 21
2815.93868523957
 31
0.0
  0
LINE
  5
1691
330
1F
100
AcDbEntity
  8
DETAIL
100
AcDbLine
 10
269.2369071229113
 20
3122.938685239567
 30
0.0
 11
269.2369071229113
 21
2815.938685239569
 31
0.0
  0
CIRCLE
  5
1692
330
1F
100
AcDbEntity
  8
DETAIL
100
AcDbCircle
 10
80.00000000000182
 20
3005.938685239573
 30
0.0
 40
81.0
  0
POLYLINE
  5
1693
330
1F
100
AcDbEntity
  8
DETAIL
  6
PHANTOM
100
AcDb2dPolyline
 66
     1
 10
0.0
 20
0.0
 30
0.0
 70
     1
  0
VERTEX
  5
1A61
330
1693
100
AcDbEntity
  8
DETAIL
  6
PHANTOM
100
AcDbVertex
100
AcDb2dVertex
 10
27.49999999999818
 20
2952.938685239571
 30
0.0
  0
VERTEX
  5
1A62
330
1693
100
AcDbEntity
  8
DETAIL
  6
PHANTOM
100
AcDbVertex
100
AcDb2dVertex
 10
132.4999999999981
 20
2952.938685239571
 30
0.0
  0
VERTEX
  5
1A63
330
1693
100
AcDbEntity
  8
DETAIL
  6
PHANTOM
100
AcDbVertex
100
AcDb2dVertex
 10
132.4999999999999
 20
3057.938685239571
 30
0.0
  0
VERTEX
  5
1A64
330
1693
100
AcDbEntity
  8
DETAIL
  6
PHANTOM
100
AcDbVertex
100
AcDb2dVertex
 10
27.5
 20
3057.938685239571
 30
0.0
  0
SEQEND
  5
1A65
330
1693
100
AcDbEntity
  8
DETAIL
  6
PHANTOM
  0
CIRCLE
  5
1694
330
1F
100
AcDbEntity
  8
DETAIL
100
AcDbCircle
 10
-159.9999999999981
 20
3005.938685239573
 30
0.0
 40
81.0
  0
POLYLINE
  5
1695
330
1F
100
AcDbEntity
  8
DETAIL
  6
PHANTOM
100
AcDb2dPolyline
 66
     1
 10
0.0
 20
0.0
 30
0.0
 70
     1
  0
VERTEX
  5
1A66
330
1695
100
AcDbEntity
  8
DETAIL
  6
PHANTOM
100
AcDbVertex
100
AcDb2dVertex
 10
-212.5000000000018
 20
2952.938685239571
 30
0.0
  0
VERTEX
  5
1A67
330
1695
100
AcDbEntity
  8
DETAIL
  6
PHANTOM
100
AcDbVertex
100
AcDb2dVertex
 10
-107.5000000000018
 20
2952.938685239571
 30
0.0
  0
VERTEX
  5
1A68
330
1695
100
AcDbEntity
  8
DETAIL
  6
PHANTOM
100
AcDbVertex
100
AcDb2dVertex
 10
-107.4999999999999
 20
3057.938685239571
 30
0.0
  0
VERTEX
  5
1A69
330
1695
100
AcDbEntity
  8
DETAIL
  6
PHANTOM
100
AcDbVertex
100
AcDb2dVertex
 10
-212.5
 20
3057.938685239571
 30
0.0
  0
SEQEND
  5
1A6A
330
1695
100
AcDbEntity
  8
DETAIL
  6
PHANTOM
  0
LINE
  5
1696
330
1F
100
AcDbEntity
  8
DETAIL
100
AcDbLine
 10
-269.2369071229077
 20
2815.93868523957
 30
0.0
 11
-269.2369071229058
 21
3122.938685239569
 31
0.0
  0
LINE
  5
1697
330
1F
100
AcDbEntity
  8
DETAIL
100
AcDbLine
 10
269.2369071229113
 20
2815.938685239569
 30
0.0
 11
269.2369071229113
 21
3122.938685239567
 31
0.0
  0
LINE
  5
1698
330
1F
100
AcDbEntity
  8
DETAIL
100
AcDbLine
 10
345.0000000000018
 20
2815.938685239569
 30
0.0
 11
345.0000000000018
 21
3122.938685239567
 31
0.0
  0
LINE
  5
1699
330
1F
100
AcDbEntity
  8
DETAIL
100
AcDbLine
 10
401.9047955887999
 20
2946.195526581172
 30
0.0
 11
403.4885589788009
 21
2948.938685239571
 31
0.0
  0
LINE
  5
169A
330
1F
100
AcDbEntity
  8
DETAIL
100
AcDbLine
 10
382.4123194092008
 20
2950.838685239572
 30
0.0
 11
385.0930483108004
 21
2946.195526581172
 31
0.0
  0
LINE
  5
169B
330
1F
100
AcDbEntity
  8
DETAIL
100
AcDbLine
 10
385.093047818802
 20
2946.19552828477
 30
0.0
 11
401.9047960808002
 21
2946.19552828477
 31
0.0
  0
ARC
  5
169C
330
1F
100
AcDbEntity
  8
DETAIL
100
AcDbCircle
 10
403.2400000000015
 20
3022.938685239571
 30
0.0
 40
4.76000000000022
100
AcDbArc
 50
270.0
 51
90.0
  0
LINE
  5
169D
330
1F
100
AcDbEntity
  8
DETAIL
100
AcDbLine
 10
398.3156854248008
 20
3012.438685239571
 30
0.0
 11
398.3156854248008
 21
3033.438685239571
 31
0.0
  0
LINE
  5
169E
330
1F
100
AcDbEntity
  8
DETAIL
100
AcDbLine
 10
383.3156854248009
 20
3012.438685239571
 30
0.0
 11
383.3156854248009
 21
3033.438685239571
 31
0.0
  0
LINE
  5
169F
330
1F
100
AcDbEntity
  8
DETAIL
100
AcDbLine
 10
401.3156854248008
 20
3013.438685239571
 30
0.0
 11
401.3156854248008
 21
3032.438685239571
 31
0.0
  0
LINE
  5
16A0
330
1F
100
AcDbEntity
  8
DETAIL
100
AcDbLine
 10
403.2400000000015
 20
3027.698685239571
 30
0.0
 11
403.2400000000015
 21
3018.17868523957
 31
0.0
  0
LINE
  5
16A1
330
1F
100
AcDbEntity
  8
DETAIL
100
AcDbLine
 10
403.4885589788009
 20
2948.938685239571
 30
0.0
 11
403.4885589788009
 21
2976.938685239571
 31
0.0
  0
LINE
  5
16A2
330
1F
100
AcDbEntity
  8
DETAIL
100
AcDbLine
 10
407.4885589788009
 20
2950.438685239571
 30
0.0
 11
407.4885589788009
 21
2975.438685239571
 31
0.0
  0
LINE
  5
16A3
330
1F
100
AcDbEntity
  8
DETAIL
100
AcDbLine
 10
374.9671370000014
 20
2949.082279483971
 30
0.0
 11
363.1107305392015
 21
2949.082279483971
 31
0.0
  0
LINE
  5
16A4
330
1F
100
AcDbEntity
  8
DETAIL
100
AcDbLine
 10
362.0389337696015
 20
2950.938685239571
 30
0.0
 11
363.1107309464005
 21
2949.082278073971
 31
0.0
  0
LINE
  5
16A5
330
1F
100
AcDbEntity
  8
DETAIL
100
AcDbLine
 10
345.0000000000018
 20
2954.99868523957
 30
0.0
 11
362.0389337696015
 21
2954.99868523957
 31
0.0
  0
ARC
  5
16A6
330
1F
100
AcDbEntity
  8
DETAIL
100
AcDbCircle
 10
398.4000000000032
 20
2962.938685239572
 30
0.0
 40
9.6000000000002
100
AcDbArc
 50
341.2134515573222
 51
18.78654844267772
  0
LINE
  5
16A7
330
1F
100
AcDbEntity
  8
DETAIL
100
AcDbLine
 10
403.4885589788009
 20
2948.938685239571
 30
0.0
 11
407.4885589788009
 21
2950.438685239571
 31
0.0
  0
LINE
  5
16A8
330
1F
100
AcDbEntity
  8
DETAIL
100
AcDbLine
 10
376.0389337696015
 20
2951.68368523957
 30
0.0
 11
382.4123194092008
 21
2951.68368523957
 31
0.0
  0
LINE
  5
16A9
330
1F
100
AcDbEntity
  8
DETAIL
100
AcDbLine
 10
374.9671365928024
 20
2949.082278073971
 30
0.0
 11
376.0389337696015
 21
2950.938685239571
 31
0.0
  0
LINE
  5
16AA
330
1F
100
AcDbEntity
  8
DETAIL
100
AcDbLine
 10
374.9671370000014
 20
2976.795090995171
 30
0.0
 11
363.1107305392015
 21
2976.795090995171
 31
0.0
  0
LINE
  5
16AB
330
1F
100
AcDbEntity
  8
DETAIL
100
AcDbLine
 10
363.1107309464005
 20
2976.795092405171
 30
0.0
 11
362.0389337696015
 21
2974.938685239571
 31
0.0
  0
LINE
  5
16AC
330
1F
100
AcDbEntity
  8
DETAIL
100
AcDbLine
 10
362.0389337696015
 20
2970.878685239571
 30
0.0
 11
345.0000000000018
 21
2970.878685239571
 31
0.0
  0
LINE
  5
16AD
330
1F
100
AcDbEntity
  8
DETAIL
100
AcDbLine
 10
345.0000000000018
 20
3018.17868523957
 30
0.0
 11
372.1843145752009
 21
3018.17868523957
 31
0.0
  0
LINE
  5
16AE
330
1F
100
AcDbEntity
  8
DETAIL
100
AcDbLine
 10
403.4885589788009
 20
2976.938685239571
 30
0.0
 11
401.9047955887999
 21
2979.681843897971
 31
0.0
  0
LINE
  5
16AF
330
1F
100
AcDbEntity
  8
DETAIL
100
AcDbLine
 10
385.0930483108004
 20
2979.681843897971
 30
0.0
 11
382.4123194092008
 21
2975.038685239571
 31
0.0
  0
LINE
  5
16B0
330
1F
100
AcDbEntity
  8
DETAIL
100
AcDbLine
 10
407.4885589788009
 20
2975.438685239571
 30
0.0
 11
403.4885589788009
 21
2976.938685239571
 31
0.0
  0
LINE
  5
16B1
330
1F
100
AcDbEntity
  8
DETAIL
100
AcDbLine
 10
382.4123194092008
 20
2974.193681396373
 30
0.0
 11
376.0389337696015
 21
2974.193681396373
 31
0.0
  0
LINE
  5
16B2
330
1F
100
AcDbEntity
  8
DETAIL
100
AcDbLine
 10
376.0389337696015
 20
2974.938685239571
 30
0.0
 11
374.9671365928024
 21
2976.795092405171
 31
0.0
  0
LINE
  5
16B3
330
1F
100
AcDbEntity
  8
DETAIL
100
AcDbLine
 10
385.093047818802
 20
2979.681842194372
 30
0.0
 11
401.9047960808002
 21
2979.681842194372
 31
0.0
  0
LINE
  5
16B4
330
1F
100
AcDbEntity
  8
DETAIL
100
AcDbLine
 10
397.0445299180009
 20
3010.236979317171
 30
0.0
 11
398.3156854248008
 21
3012.438685239571
 31
0.0
  0
LINE
  5
16B5
330
1F
100
AcDbEntity
  8
DETAIL
100
AcDbLine
 10
383.3156854248009
 20
3012.438685239571
 30
0.0
 11
384.586840932001
 21
3010.236979317171
 31
0.0
  0
LINE
  5
16B6
330
1F
100
AcDbEntity
  8
DETAIL
100
AcDbLine
 10
398.3156854248008
 20
3012.438685239571
 30
0.0
 11
401.3156854248008
 21
3013.438685239571
 31
0.0
  0
LINE
  5
16B7
330
1F
100
AcDbEntity
  8
DETAIL
100
AcDbLine
 10
401.3156854248008
 20
3018.17868523957
 30
0.0
 11
403.2400000000015
 21
3018.17868523957
 31
0.0
  0
LINE
  5
16B8
330
1F
100
AcDbEntity
  8
DETAIL
100
AcDbLine
 10
383.1843145752009
 20
3014.998685239572
 30
0.0
 11
383.3156854248009
 21
3014.998685239572
 31
0.0
  0
LINE
  5
16B9
330
1F
100
AcDbEntity
  8
DETAIL
100
AcDbLine
 10
384.586840932001
 20
3010.236979317171
 30
0.0
 11
397.0445299180009
 21
3010.236979317171
 31
0.0
  0
LINE
  5
16BA
330
1F
100
AcDbEntity
  8
DETAIL
100
AcDbLine
 10
372.1843145752009
 20
3027.698685239571
 30
0.0
 11
345.0000000000018
 21
3027.698685239571
 31
0.0
  0
LINE
  5
16BB
330
1F
100
AcDbEntity
  8
DETAIL
100
AcDbLine
 10
398.3156854248008
 20
3033.438685239571
 30
0.0
 11
397.0445299180009
 21
3035.640391161571
 31
0.0
  0
LINE
  5
16BC
330
1F
100
AcDbEntity
  8
DETAIL
100
AcDbLine
 10
384.586840932001
 20
3035.640391161571
 30
0.0
 11
383.3156854248009
 21
3033.438685239571
 31
0.0
  0
LINE
  5
16BD
330
1F
100
AcDbEntity
  8
DETAIL
100
AcDbLine
 10
401.3156854248008
 20
3032.438685239571
 30
0.0
 11
398.3156854248008
 21
3033.438685239571
 31
0.0
  0
LINE
  5
16BE
330
1F
100
AcDbEntity
  8
DETAIL
100
AcDbLine
 10
403.2400000000015
 20
3027.698685239571
 30
0.0
 11
401.3156854248008
 21
3027.698685239571
 31
0.0
  0
LINE
  5
16BF
330
1F
100
AcDbEntity
  8
DETAIL
100
AcDbLine
 10
383.3156854248009
 20
3030.878685239571
 30
0.0
 11
383.1843145752009
 21
3030.878685239571
 31
0.0
  0
LINE
  5
16C0
330
1F
100
AcDbEntity
  8
DETAIL
100
AcDbLine
 10
384.586840932001
 20
3035.640391161571
 30
0.0
 11
397.0445299180009
 21
3035.640391161571
 31
0.0
  0
LINE
  5
16C1
330
1F
100
AcDbEntity
  8
DETAIL
100
AcDbLine
 10
382.4123194092008
 20
2950.838685239572
 30
0.0
 11
382.4123194092008
 21
2975.038685239571
 31
0.0
  0
LINE
  5
16C2
330
1F
100
AcDbEntity
  8
DETAIL
100
AcDbLine
 10
376.0389337696015
 20
2950.938685239571
 30
0.0
 11
376.0389337696015
 21
2974.938685239571
 31
0.0
  0
LINE
  5
16C3
330
1F
100
AcDbEntity
  8
DETAIL
100
AcDbLine
 10
362.0389337696015
 20
2950.938685239571
 30
0.0
 11
362.0389337696015
 21
2974.938685239571
 31
0.0
  0
LINE
  5
16C4
330
1F
100
AcDbEntity
  8
DETAIL
100
AcDbLine
 10
382.4251251964014
 20
3013.12373066317
 30
0.0
 11
372.9435039536019
 21
3013.12373066317
 31
0.0
  0
LINE
  5
16C5
330
1F
100
AcDbEntity
  8
DETAIL
100
AcDbLine
 10
372.9435039536019
 20
3013.12373066317
 30
0.0
 11
372.1843145752009
 21
3014.438685239571
 31
0.0
  0
LINE
  5
16C6
330
1F
100
AcDbEntity
  8
DETAIL
100
AcDbLine
 10
372.1843145752009
 20
3014.438685239571
 30
0.0
 11
372.1843145752009
 21
3031.438685239571
 31
0.0
  0
LINE
  5
16C7
330
1F
100
AcDbEntity
  8
DETAIL
100
AcDbLine
 10
372.1843145752009
 20
3031.438685239571
 30
0.0
 11
372.9435039536019
 21
3032.753639815572
 31
0.0
  0
LINE
  5
16C8
330
1F
100
AcDbEntity
  8
DETAIL
100
AcDbLine
 10
372.9435039536019
 20
3032.753639815572
 30
0.0
 11
382.4251251964014
 21
3032.753639815572
 31
0.0
  0
LINE
  5
16C9
330
1F
100
AcDbEntity
  8
DETAIL
100
AcDbLine
 10
382.4251251964014
 20
3032.753639815572
 30
0.0
 11
383.1843145752009
 21
3031.438685239571
 31
0.0
  0
LINE
  5
16CA
330
1F
100
AcDbEntity
  8
DETAIL
100
AcDbLine
 10
383.1843145752009
 20
3031.438685239571
 30
0.0
 11
383.1843145752009
 21
3014.438685239571
 31
0.0
  0
LINE
  5
16CB
330
1F
100
AcDbEntity
  8
DETAIL
100
AcDbLine
 10
383.1843145752009
 20
3014.438685239571
 30
0.0
 11
382.4251251964014
 21
3013.12373066317
 31
0.0
  0
LINE
  5
16CC
330
1F
100
AcDbEntity
  8
DETAIL
  6
CONTINUOUS
100
AcDbLine
 10
2503.987319740066
 20
-345.0000000000041
 30
0.0
 11
2503.987319740066
 21
334.999999999992
 31
0.0
  0
LINE
  5
16CD
330
1F
100
AcDbEntity
  8
DETAIL
100
AcDbLine
 10
2473.987319740066
 20
-475.0000000000077
 30
0.0
 11
2480.987319740066
 21
-475.0000000000077
 31
0.0
  0
LINE
  5
16CE
330
1F
100
AcDbEntity
  8
DETAIL
100
AcDbLine
 10
2480.987319740066
 20
-475.0000000000077
 30
0.0
 11
2488.987319740067
 21
-420.0000000000058
 31
0.0
  0
LINE
  5
16CF
330
1F
100
AcDbEntity
  8
DETAIL
100
AcDbLine
 10
2473.98731974007
 20
474.9999999999938
 30
0.0
 11
2480.98731974007
 21
474.9999999999938
 31
0.0
  0
LINE
  5
16D0
330
1F
100
AcDbEntity
  8
DETAIL
100
AcDbLine
 10
2480.98731974007
 20
474.9999999999938
 30
0.0
 11
2488.98731974007
 21
419.999999999992
 31
0.0
  0
LINE
  5
16D1
330
1F
100
AcDbEntity
  8
DETAIL
100
AcDbLine
 10
2488.987319740067
 20
420.0000000000138
 30
0.0
 11
2488.987319740067
 21
-420.0000000000058
 31
0.0
  0
LINE
  5
16D2
330
1F
100
AcDbEntity
  8
DETAIL
100
AcDbLine
 10
2503.987319740066
 20
-345.0000000000041
 30
0.0
 11
2503.987319740066
 21
344.9999999999956
 31
0.0
  0
LINE
  5
16D3
330
1F
100
AcDbEntity
  8
DETAIL
100
AcDbLine
 10
2503.987319740066
 20
344.9999999999956
 30
0.0
 11
2488.987319740067
 21
344.9999999999956
 31
0.0
  0
LINE
  5
16D4
330
1F
100
AcDbEntity
  8
DETAIL
100
AcDbLine
 10
2473.98731974007
 20
474.9999999999938
 30
0.0
 11
2473.987319740066
 21
-475.0000000000077
 31
0.0
  0
LINE
  5
16D5
330
1F
100
AcDbEntity
  8
DETAIL
100
AcDbLine
 10
2503.987319740066
 20
-345.0000000000041
 30
0.0
 11
2488.987319740067
 21
-345.0000000000041
 31
0.0
  0
POLYLINE
  5
16D6
330
1F
100
AcDbEntity
  8
DETAIL
  6
CONTINUOUS
100
AcDb2dPolyline
 66
     1
 10
0.0
 20
0.0
 30
0.0
  0
VERTEX
  5
1A6B
330
16D6
100
AcDbEntity
  8
DETAIL
  6
CONTINUOUS
100
AcDbVertex
100
AcDb2dVertex
 10
-2385.987319740065
 20
-423.5900000000001
 30
0.0
  0
VERTEX
  5
1A6C
330
16D6
100
AcDbEntity
  8
DETAIL
  6
CONTINUOUS
100
AcDbVertex
100
AcDb2dVertex
 10
-2385.987319740065
 20
-358.3299999999981
 30
0.0
  0
VERTEX
  5
1A6D
330
16D6
100
AcDbEntity
  8
DETAIL
  6
CONTINUOUS
100
AcDbVertex
100
AcDb2dVertex
 10
-2387.987319740064
 20
-358.3299999999981
 30
0.0
  0
VERTEX
  5
1A6E
330
16D6
100
AcDbEntity
  8
DETAIL
  6
CONTINUOUS
100
AcDbVertex
100
AcDb2dVertex
 10
-2387.987319740064
 20
-423.5900000000001
 30
0.0
  0
VERTEX
  5
1A6F
330
16D6
100
AcDbEntity
  8
DETAIL
  6
CONTINUOUS
100
AcDbVertex
100
AcDb2dVertex
 10
-2385.987319740065
 20
-423.5900000000001
 30
0.0
  0
SEQEND
  5
1A70
330
16D6
100
AcDbEntity
  8
DETAIL
  6
CONTINUOUS
  0
LINE
  5
16D7
330
1F
100
AcDbEntity
  8
DETAIL
  6
CONTINUOUS
100
AcDbLine
 10
-2385.987319740065
 20
-375.7700000000004
 30
0.0
 11
-2387.987319740064
 21
-375.7700000000004
 31
0.0
  0
CIRCLE
  5
16D8
330
1F
100
AcDbEntity
  8
DETAIL
  6
PHANTOM
100
AcDbCircle
 10
-2344.987319740063
 20
5.000000000000909
 30
0.0
 40
81.0
  0
POLYLINE
  5
16D9
330
1F
100
AcDbEntity
  8
DETAIL
  6
PHANTOM
100
AcDb2dPolyline
 66
     1
 10
0.0
 20
0.0
 30
0.0
  0
VERTEX
  5
1A71
330
16D9
100
AcDbEntity
  8
DETAIL
  6
PHANTOM
100
AcDbVertex
100
AcDb2dVertex
 10
-2291.987319740066
 20
-47.49999999999817
 30
0.0
  0
VERTEX
  5
1A72
330
16D9
100
AcDbEntity
  8
DETAIL
  6
PHANTOM
100
AcDbVertex
100
AcDb2dVertex
 10
-2291.987319740066
 20
57.50000000000182
 30
0.0
  0
VERTEX
  5
1A73
330
16D9
100
AcDbEntity
  8
DETAIL
  6
PHANTOM
100
AcDbVertex
100
AcDb2dVertex
 10
-2396.987319740066
 20
57.50000000000182
 30
0.0
  0
VERTEX
  5
1A74
330
16D9
100
AcDbEntity
  8
DETAIL
  6
PHANTOM
100
AcDbVertex
100
AcDb2dVertex
 10
-2396.987319740066
 20
-47.49999999999817
 30
0.0
  0
VERTEX
  5
1A75
330
16D9
100
AcDbEntity
  8
DETAIL
  6
PHANTOM
100
AcDbVertex
100
AcDb2dVertex
 10
-2291.987319740066
 20
-47.49999999999817
 30
0.0
  0
SEQEND
  5
1A76
330
16D9
100
AcDbEntity
  8
DETAIL
  6
PHANTOM
  0
LINE
  5
16DA
330
1F
100
AcDbEntity
  8
DETAIL
  6
CONTINUOUS
100
AcDbLine
 10
-2385.987319740066
 20
374.9900000000016
 30
0.0
 11
-2387.987319740066
 21
374.9900000000016
 31
0.0
  0
POLYLINE
  5
16DB
330
1F
100
AcDbEntity
  8
DETAIL
  6
CONTINUOUS
100
AcDb2dPolyline
 66
     1
 10
0.0
 20
0.0
 30
0.0
  0
VERTEX
  5
1A77
330
16DB
100
AcDbEntity
  8
DETAIL
  6
CONTINUOUS
100
AcDbVertex
100
AcDb2dVertex
 10
-2385.987319740066
 20
362.6900000000005
 30
0.0
  0
VERTEX
  5
1A78
330
16DB
100
AcDbEntity
  8
DETAIL
  6
CONTINUOUS
100
AcDbVertex
100
AcDb2dVertex
 10
-2385.987319740066
 20
423.2800000000006
 30
0.0
  0
VERTEX
  5
1A79
330
16DB
100
AcDbEntity
  8
DETAIL
  6
CONTINUOUS
100
AcDbVertex
100
AcDb2dVertex
 10
-2387.987319740066
 20
423.2800000000006
 30
0.0
  0
VERTEX
  5
1A7A
330
16DB
100
AcDbEntity
  8
DETAIL
  6
CONTINUOUS
100
AcDbVertex
100
AcDb2dVertex
 10
-2387.987319740066
 20
362.6900000000005
 30
0.0
  0
VERTEX
  5
1A7B
330
16DB
100
AcDbEntity
  8
DETAIL
  6
CONTINUOUS
100
AcDbVertex
100
AcDb2dVertex
 10
-2385.987319740066
 20
362.6900000000005
 30
0.0
  0
SEQEND
  5
1A7C
330
16DB
100
AcDbEntity
  8
DETAIL
  6
CONTINUOUS
  0
LINE
  5
16DC
330
1F
100
AcDbEntity
  8
DETAIL
  6
CONTINUOUS
100
AcDbLine
 10
-2473.987319740066
 20
-430.0
 30
0.0
 11
-2461.987319740066
 21
-430.0
 31
0.0
  0
LINE
  5
16DD
330
1F
100
AcDbEntity
  8
DETAIL
  6
CONTINUOUS
100
AcDbLine
 10
-2461.987319740066
 20
-430.0
 30
0.0
 11
-2461.987319740066
 21
430.0000000000018
 31
0.0
  0
LINE
  5
16DE
330
1F
100
AcDbEntity
  8
DETAIL
  6
CONTINUOUS
100
AcDbLine
 10
-2461.987319740066
 20
430.0000000000018
 30
0.0
 11
-2473.987319740066
 21
430.0000000000018
 31
0.0
  0
LINE
  5
16DF
330
1F
100
AcDbEntity
  8
DETAIL
  6
CONTINUOUS
100
AcDbLine
 10
-2503.987319740065
 20
-344.9999999999963
 30
0.0
 11
-2503.987319740065
 21
335.0
 31
0.0
  0
LINE
  5
16E0
330
1F
100
AcDbEntity
  8
DETAIL
100
AcDbLine
 10
-2473.987319740064
 20
-475.0
 30
0.0
 11
-2480.987319740064
 21
-475.0
 31
0.0
  0
LINE
  5
16E1
330
1F
100
AcDbEntity
  8
DETAIL
100
AcDbLine
 10
-2480.987319740064
 20
-475.0
 30
0.0
 11
-2488.987319740064
 21
-419.9999999999981
 31
0.0
  0
LINE
  5
16E2
330
1F
100
AcDbEntity
  8
DETAIL
100
AcDbLine
 10
-2473.987319740068
 20
475.0000000000018
 30
0.0
 11
-2480.987319740068
 21
475.0000000000018
 31
0.0
  0
LINE
  5
16E3
330
1F
100
AcDbEntity
  8
DETAIL
100
AcDbLine
 10
-2480.987319740068
 20
475.0000000000018
 30
0.0
 11
-2488.987319740068
 21
420.0
 31
0.0
  0
LINE
  5
16E4
330
1F
100
AcDbEntity
  8
DETAIL
100
AcDbLine
 10
-2488.987319740064
 20
420.0000000000218
 30
0.0
 11
-2488.987319740064
 21
-419.9999999999981
 31
0.0
  0
LINE
  5
16E5
330
1F
100
AcDbEntity
  8
DETAIL
100
AcDbLine
 10
-2503.987319740065
 20
-344.9999999999963
 30
0.0
 11
-2503.987319740065
 21
345.0000000000036
 31
0.0
  0
LINE
  5
16E6
330
1F
100
AcDbEntity
  8
DETAIL
100
AcDbLine
 10
-2503.987319740065
 20
345.0000000000036
 30
0.0
 11
-2488.987319740064
 21
345.0000000000036
 31
0.0
  0
LINE
  5
16E7
330
1F
100
AcDbEntity
  8
DETAIL
100
AcDbLine
 10
-2473.987319740068
 20
475.0000000000018
 30
0.0
 11
-2473.987319740064
 21
-475.0
 31
0.0
  0
LINE
  5
16E8
330
1F
100
AcDbEntity
  8
DETAIL
100
AcDbLine
 10
-2503.987319740065
 20
-344.9999999999963
 30
0.0
 11
-2488.987319740064
 21
-344.9999999999963
 31
0.0
  0
POLYLINE
  5
16E9
330
1F
100
AcDbEntity
  8
DETAIL
  6
PHANTOM
100
AcDb2dPolyline
 66
     1
 10
0.0
 20
0.0
 30
0.0
 70
     1
  0
VERTEX
  5
1A7D
330
16E9
100
AcDbEntity
  8
DETAIL
  6
PHANTOM
100
AcDbVertex
100
AcDb2dVertex
 10
-2252.987319740068
 20
245.0000000000018
 30
0.0
  0
VERTEX
  5
1A7E
330
16E9
100
AcDbEntity
  8
DETAIL
  6
PHANTOM
100
AcDbVertex
100
AcDb2dVertex
 10
-2252.987319740068
 20
-234.9999999999981
 30
0.0
  0
VERTEX
  5
1A7F
330
16E9
100
AcDbEntity
  8
DETAIL
  6
PHANTOM
100
AcDbVertex
100
AcDb2dVertex
 10
-2372.987319740068
 20
-234.9999999999981
 30
0.0
  0
VERTEX
  5
1A80
330
16E9
100
AcDbEntity
  8
DETAIL
  6
PHANTOM
100
AcDbVertex
100
AcDb2dVertex
 10
-2372.987319740068
 20
245.0000000000018
 30
0.0
  0
SEQEND
  5
1A81
330
16E9
100
AcDbEntity
  8
DETAIL
  6
PHANTOM
  0
POLYLINE
  5
16EA
330
1F
100
AcDbEntity
  8
DETAIL
  6
PHANTOM
100
AcDb2dPolyline
 66
     1
 10
0.0
 20
0.0
 30
0.0
  0
VERTEX
  5
1A82
330
16EA
100
AcDbEntity
  8
DETAIL
  6
PHANTOM
100
AcDbVertex
100
AcDb2dVertex
 10
-223.5000000000018
 20
-1855.748001403059
 30
0.0
  0
VERTEX
  5
1A83
330
16EA
100
AcDbEntity
  8
DETAIL
  6
PHANTOM
100
AcDbVertex
100
AcDb2dVertex
 10
-223.5000000000018
 20
-1735.748001403059
 30
0.0
  0
VERTEX
  5
1A84
330
16EA
100
AcDbEntity
  8
DETAIL
  6
PHANTOM
100
AcDbVertex
100
AcDb2dVertex
 10
256.4999999999963
 20
-1735.748001403059
 30
0.0
  0
VERTEX
  5
1A85
330
16EA
100
AcDbEntity
  8
DETAIL
  6
PHANTOM
100
AcDbVertex
100
AcDb2dVertex
 10
256.4999999999963
 20
-1855.748001403059
 30
0.0
  0
VERTEX
  5
1A86
330
16EA
100
AcDbEntity
  8
DETAIL
  6
PHANTOM
100
AcDbVertex
100
AcDb2dVertex
 10
-223.5000000000018
 20
-1855.748001403059
 30
0.0
  0
SEQEND
  5
1A87
330
16EA
100
AcDbEntity
  8
DETAIL
  6
PHANTOM
  0
LINE
  5
16EB
330
1F
100
AcDbEntity
  8
DETAIL
  6
CONTINUOUS
100
AcDbLine
 10
-335.0000000000018
 20
-1986.748001403059
 30
0.0
 11
334.9999999999963
 21
-1986.748001403059
 31
0.0
  0
POLYLINE
  5
16EC
330
1F
100
AcDbEntity
  8
DETAIL
  6
CONTINUOUS
100
AcDb2dPolyline
 66
     1
 10
0.0
 20
0.0
 30
0.0
  0
VERTEX
  5
1A88
330
16EC
100
AcDbEntity
  8
DETAIL
  6
CONTINUOUS
100
AcDbVertex
100
AcDb2dVertex
 10
-372.4500000000025
 20
-1826.73800140306
 30
0.0
  0
VERTEX
  5
1A89
330
16EC
100
AcDbEntity
  8
DETAIL
  6
CONTINUOUS
100
AcDbVertex
100
AcDb2dVertex
 10
-372.4500000000025
 20
-1824.748001403063
 30
0.0
  0
VERTEX
  5
1A8A
330
16EC
100
AcDbEntity
  8
DETAIL
  6
CONTINUOUS
100
AcDbVertex
100
AcDb2dVertex
 10
-303.8999999999996
 20
-1824.748001403063
 30
0.0
  0
VERTEX
  5
1A8B
330
16EC
100
AcDbEntity
  8
DETAIL
  6
CONTINUOUS
100
AcDbVertex
100
AcDb2dVertex
 10
-303.8999999999996
 20
-1826.73800140306
 30
0.0
  0
VERTEX
  5
1A8C
330
16EC
100
AcDbEntity
  8
DETAIL
  6
CONTINUOUS
100
AcDbVertex
100
AcDb2dVertex
 10
-372.4500000000025
 20
-1826.73800140306
 30
0.0
  0
SEQEND
  5
1A8D
330
16EC
100
AcDbEntity
  8
DETAIL
  6
CONTINUOUS
  0
LINE
  5
16ED
330
1F
100
AcDbEntity
  8
DETAIL
  6
CONTINUOUS
100
AcDbLine
 10
-343.7700000000022
 20
-1824.748001403063
 30
0.0
 11
-343.7700000000022
 21
-1826.738001403062
 31
0.0
  0
POLYLINE
  5
16EE
330
1F
100
AcDbEntity
  8
DETAIL
  6
CONTINUOUS
100
AcDb2dPolyline
 66
     1
 10
0.0
 20
0.0
 30
0.0
  0
VERTEX
  5
1A8E
330
16EE
100
AcDbEntity
  8
DETAIL
  6
CONTINUOUS
100
AcDbVertex
100
AcDb2dVertex
 10
297.208712871281
 20
-1826.738001403062
 30
0.0
  0
VERTEX
  5
1A8F
330
16EE
100
AcDbEntity
  8
DETAIL
  6
CONTINUOUS
100
AcDbVertex
100
AcDb2dVertex
 10
297.208712871281
 20
-1824.748001403061
 30
0.0
  0
VERTEX
  5
1A90
330
16EE
100
AcDbEntity
  8
DETAIL
  6
CONTINUOUS
100
AcDbVertex
100
AcDb2dVertex
 10
368.0187128712787
 20
-1824.748001403063
 30
0.0
  0
VERTEX
  5
1A91
330
16EE
100
AcDbEntity
  8
DETAIL
  6
CONTINUOUS
100
AcDbVertex
100
AcDb2dVertex
 10
368.0187128712787
 20
-1826.738001403062
 30
0.0
  0
VERTEX
  5
1A92
330
16EE
100
AcDbEntity
  8
DETAIL
  6
CONTINUOUS
100
AcDbVertex
100
AcDb2dVertex
 10
297.208712871281
 20
-1826.738001403062
 30
0.0
  0
SEQEND
  5
1A93
330
16EE
100
AcDbEntity
  8
DETAIL
  6
CONTINUOUS
  0
LINE
  5
16EF
330
1F
100
AcDbEntity
  8
DETAIL
  6
CONTINUOUS
100
AcDbLine
 10
354.0787128712782
 20
-1824.748001403063
 30
0.0
 11
354.0787128712782
 21
-1826.738001403062
 31
0.0
  0
LINE
  5
16F0
330
1F
100
AcDbEntity
  8
DETAIL
  6
CONTINUOUS
100
AcDbLine
 10
-430.0000000000018
 20
-1956.748001403059
 30
0.0
 11
-430.0000000000018
 21
-1944.748001403055
 31
0.0
  0
LINE
  5
16F1
330
1F
100
AcDbEntity
  8
DETAIL
  6
CONTINUOUS
100
AcDbLine
 10
-430.0000000000018
 20
-1944.748001403055
 30
0.0
 11
429.9999999999963
 21
-1944.748001403059
 31
0.0
  0
LINE
  5
16F2
330
1F
100
AcDbEntity
  8
DETAIL
  6
CONTINUOUS
100
AcDbLine
 10
429.9999999999963
 20
-1944.748001403059
 30
0.0
 11
429.9999999999963
 21
-1956.748001403061
 31
0.0
  0
LINE
  5
16F3
330
1F
100
AcDbEntity
  8
DETAIL
100
AcDbLine
 10
-475.0000000000036
 20
-1956.748001403059
 30
0.0
 11
-475.0000000000036
 21
-1963.748001403059
 31
0.0
  0
LINE
  5
16F4
330
1F
100
AcDbEntity
  8
DETAIL
100
AcDbLine
 10
-475.0000000000036
 20
-1963.748001403059
 30
0.0
 11
-420.0000000000017
 21
-1971.748001403059
 31
0.0
  0
LINE
  5
16F5
330
1F
100
AcDbEntity
  8
DETAIL
100
AcDbLine
 10
474.9999999999982
 20
-1956.748001403062
 30
0.0
 11
474.9999999999982
 21
-1963.748001403063
 31
0.0
  0
LINE
  5
16F6
330
1F
100
AcDbEntity
  8
DETAIL
100
AcDbLine
 10
474.9999999999982
 20
-1963.748001403063
 30
0.0
 11
419.9999999999963
 21
-1971.748001403062
 31
0.0
  0
LINE
  5
16F7
330
1F
100
AcDbEntity
  8
DETAIL
100
AcDbLine
 10
420.0000000000182
 20
-1971.748001403059
 30
0.0
 11
-420.0000000000017
 21
-1971.748001403059
 31
0.0
  0
LINE
  5
16F8
330
1F
100
AcDbEntity
  8
DETAIL
100
AcDbLine
 10
-345.0
 20
-1971.748001403059
 30
0.0
 11
-345.0
 21
-1986.748001403059
 31
0.0
  0
LINE
  5
16F9
330
1F
100
AcDbEntity
  8
DETAIL
100
AcDbLine
 10
-345.0
 20
-1986.748001403059
 30
0.0
 11
345.0
 21
-1986.748001403059
 31
0.0
  0
LINE
  5
16FA
330
1F
100
AcDbEntity
  8
DETAIL
100
AcDbLine
 10
345.0
 20
-1986.748001403059
 30
0.0
 11
345.0
 21
-1971.748001403059
 31
0.0
  0
LINE
  5
16FB
330
1F
100
AcDbEntity
  8
DETAIL
100
AcDbLine
 10
474.9999999999982
 20
-1956.748001403062
 30
0.0
 11
-475.0000000000036
 21
-1956.748001403059
 31
0.0
  0
LINE
  5
16FC
330
1F
100
AcDbEntity
  8
DETAIL
  6
CONTINUOUS
100
AcDbLine
 10
419.9999999999963
 20
-1944.748001403059
 30
0.0
 11
419.9999999999963
 21
-1637.74800140306
 31
0.0
  0
LINE
  5
16FD
330
1F
100
AcDbEntity
  8
DETAIL
  6
CONTINUOUS
100
AcDbLine
 10
419.9999999999963
 20
-1637.74800140306
 30
0.0
 11
-420.0000000000017
 21
-1637.748001403059
 31
0.0
  0
LINE
  5
16FE
330
1F
100
AcDbEntity
  8
DETAIL
  6
CONTINUOUS
100
AcDbLine
 10
-420.0000000000017
 20
-1637.748001403059
 30
0.0
 11
-420.0000000000017
 21
-1944.748001403055
 31
0.0
  0
LINE
  5
16FF
330
1F
100
AcDbEntity
  8
DETAIL
100
AcDbLine
 10
-269.2369071229113
 20
-1944.748001403059
 30
0.0
 11
-269.2369071229095
 21
-1637.748001403059
 31
0.0
  0
LINE
  5
1700
330
1F
100
AcDbEntity
  8
DETAIL
100
AcDbLine
 10
-252.2369071229095
 20
-1637.748001403059
 30
0.0
 11
-252.2369071229113
 21
-1944.748001403057
 31
0.0
  0
LINE
  5
1701
330
1F
100
AcDbEntity
  8
DETAIL
100
AcDbLine
 10
269.2369071229077
 20
-1944.748001403059
 30
0.0
 11
269.2369071229095
 21
-1637.748001403059
 31
0.0
  0
CIRCLE
  5
1702
330
1F
100
AcDbEntity
  8
DETAIL
100
AcDbCircle
 10
16.49999999999818
 20
-1827.74800140306
 30
0.0
 40
81.0
  0
POLYLINE
  5
1703
330
1F
100
AcDbEntity
  8
DETAIL
  6
PHANTOM
100
AcDb2dPolyline
 66
     1
 10
0.0
 20
0.0
 30
0.0
 70
     1
  0
VERTEX
  5
1A94
330
1703
100
AcDbEntity
  8
DETAIL
  6
PHANTOM
100
AcDbVertex
100
AcDb2dVertex
 10
-36.00000000000363
 20
-1774.748001403061
 30
0.0
  0
VERTEX
  5
1A95
330
1703
100
AcDbEntity
  8
DETAIL
  6
PHANTOM
100
AcDbVertex
100
AcDb2dVertex
 10
68.99999999999636
 20
-1774.748001403061
 30
0.0
  0
VERTEX
  5
1A96
330
1703
100
AcDbEntity
  8
DETAIL
  6
PHANTOM
100
AcDbVertex
100
AcDb2dVertex
 10
68.99999999999636
 20
-1879.74800140306
 30
0.0
  0
VERTEX
  5
1A97
330
1703
100
AcDbEntity
  8
DETAIL
  6
PHANTOM
100
AcDbVertex
100
AcDb2dVertex
 10
-36.00000000000363
 20
-1879.74800140306
 30
0.0
  0
SEQEND
  5
1A98
330
1703
100
AcDbEntity
  8
DETAIL
  6
PHANTOM
  0
LINE
  5
1706
330
1F
100
AcDbEntity
  8
DETAIL
100
AcDbLine
 10
362.0389337696015
 20
2970.878685239571
 30
0.0
 11
345.0000000000018
 21
2970.878685239571
 31
0.0
  0
LINE
  5
1707
330
1F
100
AcDbEntity
  8
DETAIL
100
AcDbLine
 10
362.0389337696015
 20
2954.988685239568
 30
0.0
 11
345.0000000000018
 21
2954.988685239568
 31
0.0
  0
LINE
  5
1708
330
1F
100
AcDbEntity
  8
DETAIL
  6
PHANTOM
100
AcDbLine
 10
-223.5000000000018
 20
-1735.748001403059
 30
0.0
 11
-223.5000000000018
 21
-1672.748001403059
 31
0.0
  0
LINE
  5
1709
330
1F
100
AcDbEntity
  8
DETAIL
  6
PHANTOM
100
AcDbLine
 10
-223.5000000000018
 20
-1672.748001403059
 30
0.0
 11
256.4999999999981
 21
-1672.748001403059
 31
0.0
  0
LINE
  5
170A
330
1F
100
AcDbEntity
  8
DETAIL
  6
PHANTOM
100
AcDbLine
 10
256.4999999999981
 20
-1672.748001403059
 30
0.0
 11
256.4999999999981
 21
-1735.748001403059
 31
0.0
  0
LINE
  5
170B
330
1F
100
AcDbEntity
  8
DETAIL
  6
CONTINUOUS
100
AcDbLine
 10
419.9999999999981
 20
2815.938685239569
 30
0.0
 11
-420.0
 21
2815.93868523957
 31
0.0
  0
POLYLINE
  5
170C
330
1F
100
AcDbEntity
  8
DETAIL
  6
CONTINUOUS
100
AcDb2dPolyline
 66
     1
 10
0.0
 20
0.0
 30
0.0
  0
VERTEX
  5
1A99
330
170C
100
AcDbEntity
  8
DETAIL
  6
CONTINUOUS
100
AcDbVertex
100
AcDb2dVertex
 10
2461.987319740068
 20
419.9999999999938
 30
0.0
  0
VERTEX
  5
1A9A
330
170C
100
AcDbEntity
  8
DETAIL
  6
CONTINUOUS
100
AcDbVertex
100
AcDb2dVertex
 10
2154.987319740068
 20
419.9999999999956
 30
0.0
  0
VERTEX
  5
1A9B
330
170C
100
AcDbEntity
  8
DETAIL
  6
CONTINUOUS
100
AcDbVertex
100
AcDb2dVertex
 10
2154.987319740063
 20
-420.0000000000058
 30
0.0
  0
VERTEX
  5
1A9C
330
170C
100
AcDbEntity
  8
DETAIL
  6
CONTINUOUS
100
AcDbVertex
100
AcDb2dVertex
 10
2461.987319740066
 20
-420.0000000000058
 30
0.0
  0
SEQEND
  5
1A9D
330
170C
100
AcDbEntity
  8
DETAIL
  6
CONTINUOUS
  0
LINE
  5
170D
330
1F
100
AcDbEntity
  8
DETAIL
  6
CONTINUOUS
100
AcDbLine
 10
-2461.987319740066
 20
420.0000000000017
 30
0.0
 11
-2154.987319740067
 21
420.0
 31
0.0
  0
LINE
  5
170E
330
1F
100
AcDbEntity
  8
DETAIL
  6
CONTINUOUS
100
AcDbLine
 10
-2154.987319740067
 20
420.0
 30
0.0
 11
-2154.987319740063
 21
-420.0
 31
0.0
  0
LINE
  5
170F
330
1F
100
AcDbEntity
  8
DETAIL
  6
CONTINUOUS
100
AcDbLine
 10
-2154.987319740063
 20
-420.0
 30
0.0
 11
-2461.987319740066
 21
-420.0
 31
0.0
  0
LINE
  5
1710
330
1F
100
AcDbEntity
  8
DETAIL
100
AcDbLine
 10
-2461.987319740064
 20
269.0000000000018
 30
0.0
 11
-2154.987319740064
 21
269.0000000000018
 31
0.0
  0
LINE
  5
1711
330
1F
100
AcDbEntity
  8
DETAIL
100
AcDbLine
 10
-2154.987319740064
 20
253.5000000000018
 30
0.0
 11
-2461.987319740066
 21
253.5000000000018
 31
0.0
  0
LINE
  5
1712
330
1F
100
AcDbEntity
  8
DETAIL
100
AcDbLine
 10
-2154.987319740063
 20
-268.9999999999963
 30
0.0
 11
-2461.987319740066
 21
-268.9999999999963
 31
0.0
  0
LINE
  5
1713
330
1F
100
AcDbEntity
  8
DETAIL
  6
PHANTOM
100
AcDbLine
 10
-2252.987319740068
 20
245.0000000000018
 30
0.0
 11
-2189.987319740068
 21
245.0000000000018
 31
0.0
  0
LINE
  5
1714
330
1F
100
AcDbEntity
  8
DETAIL
  6
PHANTOM
100
AcDbLine
 10
-2189.987319740068
 20
245.0000000000018
 30
0.0
 11
-2189.987319740068
 21
-234.9999999999981
 31
0.0
  0
LINE
  5
1715
330
1F
100
AcDbEntity
  8
DETAIL
  6
PHANTOM
100
AcDbLine
 10
-2189.987319740068
 20
-234.9999999999981
 30
0.0
 11
-2252.987319740068
 21
-234.9999999999981
 31
0.0
  0
CIRCLE
  5
1716
330
1F
100
AcDbEntity
  8
DETAIL
100
AcDbCircle
 10
2414.989569301436
 20
-49.99994779028009
 30
0.0
 40
2.5
  0
CIRCLE
  5
1717
330
1F
100
AcDbEntity
  8
DETAIL
100
AcDbCircle
 10
2258.989579313951
 20
-49.99996979682862
 30
0.0
 40
2.5
  0
TEXT
  5
171A
330
1F
100
AcDbEntity
  8
NOTE
100
AcDbText
 10
1736.006972585752
 20
-2803.785517924005
 30
0.0
 40
40.0
  1
RAV-SM1404UTP-E
  7
KAIGAI
100
AcDbText
  0
TEXT
  5
171B
330
1F
100
AcDbEntity
  8
NOTE
100
AcDbText
 10
1734.950963417764
 20
-2853.407541758503
 30
0.0
 40
40.0
  1
RAV-SM1604UTP-E
  7
KAIGAI
100
AcDbText
  0
LINE
  5
184F
330
1F
100
AcDbEntity
  8
OUTLINE
100
AcDbLine
 10
-459.9999999999981
 20
475.0000000000034
 30
0.0
 11
460.0000000000018
 21
475.0000000000015
 31
0.0
  0
LINE
  5
1850
330
1F
100
AcDbEntity
  8
OUTLINE
100
AcDbLine
 10
459.9999999999981
 20
-475.000000000002
 30
0.0
 11
-460.0000000000036
 21
-474.9999999999966
 31
0.0
  0
LINE
  5
1851
330
1F
100
AcDbEntity
  8
OUTLINE
100
AcDbLine
 10
-475.0000000000036
 20
-459.9999999999965
 30
0.0
 11
-474.9999999999982
 21
460.0000000000034
 31
0.0
  0
ARC
  5
1852
330
1F
100
AcDbEntity
  8
OUTLINE
100
AcDbCircle
 10
-460.0
 20
-459.9999999999976
 30
0.0
 40
15.0
100
AcDbArc
 50
180.0
 51
270.0
  0
ARC
  5
1853
330
1F
100
AcDbEntity
  8
OUTLINE
100
AcDbCircle
 10
-459.9999999999945
 20
460.0000000000022
 30
0.0
 40
15.0
100
AcDbArc
 50
90.0
 51
180.0
  0
LINE
  5
1854
330
1F
100
AcDbEntity
  8
OUTLINE
100
AcDbLine
 10
475.0000000000018
 20
459.9999999999997
 30
0.0
 11
474.9999999999982
 21
-460.000000000002
 31
0.0
  0
ARC
  5
1855
330
1F
100
AcDbEntity
  8
OUTLINE
100
AcDbCircle
 10
460.0
 20
-460.0000000000014
 30
0.0
 40
15.0
100
AcDbArc
 50
270.0
 51
0.0
  0
ARC
  5
1856
330
1F
100
AcDbEntity
  8
OUTLINE
100
AcDbCircle
 10
460.0000000000018
 20
459.9999999999986
 30
0.0
 40
15.0
100
AcDbArc
 50
0.0
 51
90.0
  0
LINE
  5
1857
330
1F
100
AcDbEntity
  8
SIZE
100
AcDbLine
 10
-475.0000000000036
 20
-651.9399999999953
 30
0.0
 11
474.9999999999945
 21
-651.9400000000025
 31
0.0
  0
LINE
  5
1858
330
1F
100
AcDbEntity
  8
BASIS
100
AcDbLine
 10
-1208.643948607912
 20
0.0000000000053433
 30
0.0
 11
474.9999999999982
 21
-0.00000000000216
 31
0.0
  0
LINE
  5
1859
330
1F
100
AcDbEntity
  8
BASIS
100
AcDbLine
 10
0.000000000001819
 20
475.0000000000015
 30
0.0
 11
-0.000000000005457
 21
-1171.22703630268
 31
0.0
  0
CIRCLE
  5
185A
330
1F
100
AcDbEntity
  8
FIX
100
AcDbCircle
 10
-345.0017935582218
 20
-389.9980912091336
 30
0.0
 40
20.0
  0
TEXT
  5
185B
330
1F
100
AcDbEntity
  8
SIZE
100
AcDbText
 10
-382.1205202050077
 20
-647.7505117221367
 30
0.0
 40
40.0
  1
950
  7
KAIGAI
100
AcDbText
  0
LINE
  5
185C
330
1F
100
AcDbEntity
  8
SIZE
100
AcDbLine
 10
-475.0000000000036
 20
-681.9399999999952
 30
0.0
 11
-475.0000000000036
 21
-519.9999999999966
 31
0.0
  0
LINE
  5
185D
330
1F
100
AcDbEntity
  8
SIZE
100
AcDbLine
 10
-475.0000000000036
 20
-651.9399999999953
 30
0.0
 11
-455.0000000000036
 21
-648.4099999999946
 31
0.0
  0
LINE
  5
185E
330
1F
100
AcDbEntity
  8
SIZE
100
AcDbLine
 10
-455.0000000000036
 20
-655.4699999999977
 30
0.0
 11
-475.0000000000036
 21
-651.9399999999953
 31
0.0
  0
CIRCLE
  5
185F
330
1F
100
AcDbEntity
  8
ARRANGE
100
AcDbCircle
 10
0.0
 20
-0.0000000000013642
 30
0.0
 40
20.0
  0
POINT
  5
1860
330
1F
100
AcDbEntity
  8
ARRANGE
100
AcDbPoint
 10
-0.000000000001819
 20
0.0000000000015916
 30
0.0
  0
LINE
  5
1861
330
1F
100
AcDbEntity
  8
SIZE
100
AcDbLine
 10
820.6700000000019
 20
474.9999999999998
 30
0.0
 11
820.6699999999964
 21
-475.0000000000023
 31
0.0
  0
LINE
  5
1862
330
1F
100
AcDbEntity
  8
SIZE
100
AcDbLine
 10
479.9999999999945
 20
-475.000000000002
 30
0.0
 11
850.6699999999964
 21
-475.0000000000023
 31
0.0
  0
TEXT
  5
1863
330
1F
100
AcDbEntity
  8
SIZE
100
AcDbText
 10
813.5420390826803
 20
-430.2215167253812
 30
0.0
 40
40.0
  1
950
 50
90.0
  7
KAIGAI
100
AcDbText
  0
LINE
  5
1864
330
1F
100
AcDbEntity
  8
SIZE
100
AcDbLine
 10
474.9999999999945
 20
-475.000000000002
 30
0.0
 11
474.9999999999945
 21
-681.9400000000025
 31
0.0
  0
LINE
  5
1865
330
1F
100
AcDbEntity
  8
SIZE
100
AcDbLine
 10
474.9999999999945
 20
-651.9400000000025
 30
0.0
 11
454.9999999999982
 21
-655.4700000000013
 31
0.0
  0
LINE
  5
1866
330
1F
100
AcDbEntity
  8
SIZE
100
AcDbLine
 10
454.9999999999982
 20
-648.4100000000019
 30
0.0
 11
474.9999999999945
 21
-651.9400000000025
 31
0.0
  0
LINE
  5
1867
330
1F
100
AcDbEntity
  8
SIZE
100
AcDbLine
 10
820.6699999999964
 20
-475.0000000000023
 30
0.0
 11
817.149999999996
 21
-455.0000000000022
 31
0.0
  0
LINE
  5
1868
330
1F
100
AcDbEntity
  8
SIZE
100
AcDbLine
 10
824.1999999999988
 20
-455.0000000000022
 30
0.0
 11
820.6699999999964
 21
-475.0000000000023
 31
0.0
  0
LINE
  5
1869
330
1F
100
AcDbEntity
  8
SIZE
100
AcDbLine
 10
850.6700000000019
 20
474.9999999999998
 30
0.0
 11
480.0000000000018
 21
474.9999999999998
 31
0.0
  0
LINE
  5
186A
330
1F
100
AcDbEntity
  8
BASIS
100
AcDbLine
 10
335.0000000000018
 20
313.5000000000015
 30
0.0
 11
419.5800000000035
 21
313.5000000000015
 31
0.0
  0
LINE
  5
186B
330
1F
100
AcDbEntity
  8
BASIS
100
AcDbLine
 10
335.0
 20
241.5000000000016
 30
0.0
 11
424.0800000000035
 21
241.4999999999997
 31
0.0
  0
LINE
  5
186C
330
1F
100
AcDbEntity
  8
SIZE
100
AcDbLine
 10
820.6700000000019
 20
474.9999999999998
 30
0.0
 11
824.2000000000007
 21
454.9999999999998
 31
0.0
  0
LINE
  5
186D
330
1F
100
AcDbEntity
  8
SIZE
100
AcDbLine
 10
817.1500000000014
 20
454.9999999999998
 30
0.0
 11
820.6700000000019
 21
474.9999999999998
 31
0.0
  0
LINE
  5
186E
330
1F
100
AcDbEntity
  8
BASIS
100
AcDbLine
 10
-345.0000000000018
 20
-364.9999999999984
 30
0.0
 11
-345.0000000000018
 21
-414.9999999999984
 31
0.0
  0
LINE
  5
186F
330
1F
100
AcDbEntity
  8
BASIS
100
AcDbLine
 10
-320.0000000000018
 20
-389.9999999999984
 30
0.0
 11
-370.0000000000018
 21
-389.9999999999984
 31
0.0
  0
CIRCLE
  5
1870
330
1F
100
AcDbEntity
  8
FIX
100
AcDbCircle
 10
345.0017935582218
 20
-389.9980912091555
 30
0.0
 40
20.0
  0
LINE
  5
1871
330
1F
100
AcDbEntity
  8
BASIS
100
AcDbLine
 10
344.9999999999981
 20
-365.0000000000184
 30
0.0
 11
344.9999999999981
 21
-415.0000000000184
 31
0.0
  0
LINE
  5
1872
330
1F
100
AcDbEntity
  8
BASIS
100
AcDbLine
 10
319.9999999999981
 20
-390.0000000000184
 30
0.0
 11
369.9999999999981
 21
-390.0000000000202
 31
0.0
  0
CIRCLE
  5
1873
330
1F
100
AcDbEntity
  8
FIX
100
AcDbCircle
 10
-345.0017935582181
 20
389.9980912091382
 30
0.0
 40
20.0
  0
LINE
  5
1874
330
1F
100
AcDbEntity
  8
BASIS
100
AcDbLine
 10
-344.9999999999981
 20
365.0000000000034
 30
0.0
 11
-344.9999999999981
 21
415.0000000000034
 31
0.0
  0
LINE
  5
1875
330
1F
100
AcDbEntity
  8
BASIS
100
AcDbLine
 10
-319.9999999999981
 20
390.0000000000034
 30
0.0
 11
-369.9999999999981
 21
390.0000000000034
 31
0.0
  0
LINE
  5
1876
330
1F
100
AcDbEntity
  8
BASIS
 48
0.5
100
AcDbLine
 10
445.0170021075009
 20
-323.0000000000002
 30
0.0
 11
321.3710099490072
 21
-323.0000000000002
 31
0.0
  0
LINE
  5
1877
330
1F
100
AcDbEntity
  8
SIZE
100
AcDbLine
 10
-345.0000000000018
 20
-394.9999999999984
 30
0.0
 11
-345.0000000000018
 21
-605.859999999999
 31
0.0
  0
LINE
  5
1878
330
1F
100
AcDbEntity
  8
SIZE
100
AcDbLine
 10
344.9999999999981
 20
-395.0000000000184
 30
0.0
 11
344.9999999999981
 21
-605.8600000000008
 31
0.0
  0
LINE
  5
1879
330
1F
100
AcDbEntity
  8
SIZE
100
AcDbLine
 10
-330.0000000000018
 20
-600.8599999999989
 30
0.0
 11
329.9999999999982
 21
-600.8600000000008
 31
0.0
  0
CIRCLE
  5
187A
330
1F
100
AcDbEntity
  8
FIX
100
AcDbCircle
 10
345.0017935582254
 20
389.9980912091527
 30
0.0
 40
20.0
  0
LINE
  5
187B
330
1F
100
AcDbEntity
  8
BASIS
100
AcDbLine
 10
345.0000000000054
 20
365.0000000000179
 30
0.0
 11
345.0000000000018
 21
415.0000000000179
 31
0.0
  0
LINE
  5
187C
330
1F
100
AcDbEntity
  8
BASIS
100
AcDbLine
 10
320.0000000000018
 20
390.0000000000161
 30
0.0
 11
370.0000000000018
 21
390.0000000000197
 31
0.0
  0
LINE
  5
187D
330
1F
100
AcDbEntity
  8
SIZE
100
AcDbLine
 10
350.0000000000018
 20
390.0000000000179
 30
0.0
 11
741.67
 21
390.0000000000161
 31
0.0
  0
LINE
  5
187E
330
1F
100
AcDbEntity
  8
SIZE
100
AcDbLine
 10
349.9999999999981
 20
-390.0000000000184
 30
0.0
 11
741.6699999999964
 21
-390.0000000000204
 31
0.0
  0
LINE
  5
187F
330
1F
100
AcDbEntity
  8
SIZE
100
AcDbLine
 10
736.67
 20
375.0000000000161
 30
0.0
 11
736.6699999999964
 21
-375.0000000000204
 31
0.0
  0
LINE
  5
1880
330
1F
100
AcDbEntity
  8
SIZE
100
AcDbLine
 10
-420.0000000000036
 20
-273.9999999999966
 30
0.0
 11
-420.0000000000036
 21
-569.8628407492708
 31
0.0
  0
LINE
  5
1881
330
1F
100
AcDbEntity
  8
SIZE
100
AcDbLine
 10
-265.7041499703809
 20
-423.5383084802236
 30
0.0
 11
-207.4249294824512
 21
-481.9091081616281
 31
0.0
  0
ARC
  5
1882
330
1F
100
AcDbEntity
  8
SIZE
100
AcDbCircle
 10
-420.0
 20
-268.9999999999975
 30
0.0
 40
295.8628407492739
100
AcDbArc
 50
272.9051595767048
 51
312.04985886057
  0
TEXT
  5
1883
330
1F
100
AcDbEntity
  8
SIZE
100
AcDbText
 10
-323.8841070377838
 20
-526.4094516232867
 30
0.0
 40
40.0
  1
45°
 50
22.47750921860968
  7
KAIGAI
100
AcDbText
  0
LINE
  5
1884
330
1F
100
AcDbEntity
  8
SIZE
100
AcDbLine
 10
-224.6046475705607
 20
-485.7812470442588
 30
0.0
 11
-210.9576866349834
 21
-478.3707996814012
 31
0.0
  0
LINE
  5
1885
330
1F
100
AcDbEntity
  8
SIZE
100
AcDbLine
 10
-210.9576866349834
 20
-478.3707996814012
 30
0.0
 11
-219.071077868286
 21
-491.6119157820251
 31
0.0
  0
LINE
  5
1886
330
1F
100
AcDbEntity
  8
SIZE
100
AcDbLine
 10
-210.9576866349834
 20
-478.3707996814012
 30
0.0
 11
-221.8378627194233
 21
-488.696581413142
 31
0.0
  0
LINE
  5
1887
330
1F
100
AcDbEntity
  8
SIZE
100
AcDbLine
 10
-404.9029342767698
 20
-568.5005432444234
 30
0.0
 11
-420.0000000000036
 21
-564.8628407492708
 31
0.0
  0
LINE
  5
1888
330
1F
100
AcDbEntity
  8
SIZE
100
AcDbLine
 10
-420.0000000000036
 20
-564.8628407492708
 30
0.0
 11
-405.1067062935508
 21
-560.4646507274303
 31
0.0
  0
LINE
  5
1889
330
1F
100
AcDbEntity
  8
SIZE
100
AcDbLine
 10
-420.0000000000036
 20
-564.8628407492708
 30
0.0
 11
-405.0048202851612
 21
-564.4825969859268
 31
0.0
  0
LINE
  5
188A
330
1F
100
AcDbEntity
  8
SIZE
100
AcDbLine
 10
0.000000000001819
 20
480.0000000000015
 30
0.0
 11
0.000000000001819
 21
557.2662820657113
 31
0.0
  0
LINE
  5
188B
330
1F
100
AcDbEntity
  8
SIZE
100
AcDbLine
 10
408.0000000000017
 20
253.4999999999997
 30
0.0
 11
408.0000000000017
 21
557.2662820657113
 31
0.0
  0
LINE
  5
188C
330
1F
100
AcDbEntity
  8
SIZE
100
AcDbLine
 10
15.00000000000182
 20
552.2662820657112
 30
0.0
 11
393.0000000000018
 21
552.2662820657112
 31
0.0
  0
LINE
  5
188D
330
1F
100
AcDbEntity
  8
SIZE
100
AcDbLine
 10
464.9999999999981
 20
-475.000000000002
 30
0.0
 11
741.6699999999964
 21
-475.0000000000023
 31
0.0
  0
TEXT
  5
188E
330
1F
100
AcDbEntity
  8
SIZE
100
AcDbText
 10
724.2196923641495
 20
-305.6612694954088
 30
0.0
 40
40.0
  1
780
 50
90.0
  7
KAIGAI
100
AcDbText
  0
LINE
  5
188F
330
1F
100
AcDbEntity
  8
SIZE
100
AcDbLine
 10
740.6892378499961
 20
-375.0000000000204
 30
0.0
 11
736.6699999999964
 21
-390.0000000000204
 31
0.0
  0
LINE
  5
1890
330
1F
100
AcDbEntity
  8
SIZE
100
AcDbLine
 10
736.6699999999964
 20
-390.0000000000204
 30
0.0
 11
732.6507621499968
 21
-375.0000000000204
 31
0.0
  0
LINE
  5
1891
330
1F
100
AcDbEntity
  8
SIZE
100
AcDbLine
 10
736.6699999999964
 20
-390.0000000000204
 30
0.0
 11
736.6699999999964
 21
-375.0000000000204
 31
0.0
  0
LINE
  5
1892
330
1F
100
AcDbEntity
  8
SIZE
100
AcDbLine
 10
732.6507621500004
 20
375.0000000000161
 30
0.0
 11
736.67
 21
390.0000000000161
 31
0.0
  0
LINE
  5
1893
330
1F
100
AcDbEntity
  8
SIZE
100
AcDbLine
 10
736.67
 20
390.0000000000161
 30
0.0
 11
740.6892378499996
 21
375.0000000000161
 31
0.0
  0
LINE
  5
1894
330
1F
100
AcDbEntity
  8
SIZE
100
AcDbLine
 10
736.67
 20
390.0000000000161
 30
0.0
 11
736.67
 21
375.0000000000161
 31
0.0
  0
LINE
  5
1895
330
1F
100
AcDbEntity
  8
SIZE
100
AcDbLine
 10
479.9999999999982
 20
-0.00000000000216
 30
0.0
 11
657.6600000000016
 21
-0.00000000000216
 31
0.0
  0
LINE
  5
1896
330
1F
100
AcDbEntity
  8
SIZE
100
AcDbLine
 10
421.4999999999982
 20
-323.0000000000002
 30
0.0
 11
657.659999999998
 21
-323.0000000000002
 31
0.0
  0
LINE
  5
1897
330
1F
100
AcDbEntity
  8
SIZE
100
AcDbLine
 10
652.6600000000017
 20
-15.00000000000216
 30
0.0
 11
652.659999999998
 21
-308.0000000000002
 31
0.0
  0
TEXT
  5
1898
330
1F
100
AcDbEntity
  8
SIZE
100
AcDbText
 10
-289.9701014732818
 20
-595.8600000000001
 30
0.0
 40
40.0
  1
690±20
  7
KAIGAI
100
AcDbText
  0
LINE
  5
1899
330
1F
100
AcDbEntity
  8
SIZE
100
AcDbLine
 10
329.9999999999982
 20
-596.8407621500012
 30
0.0
 11
344.9999999999981
 21
-600.8600000000008
 31
0.0
  0
LINE
  5
189A
330
1F
100
AcDbEntity
  8
SIZE
100
AcDbLine
 10
344.9999999999981
 20
-600.8600000000008
 30
0.0
 11
329.9999999999982
 21
-604.8792378500004
 31
0.0
  0
LINE
  5
189B
330
1F
100
AcDbEntity
  8
SIZE
100
AcDbLine
 10
344.9999999999981
 20
-600.8600000000008
 30
0.0
 11
329.9999999999982
 21
-600.8600000000008
 31
0.0
  0
LINE
  5
189C
330
1F
100
AcDbEntity
  8
SIZE
100
AcDbLine
 10
-330.0000000000018
 20
-604.8792378499986
 30
0.0
 11
-345.0000000000018
 21
-600.8599999999989
 31
0.0
  0
LINE
  5
189D
330
1F
100
AcDbEntity
  8
SIZE
100
AcDbLine
 10
-345.0000000000018
 20
-600.8599999999989
 30
0.0
 11
-330.0000000000018
 21
-596.8407621499993
 31
0.0
  0
LINE
  5
189E
330
1F
100
AcDbEntity
  8
SIZE
100
AcDbLine
 10
-345.0000000000018
 20
-600.8599999999989
 30
0.0
 11
-330.0000000000018
 21
-600.8599999999989
 31
0.0
  0
LINE
  5
189F
330
1F
100
AcDbEntity
  8
SIZE
100
AcDbLine
 10
-0.000000000003638
 20
-479.9999999999966
 30
0.0
 11
-0.000000000003638
 21
-554.0588572235503
 31
0.0
  0
LINE
  5
18A0
330
1F
100
AcDbEntity
  8
SIZE
100
AcDbLine
 10
416.4999999999982
 20
-343.0000000000002
 30
0.0
 11
416.4999999999982
 21
-554.0588572235521
 31
0.0
  0
LINE
  5
18A1
330
1F
100
AcDbEntity
  8
SIZE
100
AcDbLine
 10
14.99999999999636
 20
-549.0588572235504
 30
0.0
 11
401.4999999999981
 21
-549.0588572235521
 31
0.0
  0
LINE
  5
18A2
330
1F
100
AcDbEntity
  8
SIZE
100
AcDbLine
 10
-479.9999999999982
 20
0.0000000000034106
 30
0.0
 11
-578.1900000000005
 21
0.0000000000034106
 31
0.0
  0
LINE
  5
18A3
330
1F
100
AcDbEntity
  8
SIZE
100
AcDbLine
 10
-425.0000000000036
 20
-268.9999999999965
 30
0.0
 11
-578.1900000000023
 21
-268.9999999999965
 31
0.0
  0
LINE
  5
18A4
330
1F
100
AcDbEntity
  8
SIZE
100
AcDbLine
 10
-573.1900000000004
 20
-14.99999999999658
 30
0.0
 11
-573.1900000000004
 21
-253.9999999999965
 31
0.0
  0
TEXT
  5
18A5
330
1F
100
AcDbEntity
  8
SIZE
100
AcDbText
 10
-578.1899999999986
 20
-174.4999999999957
 30
0.0
 40
40.0
  1
269
 50
90.0
  7
KAIGAI
100
AcDbText
  0
LINE
  5
18A6
330
1F
100
AcDbEntity
  8
SIZE
100
AcDbLine
 10
-569.1707621500027
 20
-253.9999999999965
 30
0.0
 11
-573.1900000000023
 21
-268.9999999999965
 31
0.0
  0
LINE
  5
18A7
330
1F
100
AcDbEntity
  8
SIZE
100
AcDbLine
 10
-573.1900000000023
 20
-268.9999999999965
 30
0.0
 11
-577.2092378500001
 21
-253.9999999999965
 31
0.0
  0
LINE
  5
18A8
330
1F
100
AcDbEntity
  8
SIZE
100
AcDbLine
 10
-573.1900000000023
 20
-268.9999999999965
 30
0.0
 11
-573.1900000000004
 21
-253.9999999999965
 31
0.0
  0
LINE
  5
18A9
330
1F
100
AcDbEntity
  8
SIZE
100
AcDbLine
 10
-577.2092378500001
 20
-14.99999999999658
 30
0.0
 11
-573.1900000000004
 21
0.0000000000034106
 31
0.0
  0
LINE
  5
18AA
330
1F
100
AcDbEntity
  8
SIZE
100
AcDbLine
 10
-573.1900000000004
 20
0.0000000000034106
 30
0.0
 11
-569.1707621500008
 21
-14.99999999999658
 31
0.0
  0
LINE
  5
18AB
330
1F
100
AcDbEntity
  8
SIZE
100
AcDbLine
 10
-573.1900000000004
 20
0.0000000000034106
 30
0.0
 11
-573.1900000000004
 21
-14.99999999999658
 31
0.0
  0
TEXT
  5
18AC
330
1F
100
AcDbEntity
  8
SIZE
100
AcDbText
 10
153.2499999999999
 20
-544.0588572235533
 30
0.0
 40
40.0
  1
416.5
  7
KAIGAI
100
AcDbText
  0
LINE
  5
18AD
330
1F
100
AcDbEntity
  8
SIZE
100
AcDbLine
 10
401.4999999999981
 20
-545.0396193735525
 30
0.0
 11
416.4999999999982
 21
-549.0588572235521
 31
0.0
  0
LINE
  5
18AE
330
1F
100
AcDbEntity
  8
SIZE
100
AcDbLine
 10
416.4999999999982
 20
-549.0588572235521
 30
0.0
 11
401.4999999999981
 21
-553.0780950735517
 31
0.0
  0
LINE
  5
18AF
330
1F
100
AcDbEntity
  8
SIZE
100
AcDbLine
 10
416.4999999999982
 20
-549.0588572235521
 30
0.0
 11
401.4999999999981
 21
-549.0588572235521
 31
0.0
  0
LINE
  5
18B0
330
1F
100
AcDbEntity
  8
SIZE
100
AcDbLine
 10
14.99999999999636
 20
-553.07809507355
 30
0.0
 11
-0.000000000003638
 21
-549.0588572235504
 31
0.0
  0
LINE
  5
18B1
330
1F
100
AcDbEntity
  8
SIZE
100
AcDbLine
 10
-0.000000000003638
 20
-549.0588572235504
 30
0.0
 11
14.99999999999636
 21
-545.0396193735507
 31
0.0
  0
LINE
  5
18B2
330
1F
100
AcDbEntity
  8
SIZE
100
AcDbLine
 10
-0.000000000003638
 20
-549.0588572235504
 30
0.0
 11
14.99999999999636
 21
-549.0588572235504
 31
0.0
  0
TEXT
  5
18B3
330
1F
100
AcDbEntity
  8
SIZE
100
AcDbText
 10
647.6600000000034
 20
-201.5000000000013
 30
0.0
 40
40.0
  1
323
 50
90.0
  7
KAIGAI
100
AcDbText
  0
LINE
  5
18B4
330
1F
100
AcDbEntity
  8
SIZE
100
AcDbLine
 10
656.6792378499976
 20
-308.0000000000002
 30
0.0
 11
652.659999999998
 21
-323.0000000000002
 31
0.0
  0
LINE
  5
18B5
330
1F
100
AcDbEntity
  8
SIZE
100
AcDbLine
 10
652.659999999998
 20
-323.0000000000002
 30
0.0
 11
648.6407621499984
 21
-308.0000000000002
 31
0.0
  0
LINE
  5
18B6
330
1F
100
AcDbEntity
  8
SIZE
100
AcDbLine
 10
652.659999999998
 20
-323.0000000000002
 30
0.0
 11
652.659999999998
 21
-308.0000000000002
 31
0.0
  0
LINE
  5
18B7
330
1F
100
AcDbEntity
  8
SIZE
100
AcDbLine
 10
648.6407621500021
 20
-15.00000000000216
 30
0.0
 11
652.6600000000017
 21
-0.00000000000216
 31
0.0
  0
LINE
  5
18B8
330
1F
100
AcDbEntity
  8
SIZE
100
AcDbLine
 10
652.6600000000017
 20
-0.00000000000216
 30
0.0
 11
656.6792378500013
 21
-15.00000000000216
 31
0.0
  0
LINE
  5
18B9
330
1F
100
AcDbEntity
  8
SIZE
100
AcDbLine
 10
652.6600000000017
 20
-0.00000000000216
 30
0.0
 11
652.6600000000017
 21
-15.00000000000216
 31
0.0
  0
TEXT
  5
18BA
330
1F
100
AcDbEntity
  8
SIZE
100
AcDbText
 10
166.5000000000036
 20
557.2662820657119
 30
0.0
 40
40.0
  1
408
  7
KAIGAI
100
AcDbText
  0
LINE
  5
18BB
330
1F
100
AcDbEntity
  8
SIZE
100
AcDbLine
 10
393.0000000000018
 20
556.2855199157109
 30
0.0
 11
408.0000000000017
 21
552.2662820657112
 31
0.0
  0
LINE
  5
18BC
330
1F
100
AcDbEntity
  8
SIZE
100
AcDbLine
 10
408.0000000000017
 20
552.2662820657112
 30
0.0
 11
393.0000000000018
 21
548.2470442157098
 31
0.0
  0
LINE
  5
18BD
330
1F
100
AcDbEntity
  8
SIZE
100
AcDbLine
 10
408.0000000000017
 20
552.2662820657112
 30
0.0
 11
393.0000000000018
 21
552.2662820657112
 31
0.0
  0
LINE
  5
18BE
330
1F
100
AcDbEntity
  8
SIZE
100
AcDbLine
 10
15.00000000000182
 20
548.2470442157098
 30
0.0
 11
0.000000000001819
 21
552.2662820657112
 31
0.0
  0
LINE
  5
18BF
330
1F
100
AcDbEntity
  8
SIZE
100
AcDbLine
 10
0.000000000001819
 20
552.2662820657112
 30
0.0
 11
15.00000000000182
 21
556.2855199157109
 31
0.0
  0
LINE
  5
18C0
330
1F
100
AcDbEntity
  8
SIZE
100
AcDbLine
 10
0.000000000001819
 20
552.2662820657112
 30
0.0
 11
15.00000000000182
 21
552.2662820657112
 31
0.0
  0
TEXT
  5
18C1
330
1F
100
AcDbEntity
  8
NOTE
100
AcDbText
 10
809.4720627365932
 20
-316.059460372067
 30
0.0
 40
45.0
  1
Panel external dimension
 50
90.0
 41
1.04
  7
KAIGAI
100
AcDbText
  0
TEXT
  5
18C2
330
1F
100
AcDbEntity
  8
NOTE
100
AcDbText
 10
721.2776395974397
 20
-200.5069910210619
 30
0.0
 40
40.0
  1
Hanging bolt pitch
 50
90.0
 41
1.04
  7
KAIGAI
100
AcDbText
  0
TEXT
  5
18C3
330
1F
100
AcDbEntity
  8
NOTE
100
AcDbText
 10
-265.0544715949763
 20
-647.1102217521397
 30
0.0
 40
40.0
  1
Panel external dimension
 41
1.04
  7
KAIGAI
100
AcDbText
  0
TEXT
  5
18C4
330
1F
100
AcDbEntity
  8
NOTE
100
AcDbText
 10
-101.6779911585581
 20
-593.911287924167
 30
0.0
 40
40.0
  1
Hanging bolt pitch
 41
1.04
  7
KAIGAI
100
AcDbText
  0
LINE
  5
18C5
330
1F
100
AcDbEntity
  8
SERVICESPACE
100
AcDbLine
 10
1124.999999999998
 20
224.9999999999943
 30
0.0
 11
674.9999999999982
 21
-225.0000000000038
 31
0.0
  0
LINE
  5
18C6
330
1F
100
AcDbEntity
  8
SERVICESPACE
100
AcDbLine
 10
674.9999999999982
 20
224.9999999999961
 30
0.0
 11
1124.999999999998
 21
-225.0000000000059
 31
0.0
  0
POLYLINE
  5
18C7
330
1F
100
AcDbEntity
  8
SERVICESPACE
100
AcDb2dPolyline
 66
     1
 10
0.0
 20
0.0
 30
0.0
 70
     1
  0
VERTEX
  5
1A9E
330
18C7
100
AcDbEntity
  8
SERVICESPACE
100
AcDbVertex
100
AcDb2dVertex
 10
674.9999999999982
 20
224.9999999999961
 30
0.0
  0
VERTEX
  5
1A9F
330
18C7
100
AcDbEntity
  8
SERVICESPACE
100
AcDbVertex
100
AcDb2dVertex
 10
1124.999999999998
 20
224.9999999999943
 30
0.0
  0
VERTEX
  5
1AA0
330
18C7
100
AcDbEntity
  8
SERVICESPACE
100
AcDbVertex
100
AcDb2dVertex
 10
1124.999999999998
 20
-225.0000000000059
 30
0.0
  0
VERTEX
  5
1AA1
330
18C7
100
AcDbEntity
  8
SERVICESPACE
100
AcDbVertex
100
AcDb2dVertex
 10
674.9999999999982
 20
-225.0000000000038
 30
0.0
  0
SEQEND
  5
1AA2
330
18C7
100
AcDbEntity
  8
SERVICESPACE
  0
LINE
  5
18C8
330
1F
100
AcDbEntity
  8
SERVICESPACE
100
AcDbLine
 10
-224.9999999999981
 20
1124.999999999999
 30
0.0
 11
225.0000000000018
 21
674.9999999999979
 31
0.0
  0
LINE
  5
18C9
330
1F
100
AcDbEntity
  8
SERVICESPACE
100
AcDbLine
 10
-224.9999999999981
 20
674.9999999999998
 30
0.0
 11
225.0000000000018
 21
1124.999999999999
 31
0.0
  0
POLYLINE
  5
18CA
330
1F
100
AcDbEntity
  8
SERVICESPACE
100
AcDb2dPolyline
 66
     1
 10
0.0
 20
0.0
 30
0.0
 70
     1
  0
VERTEX
  5
1AA3
330
18CA
100
AcDbEntity
  8
SERVICESPACE
100
AcDbVertex
100
AcDb2dVertex
 10
-224.9999999999981
 20
674.9999999999998
 30
0.0
  0
VERTEX
  5
1AA4
330
18CA
100
AcDbEntity
  8
SERVICESPACE
100
AcDbVertex
100
AcDb2dVertex
 10
-224.9999999999981
 20
1124.999999999999
 30
0.0
  0
VERTEX
  5
1AA5
330
18CA
100
AcDbEntity
  8
SERVICESPACE
100
AcDbVertex
100
AcDb2dVertex
 10
225.0000000000018
 20
1124.999999999999
 30
0.0
  0
VERTEX
  5
1AA6
330
18CA
100
AcDbEntity
  8
SERVICESPACE
100
AcDbVertex
100
AcDb2dVertex
 10
225.0000000000018
 20
674.9999999999979
 30
0.0
  0
SEQEND
  5
1AA7
330
18CA
100
AcDbEntity
  8
SERVICESPACE
  0
TEXT
  5
18CB
330
1F
100
AcDbEntity
  8
NOTE
100
AcDbText
 10
261.1803644423362
 20
1169.023334422118
 30
0.0
 40
45.0
  1
Check port B
  7
KAIGAI
100
AcDbText
  0
LINE
  5
18CC
330
1F
100
AcDbEntity
  8
SIZE
100
AcDbLine
 10
475.0000000000018
 20
469.9999999999997
 30
0.0
 11
475.0000000000018
 21
558.8626441259746
 31
0.0
  0
LINE
  5
18CD
330
1F
100
AcDbEntity
  8
SIZE
100
AcDbLine
 10
675.0000000000018
 20
400.0000000000161
 30
0.0
 11
675.0000000000018
 21
558.8626441259746
 31
0.0
  0
LINE
  5
18CE
330
1F
100
AcDbEntity
  8
SIZE
100
AcDbLine
 10
495.0000000000017
 20
548.8626441259746
 30
0.0
 11
655.0000000000018
 21
548.8626441259746
 31
0.0
  0
MTEXT
  5
18CF
330
1F
100
AcDbEntity
  8
SIZE
100
AcDbMText
 10
575.0000000000018
 20
578.8626441259745
 30
0.0
 40
40.0
 41
0.0
 71
     5
 72
     1
  1
200
  7
KAIGAI
1001
ACAD
1000
MTEXTBEGIN
1070
    73
1070
     1
1070
    44
1040
1.0
1070
    74
1070
     0
1000
MTEXTEND
  0
LINE
  5
18D0
330
1F
100
AcDbEntity
  8
SIZE
100
AcDbLine
 10
655.0000000000018
 20
554.2216279259753
 30
0.0
 11
675.0000000000018
 21
548.8626441259746
 31
0.0
  0
LINE
  5
18D1
330
1F
100
AcDbEntity
  8
SIZE
100
AcDbLine
 10
675.0000000000018
 20
548.8626441259746
 30
0.0
 11
655.0000000000018
 21
543.5036603259739
 31
0.0
  0
LINE
  5
18D2
330
1F
100
AcDbEntity
  8
SIZE
100
AcDbLine
 10
675.0000000000018
 20
548.8626441259746
 30
0.0
 11
655.0000000000018
 21
548.8626441259746
 31
0.0
  0
LINE
  5
18D3
330
1F
100
AcDbEntity
  8
SIZE
100
AcDbLine
 10
495.0000000000017
 20
543.5036603259739
 30
0.0
 11
475.0000000000018
 21
548.8626441259746
 31
0.0
  0
LINE
  5
18D4
330
1F
100
AcDbEntity
  8
SIZE
100
AcDbLine
 10
475.0000000000018
 20
548.8626441259746
 30
0.0
 11
495.0000000000017
 21
554.2216279259753
 31
0.0
  0
LINE
  5
18D5
330
1F
100
AcDbEntity
  8
SIZE
100
AcDbLine
 10
475.0000000000018
 20
548.8626441259746
 30
0.0
 11
495.0000000000017
 21
548.8626441259746
 31
0.0
  0
TEXT
  5
18D6
330
1F
100
AcDbEntity
  8
NOTE
100
AcDbText
 10
261.1803644423362
 20
1111.582594681493
 30
0.0
 40
45.0
  1
(□450）
  7
KAIGAI
100
AcDbText
  0
TEXT
  5
18D7
330
1F
100
AcDbEntity
  8
NOTE
100
AcDbText
 10
1214.8228498739
 20
-106.4648831204064
 30
0.0
 40
45.0
  1
Check port A
 50
90.0
  7
KAIGAI
100
AcDbText
  0
TEXT
  5
18D8
330
1F
100
AcDbEntity
  8
NOTE
100
AcDbText
 10
1272.263589614525
 20
-106.4648831204064
 30
0.0
 40
45.0
  1
(□450）
 50
90.0
  7
KAIGAI
100
AcDbText
  0
LINE
  5
18D9
330
1F
100
AcDbEntity
  8
SIZE
100
AcDbLine
 10
9.999999999998181
 20
475.0000000000015
 30
0.0
 11
-587.2092378500001
 21
475.0000000000015
 31
0.0
  0
LINE
  5
18DA
330
1F
100
AcDbEntity
  8
SIZE
100
AcDbLine
 10
9.999999999998181
 20
675.0000000000015
 30
0.0
 11
-587.2092378500001
 21
675.0000000000015
 31
0.0
  0
LINE
  5
18DB
330
1F
100
AcDbEntity
  8
SIZE
100
AcDbLine
 10
-577.2092378500001
 20
495.0000000000016
 30
0.0
 11
-577.2092378500001
 21
655.0000000000015
 31
0.0
  0
TEXT
  5
18DC
330
1F
100
AcDbEntity
  8
SIZE
100
AcDbText
 10
-587.8913660901089
 20
528.9017735334259
 30
0.0
 40
40.0
  1
200
 50
90.0
  7
KAIGAI
100
AcDbText
  0
LINE
  5
18DD
330
1F
100
AcDbEntity
  8
SIZE
100
AcDbLine
 10
-582.5682216500008
 20
655.0000000000015
 30
0.0
 11
-577.2092378500001
 21
675.0000000000015
 31
0.0
  0
LINE
  5
18DE
330
1F
100
AcDbEntity
  8
SIZE
100
AcDbLine
 10
-577.2092378500001
 20
675.0000000000015
 30
0.0
 11
-571.8502540500012
 21
655.0000000000015
 31
0.0
  0
LINE
  5
18DF
330
1F
100
AcDbEntity
  8
SIZE
100
AcDbLine
 10
-577.2092378500001
 20
675.0000000000015
 30
0.0
 11
-577.2092378500001
 21
655.0000000000015
 31
0.0
  0
LINE
  5
18E0
330
1F
100
AcDbEntity
  8
SIZE
100
AcDbLine
 10
-571.8502540500012
 20
495.0000000000016
 30
0.0
 11
-577.2092378500001
 21
475.0000000000015
 31
0.0
  0
LINE
  5
18E1
330
1F
100
AcDbEntity
  8
SIZE
100
AcDbLine
 10
-577.2092378500001
 20
475.0000000000015
 30
0.0
 11
-582.5682216500008
 21
495.0000000000016
 31
0.0
  0
LINE
  5
18E2
330
1F
100
AcDbEntity
  8
SIZE
100
AcDbLine
 10
-577.2092378500001
 20
475.0000000000015
 30
0.0
 11
-577.2092378500001
 21
495.0000000000016
 31
0.0
  0
LINE
  5
18E3
330
1F
100
AcDbEntity
  8
DETAIL
  6
CONTINUOUS
100
AcDbLine
 10
-459.9999999999981
 20
475.0000000000034
 30
0.0
 11
460.0000000000018
 21
475.0000000000015
 31
0.0
  0
LINE
  5
18E4
330
1F
100
AcDbEntity
  8
DETAIL
  6
CONTINUOUS
100
AcDbLine
 10
459.9999999999981
 20
-475.000000000002
 30
0.0
 11
-460.0000000000036
 21
-474.9999999999966
 31
0.0
  0
LINE
  5
18E5
330
1F
100
AcDbEntity
  8
DETAIL
  6
CONTINUOUS
100
AcDbLine
 10
-475.0000000000036
 20
-459.9999999999965
 30
0.0
 11
-474.9999999999982
 21
460.0000000000034
 31
0.0
  0
ARC
  5
18E6
330
1F
100
AcDbEntity
  8
DETAIL
  6
CONTINUOUS
100
AcDbCircle
 10
-460.0
 20
-459.9999999999976
 30
0.0
 40
15.0
100
AcDbArc
 50
180.0
 51
270.0
  0
ARC
  5
18E7
330
1F
100
AcDbEntity
  8
DETAIL
  6
CONTINUOUS
100
AcDbCircle
 10
-459.9999999999945
 20
460.0000000000022
 30
0.0
 40
15.0
100
AcDbArc
 50
90.0
 51
180.0
  0
LINE
  5
18E8
330
1F
100
AcDbEntity
  8
DETAIL
  6
CONTINUOUS
100
AcDbLine
 10
475.0000000000018
 20
459.9999999999997
 30
0.0
 11
474.9999999999982
 21
-460.000000000002
 31
0.0
  0
ARC
  5
18E9
330
1F
100
AcDbEntity
  8
DETAIL
  6
CONTINUOUS
100
AcDbCircle
 10
460.0
 20
-460.0000000000014
 30
0.0
 40
15.0
100
AcDbArc
 50
270.0
 51
0.0
  0
POLYLINE
  5
18EA
330
1F
100
AcDbEntity
  8
DETAIL
  6
CONTINUOUS
100
AcDb2dPolyline
 66
     1
 10
0.0
 20
0.0
 30
0.0
  0
VERTEX
  5
1AA8
330
18EA
100
AcDbEntity
  8
DETAIL
  6
CONTINUOUS
100
AcDbVertex
100
AcDb2dVertex
 10
388.0000000000018
 20
302.5000000000015
 30
0.0
  0
VERTEX
  5
1AA9
330
18EA
100
AcDbEntity
  8
DETAIL
  6
CONTINUOUS
100
AcDbVertex
100
AcDb2dVertex
 10
388.0000000000018
 20
324.5000000000016
 30
0.0
  0
VERTEX
  5
1AAA
330
18EA
100
AcDbEntity
  8
DETAIL
  6
CONTINUOUS
100
AcDbVertex
100
AcDb2dVertex
 10
408.0000000000017
 20
324.5000000000016
 30
0.0
  0
VERTEX
  5
1AAB
330
18EA
100
AcDbEntity
  8
DETAIL
  6
CONTINUOUS
100
AcDbVertex
100
AcDb2dVertex
 10
408.0000000000017
 20
302.5000000000015
 30
0.0
  0
VERTEX
  5
1AAC
330
18EA
100
AcDbEntity
  8
DETAIL
  6
CONTINUOUS
100
AcDbVertex
100
AcDb2dVertex
 10
388.0000000000018
 20
302.5000000000015
 30
0.0
  0
SEQEND
  5
1AAD
330
18EA
100
AcDbEntity
  8
DETAIL
  6
CONTINUOUS
  0
LINE
  5
18EB
330
1F
100
AcDbEntity
  8
DETAIL
  6
CONTINUOUS
100
AcDbLine
 10
388.0000000000018
 20
237.4999999999997
 30
0.0
 11
393.0000000000018
 21
237.4999999999997
 31
0.0
  0
LINE
  5
18EC
330
1F
100
AcDbEntity
  8
DETAIL
  6
CONTINUOUS
100
AcDbLine
 10
393.0000000000018
 20
245.4999999999997
 30
0.0
 11
388.0000000000018
 21
245.4999999999997
 31
0.0
  0
LINE
  5
18ED
330
1F
100
AcDbEntity
  8
DETAIL
  6
CONTINUOUS
100
AcDbLine
 10
345.0000000000018
 20
319.8499999999983
 30
0.0
 11
381.0000000000018
 21
319.8499999999983
 31
0.0
  0
LINE
  5
18EE
330
1F
100
AcDbEntity
  8
DETAIL
  6
CONTINUOUS
100
AcDbLine
 10
345.0000000000018
 20
307.1499999999975
 30
0.0
 11
381.0000000000018
 21
307.1499999999975
 31
0.0
  0
LINE
  5
18EF
330
1F
100
AcDbEntity
  8
DETAIL
  6
CONTINUOUS
100
AcDbLine
 10
381.0000000000018
 20
321.5000000000015
 30
0.0
 11
381.0000000000018
 21
305.5000000000016
 31
0.0
  0
LINE
  5
18F0
330
1F
100
AcDbEntity
  8
DETAIL
  6
CONTINUOUS
100
AcDbLine
 10
388.0000000000054
 20
245.4999999999997
 30
0.0
 11
388.0000000000018
 21
237.4999999999997
 31
0.0
  0
LINE
  5
18F1
330
1F
100
AcDbEntity
  8
DETAIL
  6
CONTINUOUS
100
AcDbLine
 10
381.0000000000018
 20
305.5000000000016
 30
0.0
 11
388.0000000000018
 21
305.5000000000016
 31
0.0
  0
LINE
  5
18F2
330
1F
100
AcDbEntity
  8
DETAIL
  6
CONTINUOUS
100
AcDbLine
 10
388.0000000000018
 20
321.5000000000015
 30
0.0
 11
381.0000000000018
 21
321.5000000000015
 31
0.0
  0
LINE
  5
18F3
330
1F
100
AcDbEntity
  8
DETAIL
  6
CONTINUOUS
100
AcDbLine
 10
345.0
 20
238.3000000000008
 30
0.0
 11
388.0000000000018
 21
238.299999999999
 31
0.0
  0
LINE
  5
18F4
330
1F
100
AcDbEntity
  8
DETAIL
  6
CONTINUOUS
100
AcDbLine
 10
345.0
 20
244.6984652749486
 30
0.0
 11
388.0000000000018
 21
244.6984652749467
 31
0.0
  0
POLYLINE
  5
18F5
330
1F
100
AcDbEntity
  8
DETAIL
  6
CONTINUOUS
100
AcDb2dPolyline
 66
     1
 10
0.0
 20
0.0
 30
0.0
  0
VERTEX
  5
1AAE
330
18F5
100
AcDbEntity
  8
DETAIL
  6
CONTINUOUS
100
AcDbVertex
100
AcDb2dVertex
 10
393.0000000000018
 20
248.4999999999997
 30
0.0
  0
VERTEX
  5
1AAF
330
18F5
100
AcDbEntity
  8
DETAIL
  6
CONTINUOUS
100
AcDbVertex
100
AcDb2dVertex
 10
393.0000000000018
 20
234.4999999999997
 30
0.0
  0
VERTEX
  5
1AB0
330
18F5
100
AcDbEntity
  8
DETAIL
  6
CONTINUOUS
100
AcDbVertex
100
AcDb2dVertex
 10
408.0000000000017
 20
234.4999999999997
 30
0.0
  0
VERTEX
  5
1AB1
330
18F5
100
AcDbEntity
  8
DETAIL
  6
CONTINUOUS
100
AcDbVertex
100
AcDb2dVertex
 10
408.0000000000017
 20
248.4999999999997
 30
0.0
  0
VERTEX
  5
1AB2
330
18F5
100
AcDbEntity
  8
DETAIL
  6
CONTINUOUS
100
AcDbVertex
100
AcDb2dVertex
 10
393.0000000000018
 20
248.4999999999997
 30
0.0
  0
SEQEND
  5
1AB3
330
18F5
100
AcDbEntity
  8
DETAIL
  6
CONTINUOUS
  0
ARC
  5
18F6
330
1F
100
AcDbEntity
  8
DETAIL
  6
CONTINUOUS
100
AcDbCircle
 10
460.0000000000018
 20
459.9999999999986
 30
0.0
 40
15.0
100
AcDbArc
 50
0.0
 51
90.0
  0
LINE
  5
18F7
330
1F
100
AcDbEntity
  8
DETAIL
  6
CONTINUOUS
100
AcDbLine
 10
-269.2369071229113
 20
-419.9999999999984
 30
0.0
 11
269.2369071229058
 21
-420.0000000000001
 31
0.0
  0
LINE
  5
18F8
330
1F
100
AcDbEntity
  8
DETAIL
  6
CONTINUOUS
100
AcDbLine
 10
419.9999999999981
 20
-269.0000000000002
 30
0.0
 11
420.0000000000017
 21
193.7499999999997
 31
0.0
  0
LINE
  5
18F9
330
1F
100
AcDbEntity
  8
DETAIL
100
AcDbLine
 10
-420.0000000000017
 20
0.0000000000034106
 30
0.0
 11
-420.0000000000036
 21
-268.9999999999965
 31
0.0
  0
LINE
  5
18FA
330
1F
100
AcDbEntity
  8
DETAIL
100
AcDbLine
 10
-420.0000000000036
 20
-268.9999999999965
 30
0.0
 11
-269.2369071229113
 21
-419.9999999999984
 31
0.0
  0
LINE
  5
18FB
330
1F
100
AcDbEntity
  8
DETAIL
 62
     5
 48
0.5
100
AcDbLine
 10
-338.5294407703986
 20
-350.4705501386927
 30
0.0
 11
-372.0355339060042
 21
-383.9766432742965
 31
0.0
  0
LINE
  5
18FC
330
1F
100
AcDbEntity
  8
DETAIL
 62
     5
 48
0.5
100
AcDbLine
 10
-373.5000000000018
 20
-387.512177179897
 30
0.0
 11
-373.5000000000018
 21
-397.0807196750959
 31
0.0
  0
LINE
  5
18FD
330
1F
100
AcDbEntity
  8
DETAIL
 62
     5
 48
0.5
100
AcDbLine
 10
-372.0355339060042
 20
-400.6162535810965
 30
0.0
 11
-365.5832611208024
 21
-407.0685263662965
 31
0.0
  0
ARC
  5
18FE
330
1F
100
AcDbEntity
  8
DETAIL
 62
     5
 48
0.5
100
AcDbCircle
 10
-368.5
 20
-397.0807196750969
 30
0.0
 40
5.00000000000036
100
AcDbArc
 50
180.0
 51
225.0
  0
LINE
  5
18FF
330
1F
100
AcDbEntity
  8
DETAIL
 62
     5
 48
0.5
100
AcDbLine
 10
-365.5832611208024
 20
-407.0685263662965
 30
0.0
 11
-365.5832611208024
 21
-409.0685263662964
 31
0.0
  0
LINE
  5
1900
330
1F
100
AcDbEntity
  8
DETAIL
 62
     5
 48
0.5
100
AcDbLine
 10
-355.0000000000036
 20
-409.0685263662964
 30
0.0
 11
-365.5832611208024
 21
-409.0685263662964
 31
0.0
  0
LINE
  5
1901
330
1F
100
AcDbEntity
  8
DETAIL
 62
     5
 48
0.5
100
AcDbLine
 10
-355.0000000000036
 20
-409.0685263662964
 30
0.0
 11
-355.0000000000036
 21
-407.0685263662965
 31
0.0
  0
LINE
  5
1902
330
1F
100
AcDbEntity
  8
DETAIL
 62
     5
 48
0.5
100
AcDbLine
 10
-355.0000000000036
 20
-407.0685263662965
 30
0.0
 11
-351.085786437603
 21
-403.1543128038959
 31
0.0
  0
ARC
  5
1903
330
1F
100
AcDbEntity
  8
DETAIL
 62
     5
 48
0.5
100
AcDbCircle
 10
-352.5000000000018
 20
-401.7400992414962
 30
0.0
 40
2.000000000000227
100
AcDbArc
 50
314.9999999999999
 51
0.0
  0
LINE
  5
1904
330
1F
100
AcDbEntity
  8
DETAIL
 62
     5
 48
0.5
100
AcDbLine
 10
-350.5000000000018
 20
-401.7400992414953
 30
0.0
 11
-350.499987602403
 21
-396.0685326262958
 31
0.0
  0
LINE
  5
1905
330
1F
100
AcDbEntity
  8
DETAIL
 62
     5
 48
0.5
100
AcDbLine
 10
-350.499987602403
 20
-396.0685326262958
 30
0.0
 11
-355.5000000000018
 21
-396.0685263662946
 31
0.0
  0
ARC
  5
1906
330
1F
100
AcDbEntity
  8
DETAIL
 62
     5
 48
0.5
100
AcDbCircle
 10
-355.5
 20
-390.0685263662957
 30
0.0
 40
6.000000000000227
100
AcDbArc
 50
90.0
 51
270.0
  0
LINE
  5
1907
330
1F
100
AcDbEntity
  8
DETAIL
 62
     5
 48
0.5
100
AcDbLine
 10
-355.5000000000018
 20
-384.0685263662965
 30
0.0
 11
-343.6633168356038
 21
-384.0685263662965
 31
0.0
  0
ARC
  5
1908
330
1F
100
AcDbEntity
  8
DETAIL
 62
     5
 48
0.5
100
AcDbCircle
 10
-343.663316835602
 20
-382.0685263662957
 30
0.0
 40
2.0
100
AcDbArc
 50
270.0
 51
353.1976816906721
  0
ARC
  5
1909
330
1F
100
AcDbEntity
  8
DETAIL
 62
     5
 48
0.5
100
AcDbCircle
 10
-335.7196311044008
 20
-383.0160795318964
 30
0.0
 40
6.00000000000004
100
AcDbArc
 50
9.811533237392886
 51
173.1976816906721
  0
LINE
  5
190A
330
1F
100
AcDbEntity
  8
DETAIL
 62
     5
 48
0.5
100
AcDbLine
 10
-329.8073894052031
 20
-381.9936324234952
 30
0.0
 11
-328.5877583008023
 21
-389.0460792578963
 31
0.0
  0
ARC
  5
190B
330
1F
100
AcDbEntity
  8
DETAIL
 62
     5
 48
0.5
100
AcDbCircle
 10
-334.5000000000018
 20
-390.0685263662957
 30
0.0
 40
6.000000000000036
100
AcDbArc
 50
270.0
 51
9.811533237392886
  0
LINE
  5
190C
330
1F
100
AcDbEntity
  8
DETAIL
 62
     5
 48
0.5
100
AcDbLine
 10
-334.5000000000036
 20
-396.0685263662946
 30
0.0
 11
-339.5000100136021
 21
-396.0685326262958
 31
0.0
  0
LINE
  5
190D
330
1F
100
AcDbEntity
  8
DETAIL
 62
     5
 48
0.5
100
AcDbLine
 10
-339.5000100136021
 20
-396.0685326262958
 30
0.0
 11
-339.5000000000036
 21
-401.7400992414953
 31
0.0
  0
ARC
  5
190E
330
1F
100
AcDbEntity
  8
DETAIL
 62
     5
 48
0.5
100
AcDbCircle
 10
-337.5000000000018
 20
-401.7400992414962
 30
0.0
 40
2.000000000000015
100
AcDbArc
 50
180.0
 51
225.0
  0
LINE
  5
190F
330
1F
100
AcDbEntity
  8
DETAIL
 62
     5
 48
0.5
100
AcDbLine
 10
-338.9142135624024
 20
-403.1543128038959
 30
0.0
 11
-335.0000000000036
 21
-407.0685263662965
 31
0.0
  0
LINE
  5
1910
330
1F
100
AcDbEntity
  8
DETAIL
 62
     5
 48
0.5
100
AcDbLine
 10
-335.0000000000036
 20
-407.0685263662965
 30
0.0
 11
-335.0000000000036
 21
-409.0685263662964
 31
0.0
  0
LINE
  5
1911
330
1F
100
AcDbEntity
  8
DETAIL
 62
     5
 48
0.5
100
AcDbLine
 10
-324.4167388792029
 20
-409.0685263662964
 30
0.0
 11
-335.0000000000036
 21
-409.0685263662964
 31
0.0
  0
LINE
  5
1912
330
1F
100
AcDbEntity
  8
DETAIL
 62
     5
 48
0.5
100
AcDbLine
 10
-324.4167388792029
 20
-409.0685263662964
 30
0.0
 11
-324.4167388792029
 21
-407.0685263662965
 31
0.0
  0
LINE
  5
1913
330
1F
100
AcDbEntity
  8
DETAIL
 62
     5
 48
0.5
100
AcDbLine
 10
-324.4167388792029
 20
-407.0685263662965
 30
0.0
 11
-303.1740997388205
 21
-385.825887225141
 31
0.0
  0
ARC
  5
1914
330
1F
100
AcDbEntity
  8
DETAIL
 62
     5
 48
0.5
100
AcDbCircle
 10
-368.5000000000691
 20
-387.512177180229
 30
0.0
 40
5.000000000000229
100
AcDbArc
 50
134.9999999999999
 51
180.0
  0
LINE
  5
1915
330
1F
100
AcDbEntity
  8
DETAIL
 62
     5
 48
0.5
100
AcDbLine
 10
338.5294407703968
 20
-350.4705501387145
 30
0.0
 11
372.0355339059988
 21
-383.9766432743183
 31
0.0
  0
LINE
  5
1916
330
1F
100
AcDbEntity
  8
DETAIL
 62
     5
 48
0.5
100
AcDbLine
 10
373.4999999999981
 20
-387.5121771799188
 30
0.0
 11
373.4999999999981
 21
-397.0807196751195
 31
0.0
  0
LINE
  5
1917
330
1F
100
AcDbEntity
  8
DETAIL
 62
     5
 48
0.5
100
AcDbLine
 10
372.0355339059988
 20
-400.6162535811183
 30
0.0
 11
365.583261120797
 21
-407.0685263663183
 31
0.0
  0
ARC
  5
1918
330
1F
100
AcDbEntity
  8
DETAIL
 62
     5
 48
0.5
100
AcDbCircle
 10
368.5
 20
-397.0807196751188
 30
0.0
 40
5.00000000000036
100
AcDbArc
 50
314.9999999999999
 51
0.0
  0
LINE
  5
1919
330
1F
100
AcDbEntity
  8
DETAIL
 62
     5
 48
0.5
100
AcDbLine
 10
365.583261120797
 20
-407.0685263663183
 30
0.0
 11
365.583261120797
 21
-409.0685263663183
 31
0.0
  0
LINE
  5
191A
330
1F
100
AcDbEntity
  8
DETAIL
 62
     5
 48
0.5
100
AcDbLine
 10
354.9999999999982
 20
-409.0685263663183
 30
0.0
 11
365.583261120797
 21
-409.0685263663183
 31
0.0
  0
LINE
  5
191B
330
1F
100
AcDbEntity
  8
DETAIL
 62
     5
 48
0.5
100
AcDbLine
 10
354.9999999999982
 20
-409.0685263663183
 30
0.0
 11
354.9999999999982
 21
-407.0685263663183
 31
0.0
  0
LINE
  5
191C
330
1F
100
AcDbEntity
  8
DETAIL
 62
     5
 48
0.5
100
AcDbLine
 10
354.9999999999982
 20
-407.0685263663183
 30
0.0
 11
351.0857864375994
 21
-403.1543128039177
 31
0.0
  0
ARC
  5
191D
330
1F
100
AcDbEntity
  8
DETAIL
 62
     5
 48
0.5
100
AcDbCircle
 10
352.4999999999999
 20
-401.7400992415164
 30
0.0
 40
2.000000000000227
100
AcDbArc
 50
180.0
 51
225.0
  0
LINE
  5
191E
330
1F
100
AcDbEntity
  8
DETAIL
 62
     5
 48
0.5
100
AcDbLine
 10
350.4999999999981
 20
-401.740099241517
 30
0.0
 11
350.4999876023994
 21
-396.0685326263176
 31
0.0
  0
LINE
  5
191F
330
1F
100
AcDbEntity
  8
DETAIL
 62
     5
 48
0.5
100
AcDbLine
 10
350.4999876023994
 20
-396.0685326263176
 30
0.0
 11
355.4999999999981
 21
-396.0685263663165
 31
0.0
  0
ARC
  5
1920
330
1F
100
AcDbEntity
  8
DETAIL
 62
     5
 48
0.5
100
AcDbCircle
 10
355.5000000000036
 20
-390.0685263663176
 30
0.0
 40
6.000000000000227
100
AcDbArc
 50
270.0
 51
90.0
  0
LINE
  5
1921
330
1F
100
AcDbEntity
  8
DETAIL
 62
     5
 48
0.5
100
AcDbLine
 10
355.4999999999981
 20
-384.0685263663183
 30
0.0
 11
343.6633168356002
 21
-384.0685263663165
 31
0.0
  0
ARC
  5
1922
330
1F
100
AcDbEntity
  8
DETAIL
 62
     5
 48
0.5
100
AcDbCircle
 10
343.663316835602
 20
-382.0685263663176
 30
0.0
 40
2.0
100
AcDbArc
 50
186.8023183093279
 51
270.0
  0
ARC
  5
1923
330
1F
100
AcDbEntity
  8
DETAIL
 62
     5
 48
0.5
100
AcDbCircle
 10
335.7196311044026
 20
-383.0160795319166
 30
0.0
 40
6.00000000000004
100
AcDbArc
 50
6.802318309327892
 51
170.1884667626071
  0
LINE
  5
1924
330
1F
100
AcDbEntity
  8
DETAIL
 62
     5
 48
0.5
100
AcDbLine
 10
329.8073894052013
 20
-381.9936324235152
 30
0.0
 11
328.5877583007986
 21
-389.0460792579162
 31
0.0
  0
ARC
  5
1925
330
1F
100
AcDbEntity
  8
DETAIL
 62
     5
 48
0.5
100
AcDbCircle
 10
334.5000000000036
 20
-390.0685263663158
 30
0.0
 40
6.000000000000036
100
AcDbArc
 50
170.1884667626071
 51
270.0
  0
LINE
  5
1926
330
1F
100
AcDbEntity
  8
DETAIL
 62
     5
 48
0.5
100
AcDbLine
 10
334.4999999999981
 20
-396.0685263663165
 30
0.0
 11
339.5000100136003
 21
-396.0685326263176
 31
0.0
  0
LINE
  5
1927
330
1F
100
AcDbEntity
  8
DETAIL
 62
     5
 48
0.5
100
AcDbLine
 10
339.5000100136003
 20
-396.0685326263176
 30
0.0
 11
339.4999999999981
 21
-401.740099241517
 31
0.0
  0
ARC
  5
1928
330
1F
100
AcDbEntity
  8
DETAIL
 62
     5
 48
0.5
100
AcDbCircle
 10
337.5
 20
-401.7400992415164
 30
0.0
 40
2.000000000000015
100
AcDbArc
 50
314.9999999999999
 51
0.0
  0
LINE
  5
1929
330
1F
100
AcDbEntity
  8
DETAIL
 62
     5
 48
0.5
100
AcDbLine
 10
338.9142135623969
 20
-403.1543128039158
 30
0.0
 11
334.9999999999981
 21
-407.0685263663165
 31
0.0
  0
LINE
  5
192A
330
1F
100
AcDbEntity
  8
DETAIL
 62
     5
 48
0.5
100
AcDbLine
 10
334.9999999999981
 20
-407.0685263663165
 30
0.0
 11
334.9999999999981
 21
-409.0685263663165
 31
0.0
  0
LINE
  5
192B
330
1F
100
AcDbEntity
  8
DETAIL
 62
     5
 48
0.5
100
AcDbLine
 10
324.4167388791993
 20
-409.0685263663165
 30
0.0
 11
334.9999999999981
 21
-409.0685263663165
 31
0.0
  0
LINE
  5
192C
330
1F
100
AcDbEntity
  8
DETAIL
 62
     5
 48
0.5
100
AcDbLine
 10
324.4167388791993
 20
-409.0685263663165
 30
0.0
 11
324.4167388791993
 21
-407.0685263663165
 31
0.0
  0
LINE
  5
192D
330
1F
100
AcDbEntity
  8
DETAIL
 62
     5
 48
0.5
100
AcDbLine
 10
324.4167388791993
 20
-407.0685263663165
 30
0.0
 11
303.1740997388169
 21
-385.825887225161
 31
0.0
  0
ARC
  5
192E
330
1F
100
AcDbEntity
  8
DETAIL
 62
     5
 48
0.5
100
AcDbCircle
 10
368.5000000000691
 20
-387.5121771802509
 30
0.0
 40
5.000000000000229
100
AcDbArc
 50
0.0
 51
44.99999999999992
  0
LINE
  5
192F
330
1F
100
AcDbEntity
  8
DETAIL
100
AcDbLine
 10
419.9999999999981
 20
-269.0000000000002
 30
0.0
 11
269.2369071229058
 21
-420.0000000000001
 31
0.0
  0
LINE
  5
1930
330
1F
100
AcDbEntity
  8
DETAIL
  6
CONTINUOUS
100
AcDbLine
 10
-269.2369071229095
 20
420.0000000000033
 30
0.0
 11
269.2369071229131
 21
419.9999999999997
 31
0.0
  0
LINE
  5
1931
330
1F
100
AcDbEntity
  8
DETAIL
100
AcDbLine
 10
-420.0000000000017
 20
0.0000000000034106
 30
0.0
 11
-420.0000000000017
 21
269.0000000000034
 31
0.0
  0
LINE
  5
1932
330
1F
100
AcDbEntity
  8
DETAIL
100
AcDbLine
 10
-420.0000000000017
 20
269.0000000000034
 30
0.0
 11
-269.2369071229095
 21
420.0000000000033
 31
0.0
  0
LINE
  5
1933
330
1F
100
AcDbEntity
  8
DETAIL
 62
     5
 48
0.5
100
AcDbLine
 10
-338.5294407703968
 20
350.4705501386995
 30
0.0
 11
-372.0355339060024
 21
383.9766432743015
 31
0.0
  0
LINE
  5
1934
330
1F
100
AcDbEntity
  8
DETAIL
 62
     5
 48
0.5
100
AcDbLine
 10
-373.4999999999981
 20
387.5121771799019
 30
0.0
 11
-373.4999999999981
 21
397.0807196751027
 31
0.0
  0
LINE
  5
1935
330
1F
100
AcDbEntity
  8
DETAIL
 62
     5
 48
0.5
100
AcDbLine
 10
-372.0355339060024
 20
400.6162535811015
 30
0.0
 11
-365.5832611208006
 21
407.0685263663015
 31
0.0
  0
ARC
  5
1936
330
1F
100
AcDbEntity
  8
DETAIL
 62
     5
 48
0.5
100
AcDbCircle
 10
-368.4999999999963
 20
397.0807196751016
 30
0.0
 40
5.00000000000036
100
AcDbArc
 50
134.9999999999999
 51
180.0
  0
LINE
  5
1937
330
1F
100
AcDbEntity
  8
DETAIL
 62
     5
 48
0.5
100
AcDbLine
 10
-365.5832611208006
 20
407.0685263663015
 30
0.0
 11
-365.5832611208006
 21
409.0685263663015
 31
0.0
  0
LINE
  5
1938
330
1F
100
AcDbEntity
  8
DETAIL
 62
     5
 48
0.5
100
AcDbLine
 10
-355.0000000000018
 20
409.0685263663015
 30
0.0
 11
-365.5832611208006
 21
409.0685263663015
 31
0.0
  0
LINE
  5
1939
330
1F
100
AcDbEntity
  8
DETAIL
 62
     5
 48
0.5
100
AcDbLine
 10
-355.0000000000018
 20
409.0685263663015
 30
0.0
 11
-355.0000000000018
 21
407.0685263663015
 31
0.0
  0
LINE
  5
193A
330
1F
100
AcDbEntity
  8
DETAIL
 62
     5
 48
0.5
100
AcDbLine
 10
-355.0000000000018
 20
407.0685263663015
 30
0.0
 11
-351.0857864375994
 21
403.1543128039008
 31
0.0
  0
ARC
  5
193B
330
1F
100
AcDbEntity
  8
DETAIL
 62
     5
 48
0.5
100
AcDbCircle
 10
-352.4999999999981
 20
401.740099241501
 30
0.0
 40
2.000000000000227
100
AcDbArc
 50
0.0
 51
44.99999999999992
  0
LINE
  5
193C
330
1F
100
AcDbEntity
  8
DETAIL
 62
     5
 48
0.5
100
AcDbLine
 10
-350.4999999999981
 20
401.740099241502
 30
0.0
 11
-350.4999876023994
 21
396.0685326263026
 31
0.0
  0
LINE
  5
193D
330
1F
100
AcDbEntity
  8
DETAIL
 62
     5
 48
0.5
100
AcDbLine
 10
-350.4999876023994
 20
396.0685326263026
 30
0.0
 11
-355.4999999999981
 21
396.0685263663015
 31
0.0
  0
ARC
  5
193E
330
1F
100
AcDbEntity
  8
DETAIL
 62
     5
 48
0.5
100
AcDbCircle
 10
-355.4999999999981
 20
390.0685263663003
 30
0.0
 40
6.000000000000227
100
AcDbArc
 50
90.0
 51
270.0
  0
LINE
  5
193F
330
1F
100
AcDbEntity
  8
DETAIL
 62
     5
 48
0.5
100
AcDbLine
 10
-355.4999999999981
 20
384.0685263663015
 30
0.0
 11
-343.6633168356002
 21
384.0685263663015
 31
0.0
  0
ARC
  5
1940
330
1F
100
AcDbEntity
  8
DETAIL
 62
     5
 48
0.5
100
AcDbCircle
 10
-343.6633168355983
 20
382.0685263663003
 30
0.0
 40
2.0
100
AcDbArc
 50
6.802318309327892
 51
90.0
  0
ARC
  5
1941
330
1F
100
AcDbEntity
  8
DETAIL
 62
     5
 48
0.5
100
AcDbCircle
 10
-335.719631104399
 20
383.0160795319011
 30
0.0
 40
6.00000000000004
100
AcDbArc
 50
186.8023183093279
 51
350.1884667626071
  0
LINE
  5
1942
330
1F
100
AcDbEntity
  8
DETAIL
 62
     5
 48
0.5
100
AcDbLine
 10
-329.8073894052013
 20
381.993632423502
 30
0.0
 11
-328.5877583007986
 21
389.0460792579013
 31
0.0
  0
ARC
  5
1943
330
1F
100
AcDbEntity
  8
DETAIL
 62
     5
 48
0.5
100
AcDbCircle
 10
-334.4999999999981
 20
390.0685263663003
 30
0.0
 40
6.000000000000036
100
AcDbArc
 50
350.1884667626071
 51
90.0
  0
LINE
  5
1944
330
1F
100
AcDbEntity
  8
DETAIL
 62
     5
 48
0.5
100
AcDbLine
 10
-334.5000000000018
 20
396.0685263663015
 30
0.0
 11
-339.5000100136003
 21
396.0685326263026
 31
0.0
  0
LINE
  5
1945
330
1F
100
AcDbEntity
  8
DETAIL
 62
     5
 48
0.5
100
AcDbLine
 10
-339.5000100136003
 20
396.0685326263026
 30
0.0
 11
-339.5000000000018
 21
401.740099241502
 31
0.0
  0
ARC
  5
1946
330
1F
100
AcDbEntity
  8
DETAIL
 62
     5
 48
0.5
100
AcDbCircle
 10
-337.4999999999981
 20
401.740099241501
 30
0.0
 40
2.000000000000015
100
AcDbArc
 50
134.9999999999999
 51
180.0
  0
LINE
  5
1947
330
1F
100
AcDbEntity
  8
DETAIL
 62
     5
 48
0.5
100
AcDbLine
 10
-338.9142135624006
 20
403.1543128039008
 30
0.0
 11
-335.0000000000018
 21
407.0685263663015
 31
0.0
  0
LINE
  5
1948
330
1F
100
AcDbEntity
  8
DETAIL
 62
     5
 48
0.5
100
AcDbLine
 10
-335.0000000000018
 20
407.0685263663015
 30
0.0
 11
-335.0000000000018
 21
409.0685263663015
 31
0.0
  0
LINE
  5
1949
330
1F
100
AcDbEntity
  8
DETAIL
 62
     5
 48
0.5
100
AcDbLine
 10
-324.4167388791993
 20
409.0685263663015
 30
0.0
 11
-335.0000000000018
 21
409.0685263663015
 31
0.0
  0
LINE
  5
194A
330
1F
100
AcDbEntity
  8
DETAIL
 62
     5
 48
0.5
100
AcDbLine
 10
-324.4167388791993
 20
409.0685263663015
 30
0.0
 11
-324.4167388791993
 21
407.0685263663015
 31
0.0
  0
LINE
  5
194B
330
1F
100
AcDbEntity
  8
DETAIL
 62
     5
 48
0.5
100
AcDbLine
 10
-324.4167388791993
 20
407.0685263663015
 30
0.0
 11
-303.1740997388169
 21
385.8258872251478
 31
0.0
  0
ARC
  5
194C
330
1F
100
AcDbEntity
  8
DETAIL
 62
     5
 48
0.5
100
AcDbCircle
 10
-368.5000000000655
 20
387.5121771802337
 30
0.0
 40
5.000000000000229
100
AcDbArc
 50
180.0
 51
225.0
  0
LINE
  5
194D
330
1F
100
AcDbEntity
  8
DETAIL
 48
0.5
100
AcDbLine
 10
385.4999999999981
 20
-346.0000000000002
 30
0.0
 11
385.4999999999981
 21
-303.5542128420459
 31
0.0
  0
LINE
  5
194E
330
1F
100
AcDbEntity
  8
DETAIL
 48
0.5
100
AcDbLine
 10
412.4999967123967
 20
-306.9999872296014
 30
0.0
 11
389.4999999999981
 21
-307.0000000000002
 31
0.0
  0
LINE
  5
194F
330
1F
100
AcDbEntity
  8
DETAIL
 48
0.5
100
AcDbLine
 10
388.9999999999981
 20
-339.5000000000002
 30
0.0
 11
388.9999999999981
 21
-306.5000000000002
 31
0.0
  0
LINE
  5
1950
330
1F
100
AcDbEntity
  8
DETAIL
 48
0.5
100
AcDbLine
 10
389.4999999999981
 20
-307.0000000000002
 30
0.0
 11
389.4999999999981
 21
-339.0000000000002
 31
0.0
  0
LINE
  5
1951
330
1F
100
AcDbEntity
  8
DETAIL
 48
0.5
100
AcDbLine
 10
412.4999999999982
 20
-306.5000000000002
 30
0.0
 11
412.4999999999982
 21
-339.5000000000002
 31
0.0
  0
LINE
  5
1952
330
1F
100
AcDbEntity
  8
DETAIL
 48
0.5
100
AcDbLine
 10
413.4999999999982
 20
-339.5000000000002
 30
0.0
 11
413.4999999999982
 21
-306.5000000000002
 31
0.0
  0
LINE
  5
1953
330
1F
100
AcDbEntity
  8
DETAIL
 48
0.5
100
AcDbLine
 10
416.4999999999982
 20
-308.0000000000002
 30
0.0
 11
416.4999999999982
 21
-338.0000000000002
 31
0.0
  0
LINE
  5
1954
330
1F
100
AcDbEntity
  8
DETAIL
 48
0.5
100
AcDbLine
 10
416.4999999999982
 20
-308.0000000000002
 30
0.0
 11
413.4999999999982
 21
-306.5000000000002
 31
0.0
  0
LINE
  5
1955
330
1F
100
AcDbEntity
  8
DETAIL
 48
0.5
100
AcDbLine
 10
389.4999999999981
 20
-339.0000000000002
 30
0.0
 11
412.4999967123967
 21
-338.999992474801
 31
0.0
  0
LINE
  5
1956
330
1F
100
AcDbEntity
  8
DETAIL
 48
0.5
100
AcDbLine
 10
412.4999999999982
 20
-339.5000000000002
 30
0.0
 11
413.4999999999982
 21
-339.5000000000002
 31
0.0
  0
LINE
  5
1957
330
1F
100
AcDbEntity
  8
DETAIL
 48
0.5
100
AcDbLine
 10
413.4999999999982
 20
-339.5000000000002
 30
0.0
 11
416.4999999999982
 21
-338.0000000000002
 31
0.0
  0
LINE
  5
1958
330
1F
100
AcDbEntity
  8
DETAIL
 48
0.5
100
AcDbLine
 10
343.2989898731957
 20
-346.0000000000002
 30
0.0
 11
385.4999999999981
 21
-346.0000000000002
 31
0.0
  0
LINE
  5
1959
330
1F
100
AcDbEntity
  8
DETAIL
 48
0.5
100
AcDbLine
 10
389.4999999999981
 20
-307.0000000000002
 30
0.0
 11
388.9999999999981
 21
-306.5000000000002
 31
0.0
  0
LINE
  5
195A
330
1F
100
AcDbEntity
  8
DETAIL
 48
0.5
100
AcDbLine
 10
388.9999999999981
 20
-306.5000000000002
 30
0.0
 11
385.4999866987982
 21
-306.4999936668011
 31
0.0
  0
LINE
  5
195B
330
1F
100
AcDbEntity
  8
DETAIL
 48
0.5
100
AcDbLine
 10
388.9999999999981
 20
-339.5000000000002
 30
0.0
 11
389.4999999999981
 21
-339.0000000000002
 31
0.0
  0
LINE
  5
195C
330
1F
100
AcDbEntity
  8
DETAIL
 48
0.5
100
AcDbLine
 10
385.4999866987982
 20
-339.4999860376012
 30
0.0
 11
388.9999999999981
 21
-339.5000000000002
 31
0.0
  0
LINE
  5
195D
330
1F
100
AcDbEntity
  8
DETAIL
100
AcDbLine
 10
413.4999999999982
 20
-306.5000000000002
 30
0.0
 11
412.4999999999982
 21
-306.5000000000002
 31
0.0
  0
LINE
  5
195E
330
1F
100
AcDbEntity
  8
DETAIL
100
AcDbLine
 10
420.0000000000017
 20
193.7499999999997
 30
0.0
 11
344.9999999999981
 21
209.2499999999997
 31
0.0
  0
LINE
  5
195F
330
1F
100
AcDbEntity
  8
DETAIL
100
AcDbLine
 10
344.9999999999981
 20
209.2499999999997
 30
0.0
 11
345.0000000000018
 21
340.9999999999997
 31
0.0
  0
LINE
  5
1960
330
1F
100
AcDbEntity
  8
DETAIL
100
AcDbLine
 10
345.0000000000018
 20
340.9999999999997
 30
0.0
 11
269.2369071229131
 21
419.9999999999997
 31
0.0
  0
LINE
  5
1961
330
1F
100
AcDbEntity
  8
DETAIL
 62
     5
 48
0.5
100
AcDbLine
 10
338.5294407704041
 20
350.4705501387122
 30
0.0
 11
372.035533906006
 21
383.9766432743179
 31
0.0
  0
LINE
  5
1962
330
1F
100
AcDbEntity
  8
DETAIL
 62
     5
 48
0.5
100
AcDbLine
 10
373.5000000000036
 20
387.5121771799183
 30
0.0
 11
373.5000000000018
 21
397.0807196751172
 31
0.0
  0
LINE
  5
1963
330
1F
100
AcDbEntity
  8
DETAIL
 62
     5
 48
0.5
100
AcDbLine
 10
372.0355339060042
 20
400.6162535811179
 30
0.0
 11
365.5832611208043
 21
407.0685263663178
 31
0.0
  0
ARC
  5
1964
330
1F
100
AcDbEntity
  8
DETAIL
 62
     5
 48
0.5
100
AcDbCircle
 10
368.5000000000036
 20
397.0807196751161
 30
0.0
 40
5.00000000000036
100
AcDbArc
 50
0.0
 51
44.99999999999992
  0
LINE
  5
1965
330
1F
100
AcDbEntity
  8
DETAIL
 62
     5
 48
0.5
100
AcDbLine
 10
365.5832611208043
 20
407.0685263663178
 30
0.0
 11
365.5832611208043
 21
409.0685263663178
 31
0.0
  0
LINE
  5
1966
330
1F
100
AcDbEntity
  8
DETAIL
 62
     5
 48
0.5
100
AcDbLine
 10
355.0000000000018
 20
409.068526366316
 30
0.0
 11
365.5832611208043
 21
409.0685263663178
 31
0.0
  0
LINE
  5
1967
330
1F
100
AcDbEntity
  8
DETAIL
 62
     5
 48
0.5
100
AcDbLine
 10
355.0000000000018
 20
409.068526366316
 30
0.0
 11
355.0000000000018
 21
407.068526366316
 31
0.0
  0
LINE
  5
1968
330
1F
100
AcDbEntity
  8
DETAIL
 62
     5
 48
0.5
100
AcDbLine
 10
355.0000000000018
 20
407.068526366316
 30
0.0
 11
351.085786437603
 21
403.1543128039154
 31
0.0
  0
ARC
  5
1969
330
1F
100
AcDbEntity
  8
DETAIL
 62
     5
 48
0.5
100
AcDbCircle
 10
352.5000000000054
 20
401.7400992415137
 30
0.0
 40
2.000000000000227
100
AcDbArc
 50
134.9999999999999
 51
180.0
  0
LINE
  5
196A
330
1F
100
AcDbEntity
  8
DETAIL
 62
     5
 48
0.5
100
AcDbLine
 10
350.5000000000018
 20
401.7400992415166
 30
0.0
 11
350.499987602403
 21
396.0685326263171
 31
0.0
  0
LINE
  5
196B
330
1F
100
AcDbEntity
  8
DETAIL
 62
     5
 48
0.5
100
AcDbLine
 10
350.499987602403
 20
396.0685326263171
 30
0.0
 11
355.5000000000036
 21
396.068526366316
 31
0.0
  0
ARC
  5
196C
330
1F
100
AcDbEntity
  8
DETAIL
 62
     5
 48
0.5
100
AcDbCircle
 10
355.5000000000054
 20
390.0685263663149
 30
0.0
 40
6.000000000000227
100
AcDbArc
 50
270.0
 51
90.0
  0
LINE
  5
196D
330
1F
100
AcDbEntity
  8
DETAIL
 62
     5
 48
0.5
100
AcDbLine
 10
355.5000000000054
 20
384.068526366316
 30
0.0
 11
343.6633168356038
 21
384.068526366316
 31
0.0
  0
ARC
  5
196E
330
1F
100
AcDbEntity
  8
DETAIL
 62
     5
 48
0.5
100
AcDbCircle
 10
343.6633168356056
 20
382.0685263663149
 30
0.0
 40
2.0
100
AcDbArc
 50
90.0
 51
173.1976816906721
  0
ARC
  5
196F
330
1F
100
AcDbEntity
  8
DETAIL
 62
     5
 48
0.5
100
AcDbCircle
 10
335.7196311044063
 20
383.0160795319138
 30
0.0
 40
6.00000000000004
100
AcDbArc
 50
189.8115332373929
 51
353.1976816906721
  0
LINE
  5
1970
330
1F
100
AcDbEntity
  8
DETAIL
 62
     5
 48
0.5
100
AcDbLine
 10
329.8073894052049
 20
381.9936324235147
 30
0.0
 11
328.5877583008023
 21
389.0460792579158
 31
0.0
  0
ARC
  5
1971
330
1F
100
AcDbEntity
  8
DETAIL
 62
     5
 48
0.5
100
AcDbCircle
 10
334.5000000000054
 20
390.0685263663131
 30
0.0
 40
6.000000000000036
100
AcDbArc
 50
90.0
 51
189.8115332373929
  0
LINE
  5
1972
330
1F
100
AcDbEntity
  8
DETAIL
 62
     5
 48
0.5
100
AcDbLine
 10
334.5000000000054
 20
396.068526366316
 30
0.0
 11
339.5000100136039
 21
396.0685326263171
 31
0.0
  0
LINE
  5
1973
330
1F
100
AcDbEntity
  8
DETAIL
 62
     5
 48
0.5
100
AcDbLine
 10
339.5000100136039
 20
396.0685326263171
 30
0.0
 11
339.5000000000054
 21
401.7400992415148
 31
0.0
  0
ARC
  5
1974
330
1F
100
AcDbEntity
  8
DETAIL
 62
     5
 48
0.5
100
AcDbCircle
 10
337.5000000000054
 20
401.7400992415137
 30
0.0
 40
2.000000000000015
100
AcDbArc
 50
0.0
 51
44.99999999999992
  0
LINE
  5
1975
330
1F
100
AcDbEntity
  8
DETAIL
 62
     5
 48
0.5
100
AcDbLine
 10
338.9142135624042
 20
403.1543128039154
 30
0.0
 11
335.0000000000018
 21
407.068526366316
 31
0.0
  0
LINE
  5
1976
330
1F
100
AcDbEntity
  8
DETAIL
 62
     5
 48
0.5
100
AcDbLine
 10
335.0000000000018
 20
407.068526366316
 30
0.0
 11
335.0000000000018
 21
409.068526366316
 31
0.0
  0
LINE
  5
1977
330
1F
100
AcDbEntity
  8
DETAIL
 62
     5
 48
0.5
100
AcDbLine
 10
324.4167388792029
 20
409.068526366316
 30
0.0
 11
335.0000000000018
 21
409.068526366316
 31
0.0
  0
LINE
  5
1978
330
1F
100
AcDbEntity
  8
DETAIL
 62
     5
 48
0.5
100
AcDbLine
 10
324.4167388792029
 20
409.068526366316
 30
0.0
 11
324.4167388792029
 21
407.0685263663142
 31
0.0
  0
LINE
  5
1979
330
1F
100
AcDbEntity
  8
DETAIL
 62
     5
 48
0.5
100
AcDbLine
 10
324.4167388792029
 20
407.0685263663142
 30
0.0
 11
303.1740997388205
 21
385.8258872251587
 31
0.0
  0
ARC
  5
197A
330
1F
100
AcDbEntity
  8
DETAIL
 62
     5
 48
0.5
100
AcDbCircle
 10
368.5000000000727
 20
387.5121771802482
 30
0.0
 40
5.000000000000229
100
AcDbArc
 50
314.9999999999999
 51
0.0
  0
TEXT
  5
197B
330
1F
100
AcDbEntity
  8
NOTE
100
AcDbText
 10
-280.5925212993079
 20
-4242.187714567622
 30
0.0
 40
45.0
  1
Ceiling open dimension
 41
1.04
  7
KAIGAI
100
AcDbText
  0
LINE
  5
197C
330
1F
100
AcDbEntity
  8
OUTLINE
100
AcDbLine
 10
460.0
 20
-3995.311265282219
 30
0.0
 11
-460.0000000000036
 21
-3995.311265282214
 31
0.0
  0
LINE
  5
197D
330
1F
100
AcDbEntity
  8
OUTLINE
100
AcDbLine
 10
-459.9999999999981
 20
-3045.311265282214
 30
0.0
 11
460.0
 21
-3045.311265282218
 31
0.0
  0
LINE
  5
197E
330
1F
100
AcDbEntity
  8
OUTLINE
100
AcDbLine
 10
-475.0
 20
-3980.311265282215
 30
0.0
 11
-475.0
 21
-3060.311265282214
 31
0.0
  0
ARC
  5
197F
330
1F
100
AcDbEntity
  8
OUTLINE
100
AcDbCircle
 10
-460.0
 20
-3980.311265282216
 30
0.0
 40
15.0
100
AcDbArc
 50
180.0
 51
270.0
  0
ARC
  5
1980
330
1F
100
AcDbEntity
  8
OUTLINE
100
AcDbCircle
 10
-459.9999999999981
 20
-3060.311265282213
 30
0.0
 40
15.0
100
AcDbArc
 50
90.0
 51
180.0
  0
LINE
  5
1981
330
1F
100
AcDbEntity
  8
OUTLINE
100
AcDbLine
 10
475.0
 20
-3060.311265282218
 30
0.0
 11
474.9999999999963
 21
-3980.311265282217
 31
0.0
  0
ARC
  5
1982
330
1F
100
AcDbEntity
  8
OUTLINE
100
AcDbCircle
 10
459.9999999999981
 20
-3980.311265282219
 30
0.0
 40
15.0
100
AcDbArc
 50
270.0
 51
0.0
  0
ARC
  5
1983
330
1F
100
AcDbEntity
  8
OUTLINE
100
AcDbCircle
 10
460.0
 20
-3060.311265282216
 30
0.0
 40
15.0
100
AcDbArc
 50
0.0
 51
90.0
  0
LINE
  5
1984
330
1F
100
AcDbEntity
  8
BASIS
100
AcDbLine
 10
-475.0000000000036
 20
-3520.311265282216
 30
0.0
 11
475.0
 21
-3520.311265282219
 31
0.0
  0
LINE
  5
1985
330
1F
100
AcDbEntity
  8
SIZE
100
AcDbLine
 10
-455.0000000000036
 20
-4203.825265282214
 30
0.0
 11
454.9999999999963
 21
-4203.82526528222
 31
0.0
  0
LINE
  5
1986
330
1F
100
AcDbEntity
  8
BASIS
100
AcDbLine
 10
0.0
 20
-3045.311265282214
 30
0.0
 11
-0.000000000003638
 21
-3995.311265282218
 31
0.0
  0
LINE
  5
1987
330
1F
100
AcDbEntity
  8
SIZE
100
AcDbLine
 10
-455.0000000000036
 20
-4223.825265282214
 30
0.0
 11
-455.0000000000036
 21
-3995.310265282214
 31
0.0
  0
TEXT
  5
1988
330
1F
100
AcDbEntity
  8
SIZE
100
AcDbText
 10
-131.1675253801495
 20
-4193.285765349467
 30
0.0
 40
40.0
  1
860 to 910
  7
KAIGAI
100
AcDbText
  0
LINE
  5
1989
330
1F
100
AcDbEntity
  8
SIZE
100
AcDbLine
 10
-455.0000000000036
 20
-4203.825265282214
 30
0.0
 11
-435.0000000000036
 21
-4200.300265282216
 31
0.0
  0
LINE
  5
198A
330
1F
100
AcDbEntity
  8
SIZE
100
AcDbLine
 10
-435.0000000000036
 20
-4207.351265282215
 30
0.0
 11
-455.0000000000036
 21
-4203.825265282214
 31
0.0
  0
CIRCLE
  5
198B
330
1F
100
AcDbEntity
  8
ARRANGE
100
AcDbCircle
 10
0.0
 20
-3520.311265282215
 30
0.0
 40
20.0
  0
POINT
  5
198C
330
1F
100
AcDbEntity
  8
ARRANGE
100
AcDbPoint
 10
0.0
 20
-3520.311265282217
 30
0.0
  0
LINE
  5
198D
330
1F
100
AcDbEntity
  8
SIZE
100
AcDbLine
 10
683.5199999999968
 20
-3065.311265282218
 30
0.0
 11
687.0399999999972
 21
-3085.311265282218
 31
0.0
  0
LINE
  5
198E
330
1F
100
AcDbEntity
  8
SIZE
100
AcDbLine
 10
679.9900000000016
 20
-3085.311265282218
 30
0.0
 11
683.5199999999968
 21
-3065.311265282218
 31
0.0
  0
LINE
  5
198F
330
1F
100
AcDbEntity
  8
SIZE
100
AcDbLine
 10
683.5199999999968
 20
-3975.310265282219
 30
0.0
 11
683.5199999999968
 21
-3065.311265282218
 31
0.0
  0
LINE
  5
1990
330
1F
100
AcDbEntity
  8
SIZE
100
AcDbLine
 10
455.0
 20
-3995.310265282219
 30
0.0
 11
454.9999999999963
 21
-4223.82526528222
 31
0.0
  0
LINE
  5
1991
330
1F
100
AcDbEntity
  8
SIZE
100
AcDbLine
 10
454.9999999999963
 20
-4203.825265282218
 30
0.0
 11
435.0
 21
-4207.35126528222
 31
0.0
  0
LINE
  5
1992
330
1F
100
AcDbEntity
  8
SIZE
100
AcDbLine
 10
435.0
 20
-4200.300265282218
 30
0.0
 11
454.9999999999963
 21
-4203.825265282218
 31
0.0
  0
TEXT
  5
1993
330
1F
100
AcDbEntity
  8
SIZE
100
AcDbText
 10
670.5624658946126
 20
-3636.289843745128
 30
0.0
 40
40.0
  1
860 to 910
 50
90.0
  7
KAIGAI
100
AcDbText
  0
LINE
  5
1994
330
1F
100
AcDbEntity
  8
SIZE
100
AcDbLine
 10
703.5199999999967
 20
-3975.310265282219
 30
0.0
 11
475.0
 21
-3975.310265282219
 31
0.0
  0
LINE
  5
1995
330
1F
100
AcDbEntity
  8
SIZE
100
AcDbLine
 10
683.5199999999968
 20
-3975.310265282219
 30
0.0
 11
679.9899999999979
 21
-3955.310265282219
 31
0.0
  0
LINE
  5
1996
330
1F
100
AcDbEntity
  8
SIZE
100
AcDbLine
 10
687.0399999999972
 20
-3955.310265282219
 30
0.0
 11
683.5199999999968
 21
-3975.310265282219
 31
0.0
  0
LINE
  5
1997
330
1F
100
AcDbEntity
  8
SIZE
100
AcDbLine
 10
475.0
 20
-3065.311265282218
 30
0.0
 11
703.5199999999967
 21
-3065.311265282218
 31
0.0
  0
LINE
  5
1998
330
1F
100
AcDbEntity
  8
BASIS
100
AcDbLine
 10
-345.0
 20
-3885.311265282215
 30
0.0
 11
-345.0
 21
-3935.311265282214
 31
0.0
  0
LINE
  5
1999
330
1F
100
AcDbEntity
  8
BASIS
100
AcDbLine
 10
-320.0
 20
-3910.311265282214
 30
0.0
 11
-370.0
 21
-3910.311265282214
 31
0.0
  0
LINE
  5
199A
330
1F
100
AcDbEntity
  8
BASIS
100
AcDbLine
 10
345.0
 20
-3885.311265282237
 30
0.0
 11
344.9999999999963
 21
-3935.311265282237
 31
0.0
  0
LINE
  5
199B
330
1F
100
AcDbEntity
  8
BASIS
100
AcDbLine
 10
320.0
 20
-3910.311265282235
 30
0.0
 11
370.0
 21
-3910.311265282237
 31
0.0
  0
LINE
  5
199C
330
1F
100
AcDbEntity
  8
BASIS
100
AcDbLine
 10
-345.0
 20
-3155.311265282215
 30
0.0
 11
-345.0
 21
-3105.311265282214
 31
0.0
  0
LINE
  5
199D
330
1F
100
AcDbEntity
  8
BASIS
100
AcDbLine
 10
-320.0
 20
-3130.311265282216
 30
0.0
 11
-370.0
 21
-3130.311265282214
 31
0.0
  0
LINE
  5
199E
330
1F
100
AcDbEntity
  8
BASIS
100
AcDbLine
 10
345.0000000000036
 20
-3155.311265282201
 30
0.0
 11
345.0
 21
-3105.3112652822
 31
0.0
  0
LINE
  5
199F
330
1F
100
AcDbEntity
  8
BASIS
100
AcDbLine
 10
320.0
 20
-3130.311265282201
 30
0.0
 11
370.0
 21
-3130.311265282199
 31
0.0
  0
CIRCLE
  5
19A0
330
1F
100
AcDbEntity
  8
FIX
100
AcDbCircle
 10
344.9982064417799
 20
-3130.309356491335
 30
0.0
 40
20.0
  0
CIRCLE
  5
19A1
330
1F
100
AcDbEntity
  8
FIX
100
AcDbCircle
 10
-345.0017935582163
 20
-3130.309356491352
 30
0.0
 40
20.0
  0
CIRCLE
  5
19A2
330
1F
100
AcDbEntity
  8
FIX
100
AcDbCircle
 10
-345.0017935582181
 20
-3910.309356491353
 30
0.0
 40
20.0
  0
CIRCLE
  5
19A3
330
1F
100
AcDbEntity
  8
FIX
100
AcDbCircle
 10
344.9982064417818
 20
-3910.309356491371
 30
0.0
 40
20.0
  0
TEXT
  5
19A4
330
1F
100
AcDbEntity
  8
NOTE
100
AcDbText
 10
744.8586648120854
 20
-3861.612768472724
 30
0.0
 40
45.0
  1
Ceiling open dimension
 50
90.0
 41
1.04
  7
KAIGAI
100
AcDbText
  0
LINE
  5
19A5
330
1F
100
AcDbEntity
  8
DETAIL
  6
CONTINUOUS
100
AcDbLine
 10
120.939999999995
 20
-3165.201265282217
 30
0.0
 11
186.8599999999969
 21
-3156.951265282216
 31
0.0
  0
LINE
  5
19A6
330
1F
100
AcDbEntity
  8
DETAIL
  6
CONTINUOUS
100
AcDbLine
 10
186.8599999999969
 20
-3883.671265282218
 30
0.0
 11
120.939999999995
 21
-3875.431265282218
 31
0.0
  0
POLYLINE
  5
19A7
330
1F
100
AcDbEntity
  8
DETAIL
  6
HIDDEN
100
AcDb2dPolyline
 66
     1
 10
0.0
 20
0.0
 30
0.0
  0
VERTEX
  5
1AB4
330
19A7
100
AcDbEntity
  8
DETAIL
  6
HIDDEN
100
AcDbVertex
100
AcDb2dVertex
 10
-455.0000000000036
 20
-3975.310265282214
 30
0.0
  0
VERTEX
  5
1AB5
330
19A7
100
AcDbEntity
  8
DETAIL
  6
HIDDEN
100
AcDbVertex
100
AcDb2dVertex
 10
-455.0
 20
-3065.311265282215
 30
0.0
  0
VERTEX
  5
1AB6
330
19A7
100
AcDbEntity
  8
DETAIL
  6
HIDDEN
100
AcDbVertex
100
AcDb2dVertex
 10
455.0
 20
-3065.311265282218
 30
0.0
  0
VERTEX
  5
1AB7
330
19A7
100
AcDbEntity
  8
DETAIL
  6
HIDDEN
100
AcDbVertex
100
AcDb2dVertex
 10
455.0
 20
-3975.310265282219
 30
0.0
  0
VERTEX
  5
1AB8
330
19A7
100
AcDbEntity
  8
DETAIL
  6
HIDDEN
100
AcDbVertex
100
AcDb2dVertex
 10
-455.0000000000036
 20
-3975.310265282214
 30
0.0
  0
SEQEND
  5
1AB9
330
19A7
100
AcDbEntity
  8
DETAIL
  6
HIDDEN
  0
LINE
  5
19A8
330
1F
100
AcDbEntity
  8
DETAIL
  6
CONTINUOUS
100
AcDbLine
 10
185.0
 20
-3080.311265282216
 30
0.0
 11
-185.0
 21
-3080.311265282214
 31
0.0
  0
LINE
  5
19A9
330
1F
100
AcDbEntity
  8
DETAIL
  6
CONTINUOUS
100
AcDbLine
 10
-185.0000000000036
 20
-3960.310265282215
 30
0.0
 11
185.0
 21
-3960.310265282217
 31
0.0
  0
LINE
  5
19AA
330
1F
100
AcDbEntity
  8
DETAIL
  6
CONTINUOUS
100
AcDbLine
 10
279.9999999999963
 20
-3830.311265282217
 30
0.0
 11
-280.0000000000036
 21
-3830.311265282215
 31
0.0
  0
LINE
  5
19AB
330
1F
100
AcDbEntity
  8
DETAIL
  6
CONTINUOUS
100
AcDbLine
 10
-280.0
 20
-3210.311265282216
 30
0.0
 11
280.0
 21
-3210.311265282217
 31
0.0
  0
LINE
  5
19AC
330
1F
100
AcDbEntity
  8
DETAIL
  6
CONTINUOUS
100
AcDbLine
 10
460.0
 20
-3995.311265282219
 30
0.0
 11
-460.0000000000036
 21
-3995.311265282214
 31
0.0
  0
LINE
  5
19AD
330
1F
100
AcDbEntity
  8
DETAIL
  6
CONTINUOUS
100
AcDbLine
 10
-459.9999999999981
 20
-3045.311265282214
 30
0.0
 11
460.0
 21
-3045.311265282218
 31
0.0
  0
LINE
  5
19AE
330
1F
100
AcDbEntity
  8
DETAIL
  6
CONTINUOUS
100
AcDbLine
 10
-475.0
 20
-3980.311265282215
 30
0.0
 11
-475.0
 21
-3060.311265282214
 31
0.0
  0
LINE
  5
19AF
330
1F
100
AcDbEntity
  8
DETAIL
  6
CONTINUOUS
100
AcDbLine
 10
-355.0000000000036
 20
-3639.391265282216
 30
0.0
 11
-355.0000000000036
 21
-3401.241265282215
 31
0.0
  0
LINE
  5
19B0
330
1F
100
AcDbEntity
  8
DETAIL
  6
CONTINUOUS
100
AcDbLine
 10
-440.0000000000036
 20
-3335.311265282216
 30
0.0
 11
-440.0000000000036
 21
-3705.311265282216
 31
0.0
  0
LINE
  5
19B1
330
1F
100
AcDbEntity
  8
DETAIL
  6
CONTINUOUS
100
AcDbLine
 10
-310.0000000000036
 20
-3800.311265282214
 30
0.0
 11
-310.0
 21
-3240.311265282216
 31
0.0
  0
LINE
  5
19B2
330
1F
100
AcDbEntity
  8
DETAIL
  6
CONTINUOUS
100
AcDbLine
 10
-120.9400000000023
 20
-3875.431265282218
 30
0.0
 11
-186.8600000000005
 21
-3883.671265282216
 31
0.0
  0
ARC
  5
19B3
330
1F
100
AcDbEntity
  8
DETAIL
  6
CONTINUOUS
100
AcDbCircle
 10
-460.0
 20
-3980.311265282216
 30
0.0
 40
15.0
100
AcDbArc
 50
180.0
 51
270.0
  0
LINE
  5
19B4
330
1F
100
AcDbEntity
  8
DETAIL
  6
CONTINUOUS
100
AcDbLine
 10
-200.0000000000036
 20
-3898.561265282215
 30
0.0
 11
-200.0000000000036
 21
-3945.310265282215
 31
0.0
  0
ARC
  5
19B5
330
1F
100
AcDbEntity
  8
DETAIL
  6
CONTINUOUS
100
AcDbCircle
 10
-185.0000000000018
 20
-3945.310265282215
 30
0.0
 40
15.0
100
AcDbArc
 50
180.0
 51
270.0
  0
ARC
  5
19B6
330
1F
100
AcDbEntity
  8
DETAIL
  6
CONTINUOUS
100
AcDbCircle
 10
-280.0
 20
-3800.311265282215
 30
0.0
 40
30.0
100
AcDbArc
 50
180.0
 51
270.0
  0
ARC
  5
19B7
330
1F
100
AcDbEntity
  8
DETAIL
  6
CONTINUOUS
100
AcDbCircle
 10
-185.0000000000018
 20
-3898.561265282215
 30
0.0
 40
15.0
100
AcDbArc
 50
97.12501599999045
 51
180.0
  0
LINE
  5
19B8
330
1F
100
AcDbEntity
  8
DETAIL
  6
CONTINUOUS
100
AcDbLine
 10
-363.3600000000042
 20
-3707.171265282215
 30
0.0
 11
-355.1200000000026
 21
-3641.251265282215
 31
0.0
  0
LINE
  5
19B9
330
1F
100
AcDbEntity
  8
DETAIL
  6
CONTINUOUS
100
AcDbLine
 10
-425.0000000000036
 20
-3720.311265282216
 30
0.0
 11
-378.2400000000015
 21
-3720.311265282216
 31
0.0
  0
ARC
  5
19BA
330
1F
100
AcDbEntity
  8
DETAIL
  6
CONTINUOUS
100
AcDbCircle
 10
-425.0
 20
-3705.311265282215
 30
0.0
 40
15.0
100
AcDbArc
 50
180.0
 51
270.0
  0
ARC
  5
19BB
330
1F
100
AcDbEntity
  8
DETAIL
  6
CONTINUOUS
100
AcDbCircle
 10
-378.2400000000015
 20
-3705.311265282215
 30
0.0
 40
15.0
100
AcDbArc
 50
270.0
 51
352.8749840000096
  0
ARC
  5
19BC
330
1F
100
AcDbEntity
  8
DETAIL
  6
CONTINUOUS
100
AcDbCircle
 10
-370.0
 20
-3639.391265282216
 30
0.0
 40
15.0
100
AcDbArc
 50
352.8749840000096
 51
0.0
  0
LINE
  5
19BD
330
1F
100
AcDbEntity
  8
DETAIL
  6
CONTINUOUS
100
AcDbLine
 10
119.0799999999981
 20
-3875.311265282217
 30
0.0
 11
-119.0800000000017
 21
-3875.311265282217
 31
0.0
  0
ARC
  5
19BE
330
1F
100
AcDbEntity
  8
DETAIL
  6
CONTINUOUS
100
AcDbCircle
 10
-119.0799999999999
 20
-3890.311265282219
 30
0.0
 40
15.0
100
AcDbArc
 50
90.0
 51
97.12501599999045
  0
ARC
  5
19BF
330
1F
100
AcDbEntity
  8
DETAIL
  6
CONTINUOUS
100
AcDbCircle
 10
119.0799999999981
 20
-3890.311265282219
 30
0.0
 40
15.0
100
AcDbArc
 50
82.87498400000954
 51
90.0
  0
LINE
  5
19C0
330
1F
100
AcDbEntity
  8
DETAIL
  6
CONTINUOUS
100
AcDbLine
 10
-186.8600000000005
 20
-3156.951265282216
 30
0.0
 11
-120.9400000000023
 21
-3165.201265282217
 31
0.0
  0
LINE
  5
19C1
330
1F
100
AcDbEntity
  8
DETAIL
  6
CONTINUOUS
100
AcDbLine
 10
-378.2400000000015
 20
-3320.311265282216
 30
0.0
 11
-425.0
 21
-3320.311265282216
 31
0.0
  0
ARC
  5
19C2
330
1F
100
AcDbEntity
  8
DETAIL
  6
CONTINUOUS
100
AcDbCircle
 10
-425.0
 20
-3335.311265282215
 30
0.0
 40
15.0
100
AcDbArc
 50
90.0
 51
180.0
  0
ARC
  5
19C3
330
1F
100
AcDbEntity
  8
DETAIL
  6
CONTINUOUS
100
AcDbCircle
 10
-378.2399999999997
 20
-3335.311265282215
 30
0.0
 40
15.0
100
AcDbArc
 50
7.125015999990447
 51
90.0
  0
ARC
  5
19C4
330
1F
100
AcDbEntity
  8
DETAIL
  6
CONTINUOUS
100
AcDbCircle
 10
-370.0
 20
-3401.241265282215
 30
0.0
 40
15.0
100
AcDbArc
 50
0.0
 51
7.125015999990447
  0
LINE
  5
19C5
330
1F
100
AcDbEntity
  8
DETAIL
  6
CONTINUOUS
100
AcDbLine
 10
-355.1200000000026
 20
-3399.381265282216
 30
0.0
 11
-363.3600000000042
 21
-3333.451265282216
 31
0.0
  0
ARC
  5
19C6
330
1F
100
AcDbEntity
  8
DETAIL
  6
CONTINUOUS
100
AcDbCircle
 10
-279.9999999999982
 20
-3240.311265282215
 30
0.0
 40
30.0
100
AcDbArc
 50
90.0
 51
180.0
  0
ARC
  5
19C7
330
1F
100
AcDbEntity
  8
DETAIL
  6
CONTINUOUS
100
AcDbCircle
 10
-184.9999999999981
 20
-3095.311265282214
 30
0.0
 40
15.0
100
AcDbArc
 50
90.0
 51
180.0
  0
ARC
  5
19C8
330
1F
100
AcDbEntity
  8
DETAIL
  6
CONTINUOUS
100
AcDbCircle
 10
-184.9999999999981
 20
-3142.071265282214
 30
0.0
 40
15.0
100
AcDbArc
 50
180.0
 51
262.8749840000096
  0
LINE
  5
19C9
330
1F
100
AcDbEntity
  8
DETAIL
  6
CONTINUOUS
100
AcDbLine
 10
-200.0
 20
-3095.311265282214
 30
0.0
 11
-200.0
 21
-3142.071265282215
 31
0.0
  0
LINE
  5
19CA
330
1F
100
AcDbEntity
  8
DETAIL
  6
CONTINUOUS
100
AcDbLine
 10
-119.0800000000017
 20
-3165.311265282215
 30
0.0
 11
119.0799999999981
 21
-3165.311265282217
 31
0.0
  0
ARC
  5
19CB
330
1F
100
AcDbEntity
  8
DETAIL
  6
CONTINUOUS
100
AcDbCircle
 10
-119.0799999999999
 20
-3150.311265282216
 30
0.0
 40
15.0
100
AcDbArc
 50
262.8749840000096
 51
270.0
  0
ARC
  5
19CC
330
1F
100
AcDbEntity
  8
DETAIL
  6
CONTINUOUS
100
AcDbCircle
 10
119.0799999999999
 20
-3150.311265282216
 30
0.0
 40
15.0
100
AcDbArc
 50
270.0
 51
277.1250159999904
  0
ARC
  5
19CD
330
1F
100
AcDbEntity
  8
DETAIL
  6
CONTINUOUS
100
AcDbCircle
 10
-459.9999999999981
 20
-3060.311265282213
 30
0.0
 40
15.0
100
AcDbArc
 50
90.0
 51
180.0
  0
LINE
  5
19CE
330
1F
100
AcDbEntity
  8
DETAIL
  6
CONTINUOUS
100
AcDbLine
 10
475.0
 20
-3060.311265282218
 30
0.0
 11
474.9999999999963
 21
-3980.311265282217
 31
0.0
  0
LINE
  5
19CF
330
1F
100
AcDbEntity
  8
DETAIL
  6
CONTINUOUS
100
AcDbLine
 10
355.0
 20
-3401.241265282219
 30
0.0
 11
355.0
 21
-3639.391265282219
 31
0.0
  0
LINE
  5
19D0
330
1F
100
AcDbEntity
  8
DETAIL
  6
CONTINUOUS
100
AcDbLine
 10
439.9999999999963
 20
-3705.311265282219
 30
0.0
 11
440.0
 21
-3335.311265282219
 31
0.0
  0
LINE
  5
19D1
330
1F
100
AcDbEntity
  8
DETAIL
  6
CONTINUOUS
100
AcDbLine
 10
310.0
 20
-3240.311265282217
 30
0.0
 11
310.0
 21
-3800.311265282217
 31
0.0
  0
ARC
  5
19D2
330
1F
100
AcDbEntity
  8
DETAIL
  6
CONTINUOUS
100
AcDbCircle
 10
279.9999999999982
 20
-3800.311265282219
 30
0.0
 40
30.0
100
AcDbArc
 50
270.0
 51
0.0
  0
LINE
  5
19D3
330
1F
100
AcDbEntity
  8
DETAIL
  6
CONTINUOUS
100
AcDbLine
 10
199.9999999999963
 20
-3945.310265282217
 30
0.0
 11
199.9999999999963
 21
-3898.561265282218
 31
0.0
  0
ARC
  5
19D4
330
1F
100
AcDbEntity
  8
DETAIL
  6
CONTINUOUS
100
AcDbCircle
 10
185.0
 20
-3945.310265282218
 30
0.0
 40
15.0
100
AcDbArc
 50
270.0
 51
0.0
  0
ARC
  5
19D5
330
1F
100
AcDbEntity
  8
DETAIL
  6
CONTINUOUS
100
AcDbCircle
 10
185.0
 20
-3898.561265282219
 30
0.0
 40
15.0
100
AcDbArc
 50
0.0
 51
82.87498400000954
  0
ARC
  5
19D6
330
1F
100
AcDbEntity
  8
DETAIL
  6
CONTINUOUS
100
AcDbCircle
 10
459.9999999999981
 20
-3980.311265282219
 30
0.0
 40
15.0
100
AcDbArc
 50
270.0
 51
0.0
  0
LINE
  5
19D7
330
1F
100
AcDbEntity
  8
DETAIL
  6
CONTINUOUS
100
AcDbLine
 10
355.1199999999989
 20
-3641.251265282217
 30
0.0
 11
363.3599999999969
 21
-3707.171265282219
 31
0.0
  0
LINE
  5
19D8
330
1F
100
AcDbEntity
  8
DETAIL
  6
CONTINUOUS
100
AcDbLine
 10
378.2399999999979
 20
-3720.311265282219
 30
0.0
 11
425.0
 21
-3720.311265282219
 31
0.0
  0
ARC
  5
19D9
330
1F
100
AcDbEntity
  8
DETAIL
  6
CONTINUOUS
100
AcDbCircle
 10
378.2399999999979
 20
-3705.311265282219
 30
0.0
 40
15.0
100
AcDbArc
 50
187.1250159999904
 51
270.0
  0
ARC
  5
19DA
330
1F
100
AcDbEntity
  8
DETAIL
  6
CONTINUOUS
100
AcDbCircle
 10
424.9999999999982
 20
-3705.311265282219
 30
0.0
 40
15.0
100
AcDbArc
 50
270.0
 51
0.0
  0
ARC
  5
19DB
330
1F
100
AcDbEntity
  8
DETAIL
  6
CONTINUOUS
100
AcDbCircle
 10
369.9999999999981
 20
-3639.391265282217
 30
0.0
 40
15.0
100
AcDbArc
 50
180.0
 51
187.1250159999904
  0
LINE
  5
19DC
330
1F
100
AcDbEntity
  8
DETAIL
  6
CONTINUOUS
100
AcDbLine
 10
425.0
 20
-3320.311265282219
 30
0.0
 11
378.2400000000015
 21
-3320.311265282219
 31
0.0
  0
ARC
  5
19DD
330
1F
100
AcDbEntity
  8
DETAIL
  6
CONTINUOUS
100
AcDbCircle
 10
378.2399999999997
 20
-3335.311265282219
 30
0.0
 40
15.0
100
AcDbArc
 50
90.0
 51
172.8749840000095
  0
ARC
  5
19DE
330
1F
100
AcDbEntity
  8
DETAIL
  6
CONTINUOUS
100
AcDbCircle
 10
370.0
 20
-3401.241265282219
 30
0.0
 40
15.0
100
AcDbArc
 50
172.8749840000095
 51
180.0
  0
LINE
  5
19DF
330
1F
100
AcDbEntity
  8
DETAIL
  6
CONTINUOUS
100
AcDbLine
 10
363.3599999999969
 20
-3333.451265282218
 30
0.0
 11
355.1199999999989
 21
-3399.381265282219
 31
0.0
  0
ARC
  5
19E0
330
1F
100
AcDbEntity
  8
DETAIL
  6
CONTINUOUS
100
AcDbCircle
 10
425.0
 20
-3335.311265282219
 30
0.0
 40
15.0
100
AcDbArc
 50
0.0
 51
90.0
  0
ARC
  5
19E1
330
1F
100
AcDbEntity
  8
DETAIL
  6
CONTINUOUS
100
AcDbCircle
 10
280.0
 20
-3240.311265282215
 30
0.0
 40
30.0
100
AcDbArc
 50
0.0
 51
90.0
  0
ARC
  5
19E2
330
1F
100
AcDbEntity
  8
DETAIL
  6
CONTINUOUS
100
AcDbCircle
 10
185.0
 20
-3095.311265282214
 30
0.0
 40
15.0
100
AcDbArc
 50
0.0
 51
90.0
  0
ARC
  5
19E3
330
1F
100
AcDbEntity
  8
DETAIL
  6
CONTINUOUS
100
AcDbCircle
 10
185.0
 20
-3142.071265282214
 30
0.0
 40
15.0
100
AcDbArc
 50
277.1250159999904
 51
0.0
  0
LINE
  5
19E4
330
1F
100
AcDbEntity
  8
DETAIL
  6
CONTINUOUS
100
AcDbLine
 10
200.0
 20
-3142.071265282218
 30
0.0
 11
200.0
 21
-3095.311265282216
 31
0.0
  0
ARC
  5
19E5
330
1F
100
AcDbEntity
  8
DETAIL
  6
CONTINUOUS
100
AcDbCircle
 10
460.0
 20
-3060.311265282216
 30
0.0
 40
15.0
100
AcDbArc
 50
0.0
 51
90.0
  0
TEXT
  5
19E7
330
1F
100
AcDbEntity
  8
NOTE
100
AcDbText
 10
571.3141295965797
 20
-1533.285884517626
 30
0.0
 40
45.0
  1
Hanging bolt M10 or    3/8
 41
1.04
  7
KAIGAI
100
AcDbText
  0
ELLIPSE
  5
19E8
330
1F
100
AcDbEntity
  8
NOTE
100
AcDbEllipse
 10
1194.166738874839
 20
-1517.052563206953
 30
0.0
 11
32.34923477197117
 21
-0.0000000000001307
 31
0.0
210
0.0
220
0.0
230
1.0
 40
0.6458350059414575
 41
0.0
 42
6.283185307179585
  0
LINE
  5
19E9
330
1F
100
AcDbEntity
  8
NOTE
100
AcDbLine
 10
1170.081507681737
 20
-1562.773151307605
 30
0.0
 11
1215.664522349106
 21
-1476.062221984268
 31
0.0
  0
LINE
  5
19EA
330
1F
100
AcDbEntity
  8
NOTE
100
AcDbLine
 10
360.5775591964538
 20
-1811.107680407955
 30
0.0
 11
344.9999999999981
 21
-1824.748001403063
 31
0.0
  0
LINE
  5
19EB
330
1F
100
AcDbEntity
  8
NOTE
100
AcDbLine
 10
344.9999999999981
 20
-1824.748001403063
 30
0.0
 11
351.6704015844552
 21
-1805.146357337557
 31
0.0
  0
LINE
  5
19EC
330
1F
100
AcDbEntity
  8
NOTE
100
AcDbLine
 10
344.9999999999981
 20
-1824.748001403063
 30
0.0
 11
356.1239803904554
 21
-1808.127018872756
 31
0.0
  0
LINE
  5
19ED
330
1F
100
AcDbEntity
  8
NOTE
100
AcDbLine
 10
356.1239803904554
 20
-1808.127018872756
 30
0.0
 11
527.7311023506427
 21
-1551.718891919958
 31
0.0
1001
ACAD
1000
DSTYLE
1002
{
1070
   147
1040
10.0
1070
    77
1070
     0
1002
}
  0
LINE
  5
19EE
330
1F
100
AcDbEntity
  8
NOTE
100
AcDbLine
 10
527.7311023506427
 20
-1551.718891919958
 30
0.0
 11
1376.830237709498
 21
-1551.71889191996
 31
0.0
1001
ACAD
1000
DSTYLE
1002
{
1070
   147
1040
10.0
1070
    77
1070
     0
1002
}
  0
TEXT
  5
19EF
330
1F
100
AcDbEntity
  8
NOTE
100
AcDbText
 10
571.3141295965797
 20
-1603.79458282467
 30
0.0
 40
45.0
  1
(procured locally)
 41
1.04
  7
KAIGAI
100
AcDbText
  0
TEXT
  5
19F1
330
1F
100
AcDbEntity
  8
NOTE
100
AcDbText
 10
-964.1760105252306
 20
-2115.065305857683
 30
0.0
 40
45.0
  1
Knockout square hole
  7
KAIGAI
100
AcDbText
  0
LINE
  5
19F2
330
1F
100
AcDbEntity
  8
NOTE
100
AcDbLine
 10
-1054.888933599028
 20
-2128.07800140306
 30
0.0
 11
-352.5379926458171
 21
-2128.078001403057
 31
0.0
  0
LINE
  5
19F3
330
1F
100
AcDbEntity
  8
NOTE
100
AcDbLine
 10
-352.5379926458171
 20
-2128.078001403057
 30
0.0
 11
-223.3979926458159
 21
-1855.188001403058
 31
0.0
  0
LINE
  5
19F4
330
1F
100
AcDbEntity
  8
NOTE
100
AcDbLine
 10
-223.3979926458159
 20
-1855.188001403058
 30
0.0
 11
-249.2879926458172
 21
-1885.688001403058
 31
0.0
  0
LINE
  5
19F5
330
1F
100
AcDbEntity
  8
NOTE
100
AcDbLine
 10
-223.3979926458159
 20
-1855.188001403058
 30
0.0
 11
-230.5674922127946
 21
-1894.547122022795
 31
0.0
  0
LINE
  5
19F6
330
1F
100
AcDbEntity
  8
NOTE
100
AcDbLine
 10
910.1922408733026
 20
-2118.030610917381
 30
0.0
 11
253.2540436346716
 21
-2118.030610917381
 31
0.0
  0
LINE
  5
19F7
330
1F
100
AcDbEntity
  8
NOTE
100
AcDbLine
 10
253.2540436346716
 20
-2118.030610917381
 30
0.0
 11
39.83404363467161
 21
-1836.440610917381
 31
0.0
  0
LINE
  5
19F8
330
1F
100
AcDbEntity
  8
NOTE
100
AcDbLine
 10
39.83404363467161
 20
-1836.440610917381
 30
0.0
 11
71.41404363467336
 21
-1860.980610917382
 31
0.0
  0
LINE
  5
19F9
330
1F
100
AcDbEntity
  8
NOTE
100
AcDbLine
 10
39.83404363467161
 20
-1836.440610917381
 30
0.0
 11
54.9244029911697
 21
-1873.478281666119
 31
0.0
  0
TEXT
  5
19FA
330
1F
100
AcDbEntity
  8
NOTE
100
AcDbText
 10
269.6478439408529
 20
-2106.092143022843
 30
0.0
 40
40.0
  1
Knockout square hole
 41
1.04
  7
KAIGAI
100
AcDbText
  0
TEXT
  5
19FC
330
1F
100
AcDbEntity
  8
NOTE
100
AcDbText
 10
265.5290139796416
 20
2511.527056380794
 30
0.0
 40
45.0
  1
Unit external dimension
 50
180.0
 41
1.04
  7
KAIGAI
100
AcDbText
  0
TEXT
  5
19FE
330
1F
100
AcDbEntity
  8
NOTE
100
AcDbText
 10
-260.6653283939412
 20
3335.460189997168
 30
0.0
 40
45.0
  1
   162
 50
180.0
  7
KAIGAI
100
AcDbText
  0
ELLIPSE
  5
19FF
330
1F
100
AcDbEntity
  8
NOTE
100
AcDbEllipse
 10
-274.0088482392548
 20
3316.428061688428
 30
0.0
 11
32.34923477197117
 21
-0.0000000000001149
 31
0.0
210
0.0
220
0.0
230
1.0
 40
0.6458350059414575
 41
0.0
 42
6.283185307179585
  0
LINE
  5
1A00
330
1F
100
AcDbEntity
  8
NOTE
100
AcDbLine
 10
-294.7051437306599
 20
3270.707473587772
 30
0.0
 11
-249.1221290632911
 21
3357.418402911109
 31
0.0
  0
TEXT
  5
1A01
330
1F
100
AcDbEntity
  8
NOTE
100
AcDbText
 10
795.1556679947097
 20
3305.999874293973
 30
0.0
 40
45.0
  1
(2positions)
 50
180.0
 41
1.04
  7
KAIGAI
100
AcDbText
  0
TEXT
  5
1A02
330
1F
100
AcDbEntity
  8
NOTE
100
AcDbText
 10
795.1556679947097
 20
3244.326818024523
 30
0.0
 40
45.0
  1
Knockout square hole
 50
180.0
 41
1.04
  7
KAIGAI
100
AcDbText
  0
LINE
  5
1A03
330
1F
100
AcDbEntity
  8
NOTE
100
AcDbLine
 10
809.8862007887928
 20
3333.608685239569
 30
0.0
 11
173.6099999999987
 21
3333.608685239571
 31
0.0
  0
LINE
  5
1A04
330
1F
100
AcDbEntity
  8
NOTE
100
AcDbLine
 10
173.6099999999987
 20
3333.608685239571
 30
0.0
 11
96.97999999999957
 21
3057.72868523957
 31
0.0
  0
LINE
  5
1A05
330
1F
100
AcDbEntity
  8
NOTE
100
AcDbLine
 10
96.97999999999957
 20
3057.72868523957
 30
0.0
 11
117.2999999999992
 21
3092.188685239571
 31
0.0
  0
POLYLINE
  5
1A09
330
1F
100
AcDbEntity
  8
NOTE
100
AcDb2dPolyline
 66
     1
 10
0.0
 20
0.0
 30
0.0
  0
VERTEX
  5
1ABA
330
1A09
100
AcDbEntity
  8
NOTE
100
AcDbVertex
100
AcDb2dVertex
 10
2006.347319740068
 20
1472.099999999997
 30
0.0
  0
VERTEX
  5
1ABB
330
1A09
100
AcDbEntity
  8
NOTE
100
AcDbVertex
100
AcDb2dVertex
 10
2006.347319740067
 20
468.589999999996
 30
0.0
  0
VERTEX
  5
1ABC
330
1A09
100
AcDbEntity
  8
NOTE
100
AcDbVertex
100
AcDb2dVertex
 10
2361.98731974007
 20
241.4999999999902
 30
0.0
  0
VERTEX
  5
1ABD
330
1A09
100
AcDbEntity
  8
NOTE
100
AcDbVertex
100
AcDb2dVertex
 10
2323.857319740069
 20
253.5699999999899
 30
0.0
  0
SEQEND
  5
1ABE
330
1A09
100
AcDbEntity
  8
NOTE
  0
TEXT
  5
1A0A
330
1F
100
AcDbEntity
  8
NOTE
100
AcDbText
 10
1990.040425240475
 20
486.4073089104494
 30
0.0
 40
45.0
  1
connecting port    9.5(Liquid side)
 50
90.0
 41
1.04
  7
KAIGAI
100
AcDbText
  0
TEXT
  5
1A0B
330
1F
100
AcDbEntity
  8
NOTE
100
AcDbText
 10
1938.728475022615
 20
487.2982061060611
 30
0.0
 40
45.0
  1
Refrigerant pipe
 50
90.0
 41
1.04
  7
KAIGAI
100
AcDbText
  0
ELLIPSE
  5
1A0C
330
1F
100
AcDbEntity
  8
NOTE
100
AcDbEllipse
 10
1973.156268311104
 20
971.1767747163971
 30
0.0
 11
-0.0000000000001288
 21
-32.34923477197117
 31
0.0
210
0.0
220
0.0
230
1.0
 40
0.6458350059414575
 41
0.0
 42
6.283185307179585
  0
LINE
  5
1A0D
330
1F
100
AcDbEntity
  8
NOTE
100
AcDbLine
 10
1927.435680210448
 20
991.8730702078024
 30
0.0
 11
2014.146609533785
 21
946.2900555404335
 31
0.0
  0
TEXT
  5
1A0E
330
1F
100
AcDbEntity
  8
NOTE
100
AcDbText
 10
2176.166647877638
 20
453.9596341464458
 30
0.0
 40
45.0
  1
connecting port    15.9(Gas side)
 50
90.0
 41
1.04
  7
KAIGAI
100
AcDbText
  0
TEXT
  5
1A0F
330
1F
100
AcDbEntity
  8
NOTE
100
AcDbText
 10
2124.854697659779
 20
454.8505313420573
 30
0.0
 40
45.0
  1
Refrigerant pipe
 50
90.0
 41
1.04
  7
KAIGAI
100
AcDbText
  0
ELLIPSE
  5
1A10
330
1F
100
AcDbEntity
  8
NOTE
100
AcDbEllipse
 10
2159.282490948269
 20
938.7290999523971
 30
0.0
 11
-0.0000000000001288
 21
-32.34923477197117
 31
0.0
210
0.0
220
0.0
230
1.0
 40
0.6458350059414575
 41
0.0
 42
6.283185307179585
  0
LINE
  5
1A11
330
1F
100
AcDbEntity
  8
NOTE
100
AcDbLine
 10
2113.561902847613
 20
959.4253954437986
 30
0.0
 11
2200.272832170951
 21
913.8423807764279
 31
0.0
  0
LINE
  5
1A12
330
1F
100
AcDbEntity
  8
NOTE
100
AcDbLine
 10
2186.626048996549
 20
1449.220160229007
 30
0.0
 11
2186.626048996546
 21
404.6501602290038
 31
0.0
  0
LINE
  5
1A13
330
1F
100
AcDbEntity
  8
NOTE
100
AcDbLine
 10
2186.626048996546
 20
404.6501602290038
 30
0.0
 11
2302.042744543749
 21
313.4562073154677
 31
0.0
  0
LINE
  5
1A14
330
1F
100
AcDbEntity
  8
NOTE
100
AcDbLine
 10
2302.042744543749
 20
313.4562073154677
 30
0.0
 11
2265.312744543747
 21
329.2862073154694
 31
0.0
  0
TEXT
  5
1A16
330
1F
100
AcDbEntity
  8
NOTE
100
AcDbText
 10
2651.166258801257
 20
-809.5388440935129
 30
0.0
 40
45.0
  1
Knockout square hole
 50
90.0
  7
KAIGAI
100
AcDbText
  0
TEXT
  5
1A17
330
1F
100
AcDbEntity
  8
NOTE
100
AcDbText
 10
2134.006189553776
 20
-913.4170901619619
 30
0.0
 40
45.0
  1
connecting port
 50
90.0
  7
KAIGAI
100
AcDbText
  0
TEXT
  5
1A18
330
1F
100
AcDbEntity
  8
NOTE
100
AcDbText
 10
2207.586679136211
 20
-877.6029304630101
 30
0.0
 40
45.0
  1
(Material:PP）
 50
90.0
  7
KAIGAI
100
AcDbText
  0
TEXT
  5
1A19
330
1F
100
AcDbEntity
  8
NOTE
100
AcDbText
 10
2075.605244790101
 20
-913.4170901619619
 30
0.0
 40
45.0
  1
Drain pipe
 50
90.0
  7
KAIGAI
100
AcDbText
  0
LINE
  5
1A1A
330
1F
100
AcDbEntity
  8
NOTE
100
AcDbLine
 10
2611.657319740068
 20
950.3199999999953
 30
0.0
 11
2611.657319740068
 21
345.9699999999932
 31
0.0
  0
LINE
  5
1A1B
330
1F
100
AcDbEntity
  8
NOTE
100
AcDbLine
 10
2429.987319740068
 20
262.9999999999938
 30
0.0
 11
2460.827319740068
 21
288.4699999999913
 31
0.0
  0
LINE
  5
1A1C
330
1F
100
AcDbEntity
  8
NOTE
100
AcDbLine
 10
2611.657319740068
 20
345.9699999999932
 30
0.0
 11
2429.987319740068
 21
262.9999999999938
 31
0.0
  0
TEXT
  5
1A1D
330
1F
100
AcDbEntity
  8
NOTE
100
AcDbText
 10
2596.933906156698
 20
342.0426760013615
 30
0.0
 40
45.0
  1
Take-in port of wiring
 50
90.0
 41
0.9200000000000001
  7
KAIGAI
100
AcDbText
  0
TEXT
  5
1A20
330
1F
100
AcDbEntity
  8
NOTE
100
AcDbText
 10
-1933.063655173617
 20
268.6479112941715
 30
0.0
 40
45.0
  1
Unit external dimension
 50
270.0
 41
1.04
  7
KAIGAI
100
AcDbText
  0
TEXT
  5
1A22
330
1F
100
AcDbEntity
  8
NOTE
100
AcDbText
 10
-2555.119497931635
 20
-399.6800517432337
 30
0.0
 40
45.0
  1
Knockout square hole
 50
270.0
 41
1.04
  7
KAIGAI
100
AcDbText
  0
LINE
  5
1A23
330
1F
100
AcDbEntity
  8
NOTE
100
AcDbLine
 10
-2354.1835766169
 20
-196.8238310631786
 30
0.0
 11
-2336.104434464608
 21
-186.7310947441255
 31
0.0
  0
LINE
  5
1A24
330
1F
100
AcDbEntity
  8
NOTE
100
AcDbLine
 10
-2336.104434464608
 20
-186.7310947441255
 30
0.0
 11
-2346.715062768256
 21
-204.5112318181327
 31
0.0
  0
LINE
  5
1A25
330
1F
100
AcDbEntity
  8
NOTE
100
AcDbLine
 10
-2336.104434464608
 20
-186.7310947441255
 30
0.0
 11
-2350.449319692577
 21
-200.6675314406566
 31
0.0
  0
LINE
  5
1A26
330
1F
100
AcDbEntity
  8
NOTE
100
AcDbLine
 10
-2350.449319692577
 20
-200.6675314406566
 30
0.0
 11
-2561.883179153927
 21
-406.0811371306372
 31
0.0
1001
ACAD
1000
DSTYLE
1002
{
1070
   147
1040
10.0
1070
    77
1070
     0
1002
}
  0
LINE
  5
1A27
330
1F
100
AcDbEntity
  8
NOTE
100
AcDbLine
 10
-2561.883179153927
 20
-406.0811371306372
 30
0.0
 11
-2561.883179153927
 21
-1045.686830197275
 31
0.0
1001
ACAD
1000
DSTYLE
1002
{
1070
   147
1040
10.0
1070
    77
1070
     0
1002
}
  0
TEXT
  5
1A29
330
1F
100
AcDbEntity
  8
NOTE
100
AcDbText
 10
-1946.118348039428
 20
1212.939590614639
 30
0.0
 40
45.0
  1
Knockout square hole
 50
270.0
 41
1.04
  7
KAIGAI
100
AcDbText
  0
LINE
  5
1A2A
330
1F
100
AcDbEntity
  8
NOTE
100
AcDbLine
 10
-2304.363384725944
 20
28.11842313179113
 30
0.0
 11
-2319.581337916879
 21
14.07803111279281
 31
0.0
  0
LINE
  5
1A2B
330
1F
100
AcDbEntity
  8
NOTE
100
AcDbLine
 10
-2319.581337916879
 20
14.07803111279281
 30
0.0
 11
-2313.422399779747
 21
33.84634384786477
 31
0.0
  0
LINE
  5
1A2C
330
1F
100
AcDbEntity
  8
NOTE
100
AcDbLine
 10
-2319.581337916879
 20
14.07803111279281
 30
0.0
 11
-2308.892892252846
 21
30.98238348982886
 31
0.0
  0
LINE
  5
1A2D
330
1F
100
AcDbEntity
  8
NOTE
100
AcDbLine
 10
-2308.892892252846
 20
30.98238348982886
 30
0.0
 11
-1968.89963281343
 21
568.7000315030127
 31
0.0
1001
ACAD
1000
DSTYLE
1002
{
1070
   147
1040
10.0
1070
    77
1070
     0
1002
}
  0
LINE
  5
1A2E
330
1F
100
AcDbEntity
  8
NOTE
100
AcDbLine
 10
-1968.89963281343
 20
568.7000315030127
 30
0.0
 11
-1968.89963281343
 21
1256.170580901507
 31
0.0
1001
ACAD
1000
DSTYLE
1002
{
1070
   147
1040
10.0
1070
    77
1070
     0
1002
}
  0
ENDSEC
  0
SECTION
  2
OBJECTS
  0
DICTIONARY
  5
C
330
0
100
AcDbDictionary
  3
ACAD_GROUP
350
D
  3
ACAD_LAYOUT
350
1A
  3
ACAD_MLINESTYLE
350
17
  3
ACAD_PLOTSETTINGS
350
19
1001
ACAD
1000
TREAT_AS_HARD
1070
     0
  0
DICTIONARY
  5
2B
330
2
100
AcDbDictionary
  3
ACAD_LAYERFILTERS
350
2C
  3
ACAD_LAYERSTATES
350
41
1001
ACAD
1000
TREAT_AS_HARD
1070
     1
  0
DICTIONARY
  5
BA9
330
1F
100
AcDbDictionary
  3
ACAD_LAYOUTSELFREF
350
1A3B
  3
ACAD_SORTENTS
350
BAA
1001
ACAD
1000
TREAT_AS_HARD
1070
     1
  0
DICTIONARY
  5
1A39
330
1B
100
AcDbDictionary
  3
ACAD_LAYOUTSELFREF
350
1A3A
  0
DICTIONARY
  5
D
102
{ACAD_REACTORS
330
C
102
}
330
C
100
AcDbDictionary
1001
ACAD
1000
TREAT_AS_HARD
1070
     0
  0
DICTIONARY
  5
1A
102
{ACAD_REACTORS
330
C
102
}
330
C
100
AcDbDictionary
1001
ACAD
1000
TREAT_AS_HARD
1070
     0
  0
DICTIONARY
  5
17
102
{ACAD_REACTORS
330
C
102
}
330
C
100
AcDbDictionary
  3
STANDARD
350
18
1001
ACAD
1000
TREAT_AS_HARD
1070
     0
  0
DICTIONARY
  5
19
102
{ACAD_REACTORS
330
C
102
}
330
C
100
AcDbDictionary
1001
ACAD
1000
TREAT_AS_HARD
1070
     0
  0
DICTIONARY
  5
2C
102
{ACAD_REACTORS
330
2B
102
}
330
2B
100
AcDbDictionary
  3
MOTO
350
2D
  3
元図
350
2E
1001
ACAD
1000
TREAT_AS_HARD
1070
     1
  0
DICTIONARY
  5
41
102
{ACAD_REACTORS
330
2B
102
}
330
2B
100
AcDbDictionary
1001
ACAD
1000
TREAT_AS_HARD
1070
     0
  0
XRECORD
  5
1A3B
102
{ACAD_REACTORS
330
BA9
102
}
330
BA9
100
AcDbXrecord
340
1F
  0
SORTENTSTABLE
  5
BAA
102
{ACAD_REACTORS
330
BA9
102
}
330
BA9
100
AcDbSortentsTable
330
1F
331
169F
  5
18D2
331
1565
  5
1565
331
14B6
  5
14B6
331
1528
  5
1528
331
15EA
  5
18A1
331
14F2
  5
14F2
331
14BD
  5
14BD
331
144B
  5
144B
331
140E
  5
140E
331
1480
  5
1480
331
13E7
  5
13E7
331
13EE
  5
13EE
331
118C
  5
118C
331
130A
  5
130A
331
12CD
  5
12CD
331
133F
  5
133F
331
137C
  5
137C
331
13B1
  5
13B1
331
11FA
  5
11FA
331
119D
  5
119D
331
19C7
  5
1A0B
331
194F
  5
19B6
331
1A04
  5
186B
331
18DD
  5
16EB
331
191A
  5
1981
331
198C
  5
1702
331
1921
  5
1988
331
18AF
  5
16BD
331
16D8
  5
190B
331
1715
  5
1946
331
1872
  5
1680
331
18E4
  5
194B
331
154B
  5
154B
331
150E
  5
150E
331
1685
  5
18B8
331
1515
  5
1515
331
14E0
  5
14E0
331
1552
  5
1552
331
146E
  5
146E
331
1431
  5
1431
331
14A3
  5
14A3
331
13D4
  5
13D4
331
1397
  5
1397
331
12B3
  5
12B3
331
121E
  5
121E
331
1325
  5
1325
331
1362
  5
1362
331
1172
  5
1172
331
12BA
  5
12BA
331
1225
  5
1225
331
1A27
  5
1887
331
19EA
  5
1854
331
1972
  5
19D9
331
19AF
  5
19ED
331
19F1
  5
185A
331
1979
  5
19E0
331
1907
  5
196E
331
19B4
  5
19F3
331
193C
  5
19A3
331
1895
  5
16A3
331
16BE
  5
18F1
331
16FB
  5
192E
331
1858
  5
15E2
331
18CA
  5
16D8
331
15F3
  5
18AA
331
1538
  5
1538
331
14C6
  5
14C6
331
1454
  5
1454
331
1417
  5
1417
331
1489
  5
1489
331
14FB
  5
14FB
331
156D
  5
156D
331
13F7
  5
13F7
331
13BA
  5
13BA
331
12D6
  5
12D6
331
1348
  5
1348
331
1385
  5
1385
331
1195
  5
1195
331
1312
  5
1312
331
12DD
  5
12DD
331
1A0D
  5
1871
331
1995
  5
170D
331
120B
  5
120B
331
1A14
  5
1878
331
199C
  5
1714
331
192A
  5
1991
331
19D7
  5
1A1C
331
195F
  5
19C6
331
16E1
  5
1914
331
187B
  5
1689
331
18B8
  5
16C6
331
18ED
  5
1954
331
168E
  5
18C1
331
16AB
  5
18DE
331
16E8
  5
191B
331
15E0
  5
1897
331
155B
  5
155B
331
14E9
  5
14E9
331
1477
  5
1477
331
143A
  5
143A
331
14AC
  5
14AC
331
151E
  5
151E
331
1695
  5
18C8
331
1404
  5
1404
331
1441
  5
1441
331
13DD
  5
13DD
331
13A0
  5
13A0
331
132E
  5
132E
331
136B
  5
136B
331
117B
  5
117B
331
1182
  5
1182
331
1335
  5
1335
331
1300
  5
1300
331
12C3
  5
12C3
331
1372
  5
1372
331
19FA
  5
1863
331
1982
  5
16F8
331
19BD
  5
19FE
331
1945
  5
19AC
331
1910
  5
1977
331
189E
  5
16AC
331
16C7
  5
18FA
331
1861
  5
15EB
331
18D3
  5
16E1
331
1868
  5
15F2
331
16CE
  5
1901
331
170B
  5
193C
331
1541
  5
1541
331
14CF
  5
14CF
331
145D
  5
145D
331
1492
  5
1492
331
1504
  5
1504
331
1576
  5
1576
331
1499
  5
1499
331
1427
  5
1427
331
1464
  5
1464
331
13C3
  5
13C3
331
138D
  5
138D
331
12E6
  5
12E6
331
12A9
  5
12A9
331
1214
  5
1214
331
131B
  5
131B
331
13CA
  5
13CA
331
1A1D
  5
1880
331
19A5
  5
19E2
331
19E0
  5
1A29
331
18F6
  5
195D
331
1933
  5
199A
331
1968
  5
19CF
331
1884
  5
1692
331
16B4
  5
18E7
331
16F1
  5
1924
331
188B
  5
1699
331
18C0
  5
16CE
331
169E
  5
18D1
331
1564
  5
1564
331
14B5
  5
14B5
331
1527
  5
1527
331
15E9
  5
18A0
331
14F1
  5
14F1
331
147F
  5
147F
331
144A
  5
144A
331
14BC
  5
14BC
331
140D
  5
140D
331
13E6
  5
13E6
331
13ED
  5
13ED
331
118B
  5
118B
331
1309
  5
1309
331
12CC
  5
12CC
331
1237
  5
1237
331
133E
  5
133E
331
137B
  5
137B
331
13B0
  5
13B0
331
11F9
  5
11F9
331
119C
  5
119C
331
19C6
  5
1A0A
331
194E
  5
19B5
331
1A03
  5
186A
331
18DC
  5
16EA
331
1919
  5
1980
331
198B
  5
1701
331
18A7
  5
16B5
331
1920
  5
1987
331
18AE
  5
16BC
331
1714
  5
1945
331
16D7
  5
190A
331
1871
  5
167F
331
18E3
  5
194A
331
154A
  5
154A
331
150D
  5
150D
331
1684
  5
18B7
331
1514
  5
1514
331
14DF
  5
14DF
331
1551
  5
1551
331
146D
  5
146D
331
1430
  5
1430
331
14A2
  5
14A2
331
13D3
  5
13D3
331
1396
  5
1396
331
12B2
  5
12B2
331
121D
  5
121D
331
1324
  5
1324
331
1361
  5
1361
331
1171
  5
1171
331
12B9
  5
12B9
331
1224
  5
1224
331
1A26
  5
1886
331
19E9
  5
1853
331
18FF
  5
1966
331
1971
  5
19D8
331
19AE
  5
19EC
331
1978
  5
19DF
331
1906
  5
196D
331
19B3
  5
19F2
331
193B
  5
19A2
331
1894
  5
16A2
331
16BD
  5
18F0
331
16FA
  5
192D
331
1857
  5
15E1
331
18C9
  5
16D7
331
16A7
  5
18DA
331
15F2
  5
18A9
331
156C
  5
156C
331
1537
  5
1537
331
14C5
  5
14C5
331
1453
  5
1453
331
1416
  5
1416
331
1488
  5
1488
331
14FA
  5
14FA
331
13F6
  5
13F6
331
13B9
  5
13B9
331
12D5
  5
12D5
331
1347
  5
1347
331
1384
  5
1384
331
1194
  5
1194
331
1311
  5
1311
331
1A0C
  5
1870
331
1994
  5
170C
331
12DC
  5
12DC
331
19CF
  5
1A13
331
1957
  5
19BE
331
1A13
  5
1877
331
199B
  5
1713
331
1929
  5
1990
331
19D6
  5
1A1B
331
195E
  5
19C5
331
16E0
  5
1913
331
187A
  5
1688
331
18B7
  5
16C5
331
18EC
  5
1953
331
168D
  5
18C0
331
16AA
  5
18DD
331
15DF
  5
1896
331
155A
  5
155A
331
14E8
  5
14E8
331
1476
  5
1476
331
1439
  5
1439
331
14AB
  5
14AB
331
151D
  5
151D
331
1694
  5
18C7
331
1403
  5
1403
331
1440
  5
1440
331
13DC
  5
13DC
331
139F
  5
139F
331
132D
  5
132D
331
136A
  5
136A
331
117A
  5
117A
331
1181
  5
1181
331
1334
  5
1334
331
12FF
  5
12FF
331
12C2
  5
12C2
331
11E8
  5
11E8
331
1371
  5
1371
331
19F9
  5
1862
331
1981
  5
16F7
331
1A2E
  5
188D
331
190F
  5
1976
331
19BC
  5
19FC
331
1944
  5
19AB
331
189D
  5
16AB
331
16C6
  5
18F9
331
1703
  5
1936
331
1860
  5
15EA
331
18D2
  5
16E0
331
16CD
  5
1900
331
170A
  5
193B
331
1540
  5
1540
331
14CE
  5
14CE
331
145C
  5
145C
331
141F
  5
141F
331
1491
  5
1491
331
1503
  5
1503
331
1575
  5
1575
331
1498
  5
1498
331
1426
  5
1426
331
1463
  5
1463
331
13FF
  5
13FF
331
13C2
  5
13C2
331
138C
  5
138C
331
12E5
  5
12E5
331
12A8
  5
12A8
331
1213
  5
1213
331
131A
  5
131A
331
13C9
  5
13C9
331
1A1C
  5
187F
331
19A4
  5
1850
331
19DF
  5
1A27
331
1967
  5
19CE
331
18F5
  5
195C
331
1932
  5
1999
331
1883
  5
1691
331
16B3
  5
18E6
331
16F0
  5
1923
331
188A
  5
1698
331
169D
  5
18D0
331
1563
  5
1563
331
14B4
  5
14B4
331
1526
  5
1526
331
15E8
  5
189F
331
14F0
  5
14F0
331
147E
  5
147E
331
1449
  5
1449
331
14BB
  5
14BB
331
140C
  5
140C
331
13E5
  5
13E5
331
13AF
  5
13AF
331
118A
  5
118A
331
1308
  5
1308
331
12CB
  5
12CB
331
1236
  5
1236
331
133D
  5
133D
331
137A
  5
137A
331
13EC
  5
13EC
331
119B
  5
119B
331
19C5
  5
1A09
331
194D
  5
19B4
331
1A02
  5
1869
331
18DB
  5
16E9
331
1918
  5
197F
331
198A
  5
1700
331
18A6
  5
16B4
331
18AD
  5
16BB
331
1713
  5
1944
331
16D6
  5
1909
331
1870
  5
167E
331
18E2
  5
16F0
331
1549
  5
1549
331
14D7
  5
14D7
331
150C
  5
150C
331
1683
  5
18B6
331
1513
  5
1513
331
14DE
  5
14DE
331
1550
  5
1550
331
146C
  5
146C
331
142F
  5
142F
331
14A1
  5
14A1
331
13D2
  5
13D2
331
1395
  5
1395
331
12B1
  5
12B1
331
11C7
  5
11C7
331
121C
  5
121C
331
1323
  5
1323
331
1360
  5
1360
331
1170
  5
1170
331
12B8
  5
12B8
331
11CE
  5
11CE
331
1223
  5
1223
331
1A25
  5
1885
331
19E8
  5
1852
331
18FE
  5
1965
331
1970
  5
19D7
331
19AD
  5
19EB
331
1905
  5
196C
331
19B2
  5
19F1
331
193A
  5
19A1
331
1893
  5
16A1
331
16BC
  5
18EF
331
16F9
  5
192C
331
1856
  5
15E0
331
18C8
  5
16D6
331
16A6
  5
18D9
331
152F
  5
152F
331
15F1
  5
18A8
331
156B
  5
156B
331
15F8
  5
18AF
331
1536
  5
1536
331
14C4
  5
14C4
331
1452
  5
1452
331
1415
  5
1415
331
1487
  5
1487
331
14F9
  5
14F9
331
13F5
  5
13F5
331
13B8
  5
13B8
331
12D4
  5
12D4
331
1346
  5
1346
331
1383
  5
1383
331
1193
  5
1193
331
1310
  5
1310
331
1A0B
  5
186F
331
1993
  5
170B
331
12DB
  5
12DB
331
19CE
  5
1A12
331
1956
  5
19BD
331
1A12
  5
1876
331
199A
  5
1712
331
1928
  5
198F
331
19D5
  5
1A1A
331
195D
  5
19C4
331
16DF
  5
1912
331
1879
  5
1687
331
18B6
  5
16C4
331
18EB
  5
1952
331
16A9
  5
18DC
331
168C
  5
18BF
331
15D7
  5
188E
331
15DE
  5
1895
331
1559
  5
1559
331
14E7
  5
14E7
331
1475
  5
1475
331
1438
  5
1438
331
14AA
  5
14AA
331
151C
  5
151C
331
1693
  5
18C6
331
1402
  5
1402
331
13DB
  5
13DB
331
139E
  5
139E
331
12F7
  5
12F7
331
132C
  5
132C
331
1369
  5
1369
331
1179
  5
1179
331
1180
  5
1180
331
1333
  5
1333
331
12FE
  5
12FE
331
12C1
  5
12C1
331
1370
  5
1370
331
19F8
  5
1861
331
1980
  5
16F6
331
1A2D
  5
188C
331
190E
  5
1975
331
19BB
  5
19FA
331
1943
  5
19AA
331
189C
  5
16AA
331
16C5
  5
18F8
331
1702
  5
1935
331
185F
  5
15E9
331
18D1
  5
16DF
331
16CC
  5
18FF
331
1709
  5
193A
331
14CD
  5
14CD
331
145B
  5
145B
331
141E
  5
141E
331
1490
  5
1490
331
1502
  5
1502
331
1574
  5
1574
331
1425
  5
1425
331
1462
  5
1462
331
13FE
  5
13FE
331
134F
  5
134F
331
13C1
  5
13C1
331
138B
  5
138B
331
12E4
  5
12E4
331
12A7
  5
12A7
331
1212
  5
1212
331
1319
  5
1319
331
13C8
  5
13C8
331
1A1B
  5
187E
331
19A3
  5
184F
331
19DE
  5
1A26
331
1966
  5
19CD
331
18BF
  5
16CD
331
18F4
  5
195B
331
1931
  5
1998
331
1882
  5
1690
331
16B2
  5
18E5
331
16EF
  5
1922
331
1889
  5
1697
331
169C
  5
18CF
331
1562
  5
1562
331
14B3
  5
14B3
331
1525
  5
1525
331
15E7
  5
189E
331
147D
  5
147D
331
1448
  5
1448
331
14BA
  5
14BA
331
140B
  5
140B
331
13E4
  5
13E4
331
13A7
  5
13A7
331
13AE
  5
13AE
331
1189
  5
1189
331
1307
  5
1307
331
12CA
  5
12CA
331
1235
  5
1235
331
133C
  5
133C
331
1379
  5
1379
331
13EB
  5
13EB
331
119A
  5
119A
331
19C4
  5
1A05
331
194C
  5
19B3
331
1A01
  5
1868
331
18DA
  5
16E8
331
1917
  5
197E
331
1989
  5
16FF
331
18A5
  5
16B3
331
18AC
  5
16BA
331
1712
  5
1943
331
16D5
  5
1908
331
186F
  5
167D
331
18E1
  5
16EF
331
1548
  5
1548
331
14D6
  5
14D6
331
150B
  5
150B
331
1682
  5
18B5
331
1512
  5
1512
331
14DD
  5
14DD
331
146B
  5
146B
331
142E
  5
142E
331
14A0
  5
14A0
331
13D1
  5
13D1
331
12ED
  5
12ED
331
12B0
  5
12B0
331
11C6
  5
11C6
331
121B
  5
121B
331
1322
  5
1322
331
135F
  5
135F
331
1394
  5
1394
331
11CD
  5
11CD
331
1222
  5
1222
331
1A24
  5
1884
331
19E7
  5
1851
331
18FD
  5
1964
331
196F
  5
19D6
331
19AC
  5
19EA
331
1904
  5
196B
331
19B1
  5
19EF
331
1939
  5
19A0
331
1892
  5
16A0
331
16BB
  5
18EE
331
16F8
  5
192B
331
1855
  5
15DF
331
18C7
  5
16D5
331
16A5
  5
18D8
331
152E
  5
152E
331
15F0
  5
18A7
331
156A
  5
156A
331
1535
  5
1535
331
14C3
  5
14C3
331
1451
  5
1451
331
1414
  5
1414
331
1486
  5
1486
331
14F8
  5
14F8
331
13F4
  5
13F4
331
13B7
  5
13B7
331
12D3
  5
12D3
331
1345
  5
1345
331
1382
  5
1382
331
1192
  5
1192
331
1A0A
  5
186E
331
1992
  5
170A
331
12DA
  5
12DA
331
19CD
  5
1A11
331
1955
  5
19BC
331
1A11
  5
1875
331
1999
  5
1711
331
1927
  5
198E
331
19D4
  5
1A19
331
195C
  5
19C3
331
1878
  5
1686
331
16DE
  5
1911
331
171B
  5
15D8
331
18B5
  5
16C3
331
18EA
  5
1951
331
16A8
  5
18DB
331
168B
  5
18BE
331
1692
  5
18C5
331
15DD
  5
1894
331
1558
  5
1558
331
14E6
  5
14E6
331
1474
  5
1474
331
1437
  5
1437
331
14A9
  5
14A9
331
151B
  5
151B
331
1401
  5
1401
331
13DA
  5
13DA
331
139D
  5
139D
331
12F6
  5
12F6
331
132B
  5
132B
331
1368
  5
1368
331
1178
  5
1178
331
1332
  5
1332
331
12FD
  5
12FD
331
11E6
  5
11E6
331
12C0
  5
12C0
331
19F7
  5
1860
331
197F
  5
16F5
331
1A2C
  5
188B
331
190D
  5
1974
331
19BA
  5
19F9
331
1942
  5
19A9
331
189B
  5
16A9
331
16C4
  5
18F7
331
1701
  5
1934
331
185E
  5
15E8
331
18D0
  5
16DE
331
16CB
  5
18FE
331
1708
  5
1939
331
153E
  5
153E
331
14CC
  5
14CC
331
145A
  5
145A
331
141D
  5
141D
331
148F
  5
148F
331
1501
  5
1501
331
1573
  5
1573
331
1424
  5
1424
331
1461
  5
1461
331
13FD
  5
13FD
331
134E
  5
134E
331
13C0
  5
13C0
331
138A
  5
138A
331
12E3
  5
12E3
331
12A6
  5
12A6
331
1211
  5
1211
331
1318
  5
1318
331
1355
  5
1355
331
1A1A
  5
187D
331
19A2
  5
171E
331
19DD
  5
1A25
331
1965
  5
19CC
331
16E7
  5
191A
331
1881
  5
168F
331
18BE
  5
16CC
331
18F3
  5
195A
331
1930
  5
1997
331
16B1
  5
18E4
331
16EE
  5
1921
331
1888
  5
1696
331
169B
  5
18CE
331
1561
  5
1561
331
14EF
  5
14EF
331
14B2
  5
14B2
331
1524
  5
1524
331
15E6
  5
189D
331
147C
  5
147C
331
1447
  5
1447
331
14B9
  5
14B9
331
140A
  5
140A
331
13E3
  5
13E3
331
13A6
  5
13A6
331
13AD
  5
13AD
331
1188
  5
1188
331
1306
  5
1306
331
12C9
  5
12C9
331
1234
  5
1234
331
133B
  5
133B
331
1378
  5
1378
331
13EA
  5
13EA
331
1199
  5
1199
331
19C3
  5
1A04
331
194B
  5
19B2
331
1A00
  5
1867
331
18D9
  5
16E7
331
1916
  5
197D
331
1988
  5
16FE
331
1867
  5
15F1
331
18A4
  5
16B2
331
18AB
  5
16B9
331
1711
  5
1942
331
16D4
  5
1907
331
186E
  5
15F8
331
18E0
  5
16EE
331
1547
  5
1547
331
14D5
  5
14D5
331
150A
  5
150A
331
1681
  5
18B4
331
1511
  5
1511
331
149F
  5
149F
331
146A
  5
146A
331
14DC
  5
14DC
331
142D
  5
142D
331
13D0
  5
13D0
331
12EC
  5
12EC
331
12AF
  5
12AF
331
121A
  5
121A
331
1321
  5
1321
331
135E
  5
135E
331
1393
  5
1393
331
11CC
  5
11CC
331
1221
  5
1221
331
1A23
  5
1883
331
18FC
  5
1963
331
196E
  5
19D5
331
19AB
  5
19E9
331
1903
  5
196A
331
19B0
  5
19EE
331
1938
  5
199F
331
1891
  5
169F
331
16BA
  5
18ED
331
16F7
  5
192A
331
1854
  5
15DE
331
18C6
  5
16D4
331
16A4
  5
18D7
331
152D
  5
152D
331
15EF
  5
18A6
331
14F7
  5
14F7
331
1569
  5
1569
331
14C2
  5
14C2
331
1450
  5
1450
331
1413
  5
1413
331
1485
  5
1485
331
13F3
  5
13F3
331
13B6
  5
13B6
331
130F
  5
130F
331
12D2
  5
12D2
331
1344
  5
1344
331
1381
  5
1381
331
1191
  5
1191
331
1A09
  5
186D
331
1991
  5
1709
331
12D9
  5
12D9
331
191F
  5
1986
331
19CC
  5
1A10
331
1954
  5
19BB
331
1A10
  5
1874
331
1998
  5
1710
331
1926
  5
198D
331
19D3
  5
1A18
331
195B
  5
19C2
331
18B4
  5
16C2
331
16DD
  5
1910
331
171A
  5
15D7
331
1877
  5
1685
331
18E9
  5
1950
331
168A
  5
18BD
331
1691
  5
18C4
331
15DC
  5
1893
331
1557
  5
1557
331
14E5
  5
14E5
331
1473
  5
1473
331
1436
  5
1436
331
14A8
  5
14A8
331
151A
  5
151A
331
1400
  5
1400
331
13D9
  5
13D9
331
139C
  5
139C
331
132A
  5
132A
331
1367
  5
1367
331
1177
  5
1177
331
1331
  5
1331
331
12BF
  5
12BF
331
19EF
  5
1859
331
1977
  5
19DE
331
12FC
  5
12FC
331
19F6
  5
185F
331
197E
  5
16F4
331
1A2B
  5
188A
331
190C
  5
1973
331
19B9
  5
19F8
331
1941
  5
19A8
331
189A
  5
16A8
331
16C3
  5
18F6
331
1700
  5
1933
331
185D
  5
15E7
331
18CF
  5
16DD
331
16CA
  5
18FD
331
153D
  5
153D
331
14CB
  5
14CB
331
1459
  5
1459
331
141C
  5
141C
331
148E
  5
148E
331
1500
  5
1500
331
1572
  5
1572
331
1423
  5
1423
331
1460
  5
1460
331
13FC
  5
13FC
331
134D
  5
134D
331
13BF
  5
13BF
331
1389
  5
1389
331
1317
  5
1317
331
12E2
  5
12E2
331
12A5
  5
12A5
331
1210
  5
1210
331
1354
  5
1354
331
1A19
  5
187C
331
19A1
  5
171B
331
192F
  5
1996
331
19DC
  5
1A24
331
1964
  5
19CB
331
16E6
  5
1919
331
1880
  5
168E
331
18BD
  5
16CB
331
18F2
  5
1959
331
16B0
  5
18E3
331
16ED
  5
1920
331
169A
  5
18CD
331
1560
  5
1560
331
14EE
  5
14EE
331
143F
  5
143F
331
14B1
  5
14B1
331
1523
  5
1523
331
15E5
  5
189C
331
147B
  5
147B
331
1446
  5
1446
331
14B8
  5
14B8
331
1409
  5
1409
331
13E2
  5
13E2
331
13A5
  5
13A5
331
13AC
  5
13AC
331
1187
  5
1187
331
1305
  5
1305
331
12C8
  5
12C8
331
1233
  5
1233
331
133A
  5
133A
331
1377
  5
1377
331
13E9
  5
13E9
331
19FF
  5
1866
331
1987
  5
16FD
331
19C2
  5
1A03
331
194A
  5
19B1
331
1198
  5
1198
331
18D8
  5
16E6
331
1915
  5
197C
331
1866
  5
15F0
331
18A3
  5
16B1
331
18AA
  5
16B8
331
1710
  5
1941
331
16D3
  5
1906
331
186D
  5
15F7
331
1546
  5
1546
331
14D4
  5
14D4
331
1497
  5
1497
331
1509
  5
1509
331
1680
  5
18B3
331
1510
  5
1510
331
149E
  5
149E
331
1469
  5
1469
331
14DB
  5
14DB
331
142C
  5
142C
331
13CF
  5
13CF
331
12EB
  5
12EB
331
12AE
  5
12AE
331
1219
  5
1219
331
1320
  5
1320
331
135D
  5
135D
331
1392
  5
1392
331
11CB
  5
11CB
331
1220
  5
1220
331
1A22
  5
1882
331
19E5
  5
1A2E
331
18FB
  5
1962
331
196D
  5
19D4
331
19AA
  5
19E8
331
1902
  5
1969
331
1890
  5
169E
331
16B9
  5
18EC
331
16F6
  5
1929
331
1853
  5
15DD
331
18C5
  5
16D3
331
16A3
  5
18D6
331
152C
  5
152C
331
15EE
  5
18A5
331
14F6
  5
14F6
331
1568
  5
1568
331
14C1
  5
14C1
331
144F
  5
144F
331
1412
  5
1412
331
1484
  5
1484
331
13F2
  5
13F2
331
13B5
  5
13B5
331
130E
  5
130E
331
12D1
  5
12D1
331
1343
  5
1343
331
11F7
  5
11F7
331
1380
  5
1380
331
1190
  5
1190
331
1990
  5
1708
331
12D8
  5
12D8
331
191E
  5
1985
331
19CB
  5
1A0F
331
1953
  5
19BA
331
1925
  5
198C
331
19D2
  5
1A17
331
195A
  5
19C1
331
18B3
  5
16C1
331
16DC
  5
190F
331
1876
  5
1684
331
18E8
  5
194F
331
1689
  5
18BC
331
154F
  5
154F
331
1690
  5
18C3
331
15DB
  5
1892
331
1556
  5
1556
331
14E4
  5
14E4
331
1472
  5
1472
331
1435
  5
1435
331
14A7
  5
14A7
331
1519
  5
1519
331
13D8
  5
13D8
331
139B
  5
139B
331
12B7
  5
12B7
331
1329
  5
1329
331
1366
  5
1366
331
1176
  5
1176
331
1330
  5
1330
331
12BE
  5
12BE
331
12FB
  5
12FB
331
19EE
  5
1858
331
1976
  5
19DD
331
1229
  5
1229
331
19F5
  5
185E
331
197D
  5
16F3
331
1A2A
  5
1889
331
190B
  5
1972
331
19B8
  5
19F7
331
1940
  5
19A7
331
1899
  5
16A7
331
16C2
  5
18F5
331
16FF
  5
1932
331
185C
  5
15E6
331
18CE
  5
16DC
331
15F7
  5
18AE
331
16C9
  5
18FC
331
153C
  5
153C
331
14CA
  5
14CA
331
1458
  5
1458
331
141B
  5
141B
331
148D
  5
148D
331
14FF
  5
14FF
331
1571
  5
1571
331
1422
  5
1422
331
13FB
  5
13FB
331
134C
  5
134C
331
13BE
  5
13BE
331
1388
  5
1388
331
1316
  5
1316
331
12E1
  5
12E1
331
12A4
  5
12A4
331
120F
  5
120F
331
1353
  5
1353
331
1A18
  5
187B
331
19A0
  5
171A
331
192E
  5
1995
331
19DB
  5
1A23
331
1963
  5
19CA
331
16E5
  5
1918
331
187F
  5
168D
331
18BC
  5
16CA
331
18F1
  5
1958
331
16AF
  5
18E2
331
16EC
  5
191F
331
1699
  5
18CC
331
155F
  5
155F
331
14ED
  5
14ED
331
143E
  5
143E
331
14B0
  5
14B0
331
1522
  5
1522
331
15E4
  5
189B
331
147A
  5
147A
331
1445
  5
1445
331
1408
  5
1408
331
13E1
  5
13E1
331
13A4
  5
13A4
331
136F
  5
136F
331
117F
  5
117F
331
13AB
  5
13AB
331
1186
  5
1186
331
1304
  5
1304
331
12C7
  5
12C7
331
1339
  5
1339
331
1376
  5
1376
331
13E8
  5
13E8
331
19FE
  5
1865
331
1986
  5
16FC
331
19C1
  5
1A02
331
1949
  5
19B0
331
1914
  5
197B
331
18D7
  5
16E5
331
1865
  5
15EF
331
18A2
  5
16B0
331
18A9
  5
16B7
331
16D2
  5
1905
331
170F
  5
1940
331
186C
  5
15F6
331
1545
  5
1545
331
14D3
  5
14D3
331
1496
  5
1496
331
1508
  5
1508
331
167F
  5
18B2
331
149D
  5
149D
331
1468
  5
1468
331
14DA
  5
14DA
331
142B
  5
142B
331
13C7
  5
13C7
331
13CE
  5
13CE
331
12EA
  5
12EA
331
12AD
  5
12AD
331
1218
  5
1218
331
131F
  5
131F
331
135C
  5
135C
331
1391
  5
1391
331
11CA
  5
11CA
331
19E4
  5
1A2D
331
18FA
  5
1961
331
1937
  5
199E
331
196C
  5
19D3
331
19A9
  5
19E7
331
1901
  5
1968
331
188F
  5
169D
331
16B8
  5
18EB
331
16F5
  5
1928
331
1852
  5
15DC
331
18C4
  5
16D2
331
16A2
  5
18D5
331
152B
  5
152B
331
15ED
  5
18A4
331
14F5
  5
14F5
331
14C0
  5
14C0
331
144E
  5
144E
331
1411
  5
1411
331
1483
  5
1483
331
13F1
  5
13F1
331
118F
  5
118F
331
130D
  5
130D
331
12D0
  5
12D0
331
1342
  5
1342
331
11F6
  5
11F6
331
137F
  5
137F
331
13B4
  5
13B4
331
11A0
  5
11A0
331
198F
  5
1707
331
191D
  5
1984
331
19CA
  5
1A0E
331
1952
  5
19B9
331
1924
  5
198B
331
19D1
  5
1A16
331
1959
  5
19C0
331
18B2
  5
16C0
331
16DB
  5
190E
331
1875
  5
1683
331
18E7
  5
194E
331
1688
  5
18BB
331
154E
  5
154E
331
15DA
  5
1891
331
1555
  5
1555
331
14E3
  5
14E3
331
1471
  5
1471
331
1434
  5
1434
331
14A6
  5
14A6
331
1518
  5
1518
331
139A
  5
139A
331
12B6
  5
12B6
331
1328
  5
1328
331
1365
  5
1365
331
1175
  5
1175
331
12BD
  5
12BD
331
12FA
  5
12FA
331
19ED
  5
1857
331
1975
  5
19DC
331
1228
  5
1228
331
19F4
  5
185D
331
197C
  5
16F2
331
1A29
  5
1888
331
190A
  5
1971
331
19B7
  5
19F6
331
193F
  5
19A6
331
1898
  5
16A6
331
16C1
  5
18F4
331
16FE
  5
1931
331
185B
  5
15E5
331
18CD
  5
16DB
331
16C8
  5
18FB
331
15F6
  5
18AD
331
153B
  5
153B
331
14C9
  5
14C9
331
1457
  5
1457
331
141A
  5
141A
331
148C
  5
148C
331
14FE
  5
14FE
331
1570
  5
1570
331
1421
  5
1421
331
13FA
  5
13FA
331
134B
  5
134B
331
13BD
  5
13BD
331
1315
  5
1315
331
12E0
  5
12E0
331
12A3
  5
12A3
331
120E
  5
120E
331
1352
  5
1352
331
1A17
  5
187A
331
199F
  5
1717
331
192D
  5
1994
331
19DA
  5
1A22
331
1962
  5
19C9
331
16E4
  5
1917
331
187E
  5
168C
331
18BB
  5
16C9
331
18F0
  5
1957
331
16AE
  5
18E1
331
16EB
  5
191E
331
1698
  5
18CB
331
155E
  5
155E
331
14EC
  5
14EC
331
143D
  5
143D
331
14AF
  5
14AF
331
1521
  5
1521
331
15E3
  5
189A
331
1479
  5
1479
331
1407
  5
1407
331
1444
  5
1444
331
13E0
  5
13E0
331
13A3
  5
13A3
331
136E
  5
136E
331
117E
  5
117E
331
13AA
  5
13AA
331
1185
  5
1185
331
1303
  5
1303
331
12C6
  5
12C6
331
1231
  5
1231
331
1338
  5
1338
331
1375
  5
1375
331
1985
  5
16FB
331
19C0
  5
1A01
331
1948
  5
19AF
331
1913
  5
197A
331
18D6
  5
16E4
331
1864
  5
15EE
331
1707
  5
1938
331
18A1
  5
16AF
331
18A8
  5
16B6
331
16D1
  5
1904
331
170E
  5
193F
331
186B
  5
15F5
331
1544
  5
1544
331
14D2
  5
14D2
331
1495
  5
1495
331
1507
  5
1507
331
1579
  5
1579
331
167E
  5
18B1
331
149C
  5
149C
331
1467
  5
1467
331
14D9
  5
14D9
331
142A
  5
142A
331
13C6
  5
13C6
331
13CD
  5
13CD
331
12E9
  5
12E9
331
12AC
  5
12AC
331
1217
  5
1217
331
131E
  5
131E
331
135B
  5
135B
331
1390
  5
1390
331
11C9
  5
11C9
331
1A20
  5
1881
331
19E3
  5
1A2C
331
18F9
  5
1960
331
1936
  5
199D
331
196B
  5
19D2
331
19A8
  5
19E5
331
1887
  5
1695
331
1900
  5
1967
331
188E
  5
169C
331
16B7
  5
18EA
331
16F4
  5
1927
331
1851
  5
15DB
331
18C3
  5
16D1
331
16A1
  5
18D4
331
1567
  5
1567
331
152A
  5
152A
331
15EC
  5
18A3
331
14F4
  5
14F4
331
14BF
  5
14BF
331
1531
  5
1531
331
144D
  5
144D
331
1410
  5
1410
331
1482
  5
1482
331
13F0
  5
13F0
331
118E
  5
118E
331
130C
  5
130C
331
12CF
  5
12CF
331
1341
  5
1341
331
137E
  5
137E
331
13B3
  5
13B3
331
1239
  5
1239
331
119F
  5
119F
331
198E
  5
1706
331
191C
  5
1983
331
19C9
  5
1A0D
331
1951
  5
19B8
331
18DF
  5
16ED
331
1923
  5
198A
331
19D0
  5
1A14
331
1958
  5
19BF
331
18B1
  5
16BF
331
16DA
  5
190D
331
1717
  5
1948
331
1874
  5
1682
331
18E6
  5
194D
331
154D
  5
154D
331
1687
  5
18BA
331
15D9
  5
1890
331
1517
  5
1517
331
14E2
  5
14E2
331
1554
  5
1554
331
1470
  5
1470
331
1433
  5
1433
331
14A5
  5
14A5
331
13D6
  5
13D6
331
1399
  5
1399
331
12B5
  5
12B5
331
1327
  5
1327
331
1364
  5
1364
331
1174
  5
1174
331
12BC
  5
12BC
331
1227
  5
1227
331
19EC
  5
1856
331
1974
  5
19DB
331
12F9
  5
12F9
331
19F3
  5
185C
331
197B
  5
16F1
331
1909
  5
1970
331
19B6
  5
19F5
331
193E
  5
19A5
331
1897
  5
16A5
331
16C0
  5
18F3
331
16FD
  5
1930
331
185A
  5
15E4
331
18CC
  5
16DA
331
15F5
  5
18AC
331
153A
  5
153A
331
14C8
  5
14C8
331
1456
  5
1456
331
1419
  5
1419
331
148B
  5
148B
331
14FD
  5
14FD
331
156F
  5
156F
331
1420
  5
1420
331
13F9
  5
13F9
331
13BC
  5
13BC
331
134A
  5
134A
331
1387
  5
1387
331
1197
  5
1197
331
1314
  5
1314
331
12DF
  5
12DF
331
12A2
  5
12A2
331
1A0F
  5
1873
331
1997
  5
170F
331
11B8
  5
11B8
331
120D
  5
120D
331
1351
  5
1351
331
1A16
  5
1879
331
199E
  5
1716
331
192C
  5
1993
331
19D9
  5
1A20
331
1961
  5
19C8
331
16E3
  5
1916
331
187D
  5
168B
331
18BA
  5
16C8
331
18EF
  5
1956
331
16AD
  5
18E0
331
16EA
  5
191D
331
1697
  5
18CA
331
155D
  5
155D
331
14EB
  5
14EB
331
143C
  5
143C
331
14AE
  5
14AE
331
1520
  5
1520
331
15E2
  5
1899
331
1478
  5
1478
331
1406
  5
1406
331
1443
  5
1443
331
13DF
  5
13DF
331
13A2
  5
13A2
331
136D
  5
136D
331
117D
  5
117D
331
13A9
  5
13A9
331
1184
  5
1184
331
1337
  5
1337
331
1302
  5
1302
331
12C5
  5
12C5
331
1374
  5
1374
331
19FC
  5
1864
331
1984
  5
16FA
331
19BF
  5
1A00
331
1947
  5
19AE
331
1912
  5
1979
331
18A0
  5
16AE
331
1706
  5
1937
331
1863
  5
15ED
331
18D5
  5
16E3
331
186A
  5
15F4
331
16D0
  5
1903
331
170D
  5
193E
331
1543
  5
1543
331
14D1
  5
14D1
331
145F
  5
145F
331
1494
  5
1494
331
1506
  5
1506
331
1578
  5
1578
331
167D
  5
18B0
331
149B
  5
149B
331
1466
  5
1466
331
14D8
  5
14D8
331
1429
  5
1429
331
13C5
  5
13C5
331
138F
  5
138F
331
12E8
  5
12E8
331
12AB
  5
12AB
331
131D
  5
131D
331
135A
  5
135A
331
13CC
  5
13CC
331
19A7
  5
19E4
331
11C8
  5
11C8
331
19E2
  5
1A2B
331
18F8
  5
195F
331
1935
  5
199C
331
196A
  5
19D1
331
1886
  5
1694
331
188D
  5
169B
331
16B6
  5
18E9
331
16F3
  5
1926
331
1850
  5
15DA
331
18C2
  5
16D0
331
16A0
  5
18D3
331
1566
  5
1566
331
14B7
  5
14B7
331
1529
  5
1529
331
15EB
  5
18A2
331
14F3
  5
14F3
331
14BE
  5
14BE
331
1530
  5
1530
331
144C
  5
144C
331
140F
  5
140F
331
1481
  5
1481
331
13EF
  5
13EF
331
118D
  5
118D
331
130B
  5
130B
331
12CE
  5
12CE
331
1340
  5
1340
331
11F4
  5
11F4
331
137D
  5
137D
331
13B2
  5
13B2
331
11FB
  5
11FB
331
1238
  5
1238
331
119E
  5
119E
331
1A05
  5
186C
331
198D
  5
1703
331
18DE
  5
16EC
331
191B
  5
1982
331
19C8
  5
1A0C
331
1950
  5
19B7
331
1922
  5
1989
331
18B0
  5
16BE
331
16D9
  5
190C
331
1716
  5
1947
331
1873
  5
1681
331
18E5
  5
194C
331
154C
  5
154C
331
150F
  5
150F
331
1686
  5
18B9
331
15D8
  5
188F
331
1516
  5
1516
331
14E1
  5
14E1
331
1553
  5
1553
331
146F
  5
146F
331
1432
  5
1432
331
14A4
  5
14A4
331
13D5
  5
13D5
331
1398
  5
1398
331
12B4
  5
12B4
331
121F
  5
121F
331
1326
  5
1326
331
1363
  5
1363
331
1173
  5
1173
331
12BB
  5
12BB
331
1226
  5
1226
331
19EB
  5
1855
331
1973
  5
19DA
331
12F8
  5
12F8
331
19F2
  5
185B
331
197A
  5
19E1
331
1908
  5
196F
331
19B5
  5
19F4
331
193D
  5
19A4
331
1896
  5
16A4
331
16BF
  5
18F2
331
16FC
  5
192F
331
1859
  5
15E3
331
18CB
  5
16D9
331
15F4
  5
18AB
331
1539
  5
1539
331
14C7
  5
14C7
331
1455
  5
1455
331
1418
  5
1418
331
148A
  5
148A
331
14FC
  5
14FC
331
156E
  5
156E
331
13F8
  5
13F8
331
13BB
  5
13BB
331
12D7
  5
12D7
331
1349
  5
1349
331
1386
  5
1386
331
1196
  5
1196
331
1313
  5
1313
331
12DE
  5
12DE
331
1A0E
  5
1872
331
1996
  5
170E
331
120C
  5
120C
331
1350
  5
1350
331
199D
  5
1715
331
192B
  5
1992
331
19D8
  5
1A1D
331
1960
  5
19C7
331
16E2
  5
1915
331
187C
  5
168A
331
18B9
  5
16C7
331
18EE
  5
1955
331
168F
  5
18C2
331
16AC
  5
18DF
331
16E9
  5
191C
331
1696
  5
18C9
331
155C
  5
155C
331
14EA
  5
14EA
331
143B
  5
143B
331
14AD
  5
14AD
331
151F
  5
151F
331
15E1
  5
1898
331
1405
  5
1405
331
1442
  5
1442
331
13DE
  5
13DE
331
13A1
  5
13A1
331
132F
  5
132F
331
136C
  5
136C
331
117C
  5
117C
331
13A8
  5
13A8
331
1183
  5
1183
331
1336
  5
1336
331
1301
  5
1301
331
12C4
  5
12C4
331
1373
  5
1373
331
1983
  5
16F9
331
19BE
  5
19FF
331
1946
  5
19AD
331
1911
  5
1978
331
189F
  5
16AD
331
1862
  5
15EC
331
18D4
  5
16E2
331
1869
  5
15F3
331
16CF
  5
1902
331
170C
  5
193D
331
1542
  5
1542
331
14D0
  5
14D0
331
145E
  5
145E
331
1493
  5
1493
331
1505
  5
1505
331
1577
  5
1577
331
149A
  5
149A
331
1465
  5
1465
331
1428
  5
1428
331
13C4
  5
13C4
331
138E
  5
138E
331
12E7
  5
12E7
331
12AA
  5
12AA
331
1215
  5
1215
331
131C
  5
131C
331
13CB
  5
13CB
331
19A6
  5
19E3
331
19E1
  5
1A2A
331
18F7
  5
195E
331
1934
  5
199B
331
1969
  5
19D0
331
1885
  5
1693
331
188C
  5
169A
331
16B5
  5
18E8
331
16F2
  5
1925
331
184F
  5
15D9
331
18C1
  5
16CF
  0
XRECORD
  5
1A3A
102
{ACAD_REACTORS
330
1A39
102
}
330
1A39
100
AcDbXrecord
340
1B
  0
MLINESTYLE
  5
18
102
{ACAD_REACTORS
330
17
102
}
330
17
100
AcDbMlineStyle
  2
STANDARD
 70
     0
  3

 62
   256
 51
90.0
 52
90.0
 71
     2
 49
0.5
 62
   256
  6
BYLAYER
 49
-0.5
 62
   256
  6
BYLAYER
  0
XRECORD
  5
2D
102
{ACAD_REACTORS
330
2C
102
}
330
2C
100
AcDbXrecord
  1
MOTO
  1
*
  1
*
  1
*
 70
     0
  1
*
  1
*
  0
XRECORD
  5
2E
102
{ACAD_REACTORS
330
2C
102
}
330
2C
100
AcDbXrecord
  1
元図
  1
*
  1
*
  1
*
 70
     0
  1
*
  1
*
  0
ENDSEC
  0
EOF
