  0
SECTION
  2
HEADER
  9
$ACADVER
  1
AC1012
  9
$DWGCODEPAGE
  3
dos932
  9
$INSBASE
 10
0.0
 20
0.0
 30
0.0
  9
$EXTMIN
 10
-2171.505119698957
 20
-3454.374994562269
 30
0.0
  9
$EXTMAX
 10
2454.20440673222
 20
1605.365550322042
 30
0.0
  9
$LIMMIN
 10
0.0
 20
0.0
  9
$LIMMAX
 10
420.0
 20
297.0
  9
$ORTHOMODE
 70
     1
  9
$REGENMODE
 70
     1
  9
$FILLMODE
 70
     1
  9
$QTEXTMODE
 70
     0
  9
$MIRRTEXT
 70
     1
  9
$DRAGMODE
 70
     2
  9
$LTSCALE
 40
1.0
  9
$OSMODE
 70
    37
  9
$ATTMODE
 70
     1
  9
$TEXTSIZE
 40
165.5225194495218
  9
$TRACEWID
 40
1.0
  9
$TEXTSTYLE
  7
KAIGAI
  9
$CLAYER
  8
0
  9
$CELTYPE
  6
BYLAYER
  9
$CECOLOR
 62
   256
  9
$CELTSCALE
 40
1.0
  9
$DELOBJ
 70
     1
  9
$DISPSILH
 70
     0
  9
$DIMSCALE
 40
1.0
  9
$DIMASZ
 40
2.5
  9
$DIMEXO
 40
0.625
  9
$DIMDLI
 40
3.75
  9
$DIMRND
 40
0.0
  9
$DIMDLE
 40
0.0
  9
$DIMEXE
 40
1.25
  9
$DIMTP
 40
0.0
  9
$DIMTM
 40
0.0
  9
$DIMTXT
 40
2.5
  9
$DIMCEN
 40
2.5
  9
$DIMTSZ
 40
0.0
  9
$DIMTOL
 70
     0
  9
$DIMLIM
 70
     0
  9
$DIMTIH
 70
     0
  9
$DIMTOH
 70
     0
  9
$DIMSE1
 70
     0
  9
$DIMSE2
 70
     0
  9
$DIMTAD
 70
     1
  9
$DIMZIN
 70
     8
  9
$DIMBLK
  1

  9
$DIMASO
 70
     1
  9
$DIMSHO
 70
     1
  9
$DIMPOST
  1

  9
$DIMAPOST
  1

  9
$DIMALT
 70
     0
  9
$DIMALTD
 70
     3
  9
$DIMALTF
 40
0.03937007874016
  9
$DIMLFAC
 40
1.0
  9
$DIMTOFL
 70
     1
  9
$DIMTVP
 40
0.0
  9
$DIMTIX
 70
     0
  9
$DIMSOXD
 70
     0
  9
$DIMSAH
 70
     0
  9
$DIMBLK1
  1

  9
$DIMBLK2
  1

  9
$DIMSTYLE
  2
ISO-25
  9
$DIMCLRD
 70
     0
  9
$DIMCLRE
 70
     0
  9
$DIMCLRT
 70
     0
  9
$DIMTFAC
 40
1.0
  9
$DIMGAP
 40
0.625
  9
$DIMJUST
 70
     0
  9
$DIMSD1
 70
     0
  9
$DIMSD2
 70
     0
  9
$DIMTOLJ
 70
     0
  9
$DIMTZIN
 70
     8
  9
$DIMALTZ
 70
     0
  9
$DIMALTTZ
 70
     0
  9
$DIMFIT
 70
     3
  9
$DIMUPT
 70
     0
  9
$DIMUNIT
 70
     2
  9
$DIMDEC
 70
     2
  9
$DIMTDEC
 70
     2
  9
$DIMALTU
 70
     2
  9
$DIMALTTD
 70
     3
  9
$DIMTXSTY
  7
STANDARD
  9
$DIMAUNIT
 70
     0
  9
$LUNITS
 70
     2
  9
$LUPREC
 70
     4
  9
$SKETCHINC
 40
1.0
  9
$FILLETRAD
 40
10.0
  9
$AUNITS
 70
     0
  9
$AUPREC
 70
     0
  9
$MENU
  1
.
  9
$ELEVATION
 40
0.0
  9
$PELEVATION
 40
0.0
  9
$THICKNESS
 40
0.0
  9
$LIMCHECK
 70
     0
  9
$BLIPMODE
 70
     0
  9
$CHAMFERA
 40
10.0
  9
$CHAMFERB
 40
10.0
  9
$CHAMFERC
 40
20.0
  9
$CHAMFERD
 40
0.0
  9
$SKPOLY
 70
     0
  9
$TDCREATE
 40
2456434.435393865
  9
$TDUPDATE
 40
2456601.491969664
  9
$TDINDWG
 40
0.0168308565
  9
$TDUSRTIMER
 40
0.0168308565
  9
$USRTIMER
 70
     1
  9
$ANGBASE
 50
0.0
  9
$ANGDIR
 70
     0
  9
$PDMODE
 70
     3
  9
$PDSIZE
 40
10.0
  9
$PLINEWID
 40
0.0
  9
$COORDS
 70
     0
  9
$SPLFRAME
 70
     0
  9
$SPLINETYPE
 70
     6
  9
$SPLINESEGS
 70
     8
  9
$ATTDIA
 70
     0
  9
$ATTREQ
 70
     1
  9
$HANDLING
 70
 22529
  9
$HANDSEED
  5
E12
  9
$SURFTAB1
 70
     6
  9
$SURFTAB2
 70
     6
  9
$SURFTYPE
 70
     6
  9
$SURFU
 70
     6
  9
$SURFV
 70
     6
  9
$UCSNAME
  2

  9
$UCSORG
 10
0.0
 20
0.0
 30
0.0
  9
$UCSXDIR
 10
1.0
 20
0.0
 30
0.0
  9
$UCSYDIR
 10
0.0
 20
1.0
 30
0.0
  9
$PUCSNAME
  2

  9
$PUCSORG
 10
0.0
 20
0.0
 30
0.0
  9
$PUCSXDIR
 10
1.0
 20
0.0
 30
0.0
  9
$PUCSYDIR
 10
0.0
 20
1.0
 30
0.0
  9
$USERI1
 70
     0
  9
$USERI2
 70
     0
  9
$USERI3
 70
     0
  9
$USERI4
 70
     0
  9
$USERI5
 70
     0
  9
$USERR1
 40
0.0
  9
$USERR2
 40
0.0
  9
$USERR3
 40
0.0
  9
$USERR4
 40
0.0
  9
$USERR5
 40
0.0
  9
$WORLDVIEW
 70
     1
  9
$SHADEDGE
 70
     3
  9
$SHADEDIF
 70
    70
  9
$TILEMODE
 70
     1
  9
$MAXACTVP
 70
    64
  9
$PINSBASE
 10
0.0
 20
0.0
 30
0.0
  9
$PLIMCHECK
 70
     0
  9
$PEXTMIN
 10
26.66076962115562
 20
20.31135699206657
 30
-0.0015258207003583
  9
$PEXTMAX
 10
240.039213369355
 20
182.8886381005154
 30
0.0000000349246037
  9
$PLIMMIN
 10
-6.350006103515625
 20
-6.349999904632568
  9
$PLIMMAX
 10
273.0499877929687
 20
209.5499939918517
  9
$UNITMODE
 70
     0
  9
$VISRETAIN
 70
     1
  9
$PLINEGEN
 70
     0
  9
$PSLTSCALE
 70
     1
  9
$TREEDEPTH
 70
  3020
  9
$PICKSTYLE
 70
     1
  9
$CMLSTYLE
  2
STANDARD
  9
$CMLJUST
 70
     0
  9
$CMLSCALE
 40
20.0
  9
$SAVEIMAGES
 70
     1
  0
ENDSEC
  0
SECTION
  2
CLASSES
  0
CLASS
  1
ACDBDICTIONARYWDFLT
  2
AcDbDictionaryWithDefault
  3
AutoCAD 2000
 90
    32768
280
     0
281
     0
  0
CLASS
  1
ACDBPLACEHOLDER
  2
AcDbPlaceHolder
  3
AutoCAD 2000
 90
    32768
280
     0
281
     0
  0
CLASS
  1
LAYOUT
  2
AcDbLayout
  3
AutoCAD 2000
 90
    32768
280
     0
281
     0
  0
CLASS
  1
DICTIONARYVAR
  2
AcDbDictionaryVar
  3
AutoCAD 2000
 90
    32768
280
     0
281
     0
  0
CLASS
  1
SORTENTSTABLE
  2
AcDbSortentsTable
  3
AutoCAD 2000
 90
    32768
280
     0
281
     0
  0
CLASS
  1
LONG_TRANSACTION
  2
AcDbLongTransaction
  3
AutoCAD 2000
 90
    32768
280
     0
281
     0
  0
CLASS
  1
LWPOLYLINE
  2
AcDbPolyline
  3
AutoCAD 2000
 90
    32768
280
     0
281
     1
  0
CLASS
  1
HATCH
  2
AcDbHatch
  3
AutoCAD 2000
 90
    32768
280
     0
281
     1
  0
CLASS
  1
XRECORD
  2
AcDbXrecord
  3
AutoCAD 2000
 90
    32768
280
     0
281
     0
  0
ENDSEC
  0
SECTION
  2
TABLES
  0
TABLE
  2
VPORT
  5
8
330
0
100
AcDbSymbolTable
 70
     3
  0
VPORT
  5
E0E
330
8
100
AcDbSymbolTableRecord
100
AcDbViewportTableRecord
  2
*ACTIVE
 70
     0
 10
0.0
 20
0.0
 11
1.0
 21
1.0
 12
560.3632151442957
 22
-331.8568154011482
 13
0.0
 23
0.0
 14
10.0
 24
10.0
 15
10.0
 25
10.0
 16
0.0
 26
0.0
 36
1.0
 17
0.0
 27
0.0
 37
0.0
 40
4095.369977912778
 41
1.250677506775067
 42
50.0
 43
0.0
 44
0.0
 50
0.0
 51
0.0
 71
     0
 72
   100
 73
     1
 74
     3
 75
     0
 76
     0
 77
     0
 78
     0
  0
ENDTAB
  0
TABLE
  2
LTYPE
  5
5
330
0
100
AcDbSymbolTable
 70
     2
  0
LTYPE
  5
14
330
5
100
AcDbSymbolTableRecord
100
AcDbLinetypeTableRecord
  2
BYBLOCK
 70
     0
  3

 72
    65
 73
     0
 40
0.0
  0
LTYPE
  5
15
330
5
100
AcDbSymbolTableRecord
100
AcDbLinetypeTableRecord
  2
BYLAYER
 70
     0
  3

 72
    65
 73
     0
 40
0.0
  0
LTYPE
  5
16
330
5
100
AcDbSymbolTableRecord
100
AcDbLinetypeTableRecord
  2
CONTINUOUS
 70
     0
  3
Solid line
 72
    65
 73
     0
 40
0.0
  0
LTYPE
  5
94
330
5
100
AcDbSymbolTableRecord
100
AcDbLinetypeTableRecord
  2
CENTER2
 70
     0
  3
Center (.5x) ___ _ ___ _ ___ _ ___ _ ___ _ ___
 72
    65
 73
     4
 40
28.57499999999999
 49
19.05
 74
     0
 49
-3.174999999999999
 74
     0
 49
3.174999999999999
 74
     0
 49
-3.174999999999999
 74
     0
  0
ENDTAB
  0
TABLE
  2
LAYER
  5
2
102
{ACAD_XDICTIONARY
360
8A
102
}
330
0
100
AcDbSymbolTable
 70
     8
  0
LAYER
  5
10
330
2
100
AcDbSymbolTableRecord
100
AcDbLayerTableRecord
  2
0
 70
     0
 62
     7
  6
CONTINUOUS
  0
LAYER
  5
95
330
2
100
AcDbSymbolTableRecord
100
AcDbLayerTableRecord
  2
OUTLINE
 70
     0
 62
     3
  6
CONTINUOUS
  0
LAYER
  5
96
330
2
100
AcDbSymbolTableRecord
100
AcDbLayerTableRecord
  2
DETAIL
 70
     0
 62
     5
  6
CONTINUOUS
  0
LAYER
  5
97
330
2
100
AcDbSymbolTableRecord
100
AcDbLayerTableRecord
  2
BASIS
 70
     0
 62
     6
  6
CENTER2
  0
LAYER
  5
98
330
2
100
AcDbSymbolTableRecord
100
AcDbLayerTableRecord
  2
SIZE
 70
     0
 62
    30
  6
CONTINUOUS
  0
LAYER
  5
99
330
2
100
AcDbSymbolTableRecord
100
AcDbLayerTableRecord
  2
ARRANGE
 70
     0
 62
     1
  6
CONTINUOUS
  0
LAYER
  5
9A
330
2
100
AcDbSymbolTableRecord
100
AcDbLayerTableRecord
  2
NOTE
 70
     0
 62
     4
  6
CONTINUOUS
  0
LAYER
  5
9B
330
2
100
AcDbSymbolTableRecord
100
AcDbLayerTableRecord
  2
FIX
 70
     0
 62
    11
  6
CONTINUOUS
  0
ENDTAB
  0
TABLE
  2
STYLE
  5
3
330
0
100
AcDbSymbolTable
 70
     3
  0
STYLE
  5
11
330
3
100
AcDbSymbolTableRecord
100
AcDbTextStyleTableRecord
  2
STANDARD
 70
     0
 40
0.0
 41
1.0
 50
0.0
 71
     0
 42
2.5
  3
txt
  4

  0
STYLE
  5
9D
330
3
100
AcDbSymbolTableRecord
100
AcDbTextStyleTableRecord
  2
ARIAL
 70
     0
 40
0.0
 41
1.0
 50
0.0
 71
     0
 42
4.0
  3
ARIAL.TTF
  4

1001
ACAD
1000
Arial
1071
       34
  0
STYLE
  5
9E
330
3
100
AcDbSymbolTableRecord
100
AcDbTextStyleTableRecord
  2
KAIGAI
 70
     0
 40
30.0
 41
1.0
 50
0.0
 71
     0
 42
165.5225194495218
  3
ARIAL.TTF
  4

1001
ACAD
1000
Arial
1071
       34
  0
ENDTAB
  0
TABLE
  2
VIEW
  5
6
330
0
100
AcDbSymbolTable
 70
     0
  0
ENDTAB
  0
TABLE
  2
UCS
  5
7
330
0
100
AcDbSymbolTable
 70
     0
  0
ENDTAB
  0
TABLE
  2
APPID
  5
9
330
0
100
AcDbSymbolTable
 70
     1
  0
APPID
  5
12
330
9
100
AcDbSymbolTableRecord
100
AcDbRegAppTableRecord
  2
ACAD
 70
     0
  0
ENDTAB
  0
TABLE
  2
DIMSTYLE
  5
A
330
0
100
AcDbSymbolTable
 70
     2
  0
DIMSTYLE
105
27
330
A
100
AcDbSymbolTableRecord
100
AcDbDimStyleTableRecord
  2
ISO-25
 70
     0
  3

  4

  5

  6

  7

 40
1.0
 41
2.5
 42
0.625
 43
3.75
 44
1.25
 45
0.0
 46
0.0
 47
0.0
 48
0.0
140
2.5
141
2.5
142
0.0
143
0.03937007874016
144
1.0
145
0.0
146
1.0
147
0.625
 71
     0
 72
     0
 73
     0
 74
     0
 75
     0
 76
     0
 77
     1
 78
     8
170
     0
171
     3
172
     1
173
     0
174
     0
175
     0
176
     0
177
     0
178
     0
270
     2
271
     2
272
     2
273
     2
274
     3
340
11
275
     0
280
     0
281
     0
282
     0
283
     0
284
     8
285
     0
286
     0
287
     3
288
     0
  0
DIMSTYLE
105
9F
330
A
100
AcDbSymbolTableRecord
100
AcDbDimStyleTableRecord
  2
STANDARD
 70
     0
  3

  4

  5

  6

  7

 40
1.0
 41
0.18
 42
0.0625
 43
0.38
 44
0.18
 45
0.0
 46
0.0
 47
0.0
 48
0.0
140
0.18
141
0.09
142
0.0
143
25.4
144
1.0
145
0.0
146
1.0
147
0.09
 71
     0
 72
     0
 73
     1
 74
     1
 75
     0
 76
     0
 77
     0
 78
     0
170
     0
171
     2
172
     0
173
     0
174
     0
175
     0
176
     0
177
     0
178
     0
270
     2
271
     4
272
     4
273
     2
274
     2
340
11
275
     0
280
     0
281
     0
282
     0
283
     1
284
     0
285
     0
286
     0
287
     5
288
     0
  0
ENDTAB
  0
TABLE
  2
BLOCK_RECORD
  5
1
330
0
100
AcDbSymbolTable
 70
     0
  0
BLOCK_RECORD
  5
1F
102
{ACAD_XDICTIONARY
360
C08
102
}
330
1
100
AcDbSymbolTableRecord
100
AcDbBlockTableRecord
  2
*MODEL_SPACE
  0
BLOCK_RECORD
  5
50
102
{ACAD_XDICTIONARY
360
E10
102
}
330
1
100
AcDbSymbolTableRecord
100
AcDbBlockTableRecord
  2
*PAPER_SPACE
  0
ENDTAB
  0
ENDSEC
  0
SECTION
  2
BLOCKS
  0
BLOCK
  5
20
330
1F
100
AcDbEntity
  8
0
100
AcDbBlockBegin
  2
*MODEL_SPACE
 70
     0
 10
0.0
 20
0.0
 30
0.0
  3
*MODEL_SPACE
  1

  0
ENDBLK
  5
21
330
1F
100
AcDbEntity
  8
0
100
AcDbBlockEnd
  0
BLOCK
  5
52
330
50
100
AcDbEntity
 67
     1
  8
0
100
AcDbBlockBegin
  2
*PAPER_SPACE
 70
     0
 10
0.0
 20
0.0
 30
0.0
  3
*PAPER_SPACE
  1

  0
ENDBLK
  5
53
330
50
100
AcDbEntity
 67
     1
  8
0
100
AcDbBlockEnd
  0
ENDSEC
  0
SECTION
  2
ENTITIES
  0
LINE
  5
658
330
1F
100
AcDbEntity
  8
OUTLINE
100
AcDbLine
 10
422.4999999999995
 20
1499.999999999997
 30
0.0
 11
-422.5000000000004
 21
1499.999999999992
 31
0.0
  0
LINE
  5
659
330
1F
100
AcDbEntity
  8
OUTLINE
100
AcDbLine
 10
422.4999999999995
 20
1289.999999999995
 30
0.0
 11
-422.5000000000004
 21
1289.999999999993
 31
0.0
  0
LINE
  5
65A
330
1F
100
AcDbEntity
  8
OUTLINE
100
AcDbLine
 10
-422.5000000000004
 20
1499.999999999992
 30
0.0
 11
-422.5000000000004
 21
1289.999999999993
 31
0.0
  0
LINE
  5
65B
330
1F
100
AcDbEntity
  8
OUTLINE
100
AcDbLine
 10
422.4999999999995
 20
1499.999999999997
 30
0.0
 11
422.4999999999995
 21
1289.999999999995
 31
0.0
  0
LINE
  5
65C
330
1F
100
AcDbEntity
  8
OUTLINE
100
AcDbLine
 10
466.4999999999049
 20
1466.999999999879
 30
0.0
 11
466.4999999999049
 21
1442.999999999997
 31
0.0
  0
LINE
  5
65D
330
1F
100
AcDbEntity
  8
OUTLINE
100
AcDbLine
 10
453.1999999999056
 20
1303.500000000092
 30
0.0
 11
453.1999999999056
 21
1338.499999999891
 31
0.0
  0
LINE
  5
65E
330
1F
100
AcDbEntity
  8
OUTLINE
100
AcDbLine
 10
463.2000000001057
 20
1303.500000000092
 30
0.0
 11
463.2000000001057
 21
1338.499999999891
 31
0.0
  0
LINE
  5
65F
330
1F
100
AcDbEntity
  8
OUTLINE
100
AcDbLine
 10
453.1999999999056
 20
1303.500000000092
 30
0.0
 11
463.2000000001057
 21
1303.500000000092
 31
0.0
  0
LINE
  5
660
330
1F
100
AcDbEntity
  8
OUTLINE
100
AcDbLine
 10
463.2000000001057
 20
1338.499999999891
 30
0.0
 11
453.1999999999056
 21
1338.499999999891
 31
0.0
  0
LINE
  5
661
330
1F
100
AcDbEntity
  8
OUTLINE
100
AcDbLine
 10
424.4999999995957
 20
1441.000000000099
 30
0.0
 11
471.2999999998023
 21
1441.000000000093
 31
0.0
  0
LINE
  5
662
330
1F
100
AcDbEntity
  8
OUTLINE
100
AcDbLine
 10
422.4999999999995
 20
1442.999999999997
 30
0.0
 11
472.0999999999035
 21
1442.999999999997
 31
0.0
  0
LINE
  5
663
330
1F
100
AcDbEntity
  8
OUTLINE
100
AcDbLine
 10
424.4999999995957
 20
1436.999999999742
 30
0.0
 11
462.5000000001014
 21
1436.999999999742
 31
0.0
  0
LINE
  5
664
330
1F
100
AcDbEntity
  8
OUTLINE
100
AcDbLine
 10
454.9400000001036
 20
1403.994374724195
 30
0.0
 11
440.9400000001037
 21
1403.994374724195
 31
0.0
  0
LINE
  5
665
330
1F
100
AcDbEntity
  8
OUTLINE
100
AcDbLine
 10
449.5000000004069
 20
1397.750000000199
 30
0.0
 11
422.4999999999995
 21
1397.750000000199
 31
0.0
  0
LINE
  5
666
330
1F
100
AcDbEntity
  8
OUTLINE
100
AcDbLine
 10
440.9400000001037
 20
1403.994374724195
 30
0.0
 11
440.9400000001037
 21
1397.750000000199
 31
0.0
  0
LINE
  5
667
330
1F
100
AcDbEntity
  8
OUTLINE
100
AcDbLine
 10
440.9400000001037
 20
1400.934374724494
 30
0.0
 11
422.4999999999995
 21
1400.934374724494
 31
0.0
  0
LINE
  5
668
330
1F
100
AcDbEntity
  8
OUTLINE
100
AcDbLine
 10
422.4999999999995
 20
1421.499999999997
 30
0.0
 11
424.4999999995957
 21
1421.499999999997
 31
0.0
  0
LINE
  5
669
330
1F
100
AcDbEntity
  8
OUTLINE
100
AcDbLine
 10
424.4999999995957
 20
1421.499999999997
 30
0.0
 11
424.4999999995957
 21
1441.000000000099
 31
0.0
  0
LINE
  5
66A
330
1F
100
AcDbEntity
  8
OUTLINE
100
AcDbLine
 10
462.9400000004056
 20
1406.494374724599
 30
0.0
 11
462.9400000004056
 21
1402.812197581894
 31
0.0
  0
LINE
  5
66B
330
1F
100
AcDbEntity
  8
OUTLINE
100
AcDbLine
 10
462.9400000004056
 20
1406.494374724599
 30
0.0
 11
454.9400000001036
 21
1406.494374724597
 31
0.0
  0
LINE
  5
66C
330
1F
100
AcDbEntity
  8
OUTLINE
100
AcDbLine
 10
454.9400000001036
 20
1401.044083128899
 30
0.0
 11
454.9400000001036
 21
1406.494374724597
 31
0.0
  0
LINE
  5
66D
330
1F
100
AcDbEntity
  8
OUTLINE
100
AcDbLine
 10
467.9399999998053
 20
1406.994374724395
 30
0.0
 11
467.9399999998053
 21
1402.812197581894
 31
0.0
  0
LINE
  5
66E
330
1F
100
AcDbEntity
  8
OUTLINE
100
AcDbLine
 10
458.500000000305
 20
1401.044083128897
 30
0.0
 11
449.5000000004069
 21
1401.044083128899
 31
0.0
  0
LINE
  5
66F
330
1F
100
AcDbEntity
  8
OUTLINE
100
AcDbLine
 10
458.500000000305
 20
1401.044083128897
 30
0.0
 11
458.500000000305
 21
1384.955916871094
 31
0.0
  0
LINE
  5
670
330
1F
100
AcDbEntity
  8
OUTLINE
100
AcDbLine
 10
449.5000000004069
 20
1401.044083128899
 30
0.0
 11
449.5000000004069
 21
1384.95591687109
 31
0.0
  0
LINE
  5
671
330
1F
100
AcDbEntity
  8
OUTLINE
100
AcDbLine
 10
462.3035269457027
 20
1402.812197581894
 30
0.0
 11
475.4980648053746
 21
1402.812197581894
 31
0.0
  0
LINE
  5
672
330
1F
100
AcDbEntity
  8
OUTLINE
100
AcDbLine
 10
461.4000000004047
 20
1401.250000000199
 30
0.0
 11
461.4000000004047
 21
1400.044937911195
 31
0.0
  0
LINE
  5
673
330
1F
100
AcDbEntity
  8
OUTLINE
100
AcDbLine
 10
461.4000000004047
 20
1400.044937911195
 30
0.0
 11
461.4000000004047
 21
1384.749999999797
 31
0.0
  0
LINE
  5
674
330
1F
100
AcDbEntity
  8
OUTLINE
100
AcDbLine
 10
462.2420058574056
 20
1402.685421491195
 30
0.0
 11
462.3035269457027
 21
1402.812197581894
 31
0.0
  0
LINE
  5
675
330
1F
100
AcDbEntity
  8
OUTLINE
100
AcDbLine
 10
468.1222716866026
 20
1407.494374724195
 30
0.0
 11
467.9399999998053
 21
1406.994374724395
 31
0.0
  0
LINE
  5
676
330
1F
100
AcDbEntity
  8
OUTLINE
100
AcDbLine
 10
461.4000000004047
 20
1397.599999999699
 30
0.0
 11
458.500000000305
 21
1397.599999999699
 31
0.0
  0
LINE
  5
677
330
1F
100
AcDbEntity
  8
OUTLINE
100
AcDbLine
 10
462.2320572026068
 20
1402.691165349598
 30
0.0
 11
461.4000000004047
 21
1401.250000000199
 31
0.0
  0
LINE
  5
678
330
1F
100
AcDbEntity
  8
OUTLINE
100
AcDbLine
 10
493.9399999999036
 20
1405.494374724295
 30
0.0
 11
493.9399999999036
 21
1380.505625275694
 31
0.0
  0
LINE
  5
679
330
1F
100
AcDbEntity
  8
OUTLINE
100
AcDbLine
 10
468.1222716866026
 20
1407.494374724195
 30
0.0
 11
489.7486580885082
 21
1407.494374724195
 31
0.0
  0
LINE
  5
67A
330
1F
100
AcDbEntity
  8
OUTLINE
100
AcDbLine
 10
476.4000000000009
 20
1401.250000000199
 30
0.0
 11
476.4000000000009
 21
1384.749999999791
 31
0.0
  0
LINE
  5
67B
330
1F
100
AcDbEntity
  8
OUTLINE
100
AcDbLine
 10
493.9399999999036
 20
1405.494374724295
 30
0.0
 11
489.7486580885082
 21
1407.494374724195
 31
0.0
  0
LINE
  5
67C
330
1F
100
AcDbEntity
  8
OUTLINE
100
AcDbLine
 10
476.4000000000009
 20
1401.250000000199
 30
0.0
 11
475.4980648053746
 21
1402.812197581894
 31
0.0
  0
LINE
  5
67D
330
1F
100
AcDbEntity
  8
OUTLINE
100
AcDbLine
 10
471.8000000003043
 20
1434.999999999701
 30
0.0
 11
471.7999999996022
 21
1440.500000000293
 31
0.0
  0
LINE
  5
67E
330
1F
100
AcDbEntity
  8
OUTLINE
100
AcDbLine
 10
474.0999999998052
 20
1434.999999999701
 30
0.0
 11
471.8000000003043
 21
1434.999999999701
 31
0.0
  0
LINE
  5
67F
330
1F
100
AcDbEntity
  8
OUTLINE
100
AcDbLine
 10
474.0999999998052
 20
1441.000000000097
 30
0.0
 11
474.0999999998052
 21
1434.999999999701
 31
0.0
  0
ARC
  5
680
330
1F
100
AcDbEntity
  8
OUTLINE
100
AcDbCircle
 10
472.0999999999035
 20
1441.000000000097
 30
0.0
 40
1.999999999899999
100
AcDbArc
 50
0.0
 51
90.0
  0
ARC
  5
681
330
1F
100
AcDbEntity
  8
OUTLINE
100
AcDbCircle
 10
471.2999999998023
 20
1440.500000000293
 30
0.0
 40
0.4999999998
100
AcDbArc
 50
0.0
 51
90.0
  0
LINE
  5
682
330
1F
100
AcDbEntity
  8
OUTLINE
100
AcDbLine
 10
462.5000000001014
 20
1436.999999999742
 30
0.0
 11
466.4999999999049
 21
1439.000000000108
 31
0.0
  0
LINE
  5
683
330
1F
100
AcDbEntity
  8
OUTLINE
100
AcDbLine
 10
462.5000000001014
 20
1469.000000000244
 30
0.0
 11
422.4999999999995
 21
1469.000000000244
 31
0.0
  0
LINE
  5
684
330
1F
100
AcDbEntity
  8
OUTLINE
100
AcDbLine
 10
466.4999999999049
 20
1466.999999999879
 30
0.0
 11
462.5000000001014
 21
1469.000000000244
 31
0.0
  0
LINE
  5
685
330
1F
100
AcDbEntity
  8
OUTLINE
100
AcDbLine
 10
453.1999999999056
 20
1333.499999999991
 30
0.0
 11
422.4999999999995
 21
1333.499999999991
 31
0.0
  0
LINE
  5
686
330
1F
100
AcDbEntity
  8
OUTLINE
100
AcDbLine
 10
453.1999999999056
 20
1308.499999999992
 30
0.0
 11
422.4999999999995
 21
1308.499999999992
 31
0.0
  0
LINE
  5
687
330
1F
100
AcDbEntity
  8
OUTLINE
100
AcDbLine
 10
466.4999999999049
 20
1441.000000000093
 30
0.0
 11
466.4999999999049
 21
1439.000000000108
 31
0.0
  0
LINE
  5
688
330
1F
100
AcDbEntity
  8
OUTLINE
100
AcDbLine
 10
454.9400000001036
 20
1382.005625275795
 30
0.0
 11
440.9400000001037
 21
1382.005625275795
 31
0.0
  0
LINE
  5
689
330
1F
100
AcDbEntity
  8
OUTLINE
100
AcDbLine
 10
449.5000000004069
 20
1388.249999999791
 30
0.0
 11
422.4999999999995
 21
1388.249999999791
 31
0.0
  0
LINE
  5
68A
330
1F
100
AcDbEntity
  8
OUTLINE
100
AcDbLine
 10
440.9400000001037
 20
1382.005625275795
 30
0.0
 11
440.9400000001037
 21
1388.249999999791
 31
0.0
  0
LINE
  5
68B
330
1F
100
AcDbEntity
  8
OUTLINE
100
AcDbLine
 10
440.9400000001037
 20
1385.065625275497
 30
0.0
 11
422.4999999999995
 21
1385.065625275497
 31
0.0
  0
LINE
  5
68C
330
1F
100
AcDbEntity
  8
OUTLINE
100
AcDbLine
 10
462.9400000004056
 20
1379.505625275392
 30
0.0
 11
462.9400000004056
 21
1383.187802418096
 31
0.0
  0
LINE
  5
68D
330
1F
100
AcDbEntity
  8
OUTLINE
100
AcDbLine
 10
462.9400000004056
 20
1379.505625275392
 30
0.0
 11
454.9400000001036
 21
1379.505625275394
 31
0.0
  0
LINE
  5
68E
330
1F
100
AcDbEntity
  8
OUTLINE
100
AcDbLine
 10
454.9400000001036
 20
1384.955916871092
 30
0.0
 11
454.9400000001036
 21
1379.505625275394
 31
0.0
  0
LINE
  5
68F
330
1F
100
AcDbEntity
  8
OUTLINE
100
AcDbLine
 10
467.9399999998053
 20
1379.005625275596
 30
0.0
 11
467.9399999998053
 21
1383.187802418096
 31
0.0
  0
LINE
  5
690
330
1F
100
AcDbEntity
  8
OUTLINE
100
AcDbLine
 10
458.500000000305
 20
1384.955916871094
 30
0.0
 11
449.5000000004069
 21
1384.95591687109
 31
0.0
  0
LINE
  5
691
330
1F
100
AcDbEntity
  8
OUTLINE
100
AcDbLine
 10
462.3035269457027
 20
1383.187802418096
 30
0.0
 11
475.4980648053746
 21
1383.187802418096
 31
0.0
  0
LINE
  5
692
330
1F
100
AcDbEntity
  8
OUTLINE
100
AcDbLine
 10
461.4000000004047
 20
1384.749999999791
 30
0.0
 11
461.4000000004047
 21
1385.955062088795
 31
0.0
  0
LINE
  5
693
330
1F
100
AcDbEntity
  8
OUTLINE
100
AcDbLine
 10
462.2420058574056
 20
1383.314578508795
 30
0.0
 11
462.3035269457027
 21
1383.187802418096
 31
0.0
  0
LINE
  5
694
330
1F
100
AcDbEntity
  8
OUTLINE
100
AcDbLine
 10
468.1222716866026
 20
1378.505625275796
 30
0.0
 11
467.9399999998053
 21
1379.005625275596
 31
0.0
  0
LINE
  5
695
330
1F
100
AcDbEntity
  8
OUTLINE
100
AcDbLine
 10
461.4000000004047
 20
1388.400000000291
 30
0.0
 11
458.500000000305
 21
1388.400000000291
 31
0.0
  0
LINE
  5
696
330
1F
100
AcDbEntity
  8
OUTLINE
100
AcDbLine
 10
462.2320572026068
 20
1383.308834650392
 30
0.0
 11
461.4000000004047
 21
1384.749999999791
 31
0.0
  0
LINE
  5
697
330
1F
100
AcDbEntity
  8
OUTLINE
100
AcDbLine
 10
468.1222716866026
 20
1378.505625275796
 30
0.0
 11
489.7486580885082
 21
1378.505625275796
 31
0.0
  0
LINE
  5
698
330
1F
100
AcDbEntity
  8
OUTLINE
100
AcDbLine
 10
493.9399999999036
 20
1380.505625275694
 30
0.0
 11
489.7486580885082
 21
1378.505625275796
 31
0.0
  0
LINE
  5
699
330
1F
100
AcDbEntity
  8
OUTLINE
100
AcDbLine
 10
476.4000000000009
 20
1384.749999999791
 30
0.0
 11
475.4980648053746
 21
1383.187802418096
 31
0.0
  0
LINE
  5
69A
330
1F
100
AcDbEntity
  8
OUTLINE
100
AcDbLine
 10
436.1900000002019
 20
1370.000000000288
 30
0.0
 11
428.8100000001026
 21
1370.000000000288
 31
0.0
  0
LINE
  5
69B
330
1F
100
AcDbEntity
  8
OUTLINE
100
AcDbLine
 10
440.5000000001013
 20
1368.000000000393
 30
0.0
 11
440.5000000001013
 21
1366.000000000493
 31
0.0
  0
LINE
  5
69C
330
1F
100
AcDbEntity
  8
OUTLINE
100
AcDbLine
 10
422.4999999999995
 20
1368.000000000393
 30
0.0
 11
440.5000000001013
 21
1368.000000000393
 31
0.0
  0
LINE
  5
69D
330
1F
100
AcDbEntity
  8
OUTLINE
100
AcDbLine
 10
440.5000000001013
 20
1366.000000000493
 30
0.0
 11
422.4999999999995
 21
1366.000000000493
 31
0.0
  0
LINE
  5
69E
330
1F
100
AcDbEntity
  8
OUTLINE
100
AcDbLine
 10
428.8100000001026
 20
1370.000000000288
 30
0.0
 11
428.8100000001026
 21
1368.000000000393
 31
0.0
  0
LINE
  5
69F
330
1F
100
AcDbEntity
  8
OUTLINE
100
AcDbLine
 10
436.1900000002019
 20
1368.000000000393
 30
0.0
 11
436.1900000002019
 21
1370.000000000288
 31
0.0
  0
LINE
  5
6A0
330
1F
100
AcDbEntity
  8
OUTLINE
100
AcDbLine
 10
-453.1999999999066
 20
1303.500000000092
 30
0.0
 11
-453.1999999999066
 21
1338.499999999891
 31
0.0
  0
LINE
  5
6A1
330
1F
100
AcDbEntity
  8
OUTLINE
100
AcDbLine
 10
-463.2000000001067
 20
1303.500000000092
 30
0.0
 11
-463.2000000001067
 21
1338.499999999891
 31
0.0
  0
LINE
  5
6A2
330
1F
100
AcDbEntity
  8
OUTLINE
100
AcDbLine
 10
-453.1999999999066
 20
1303.500000000092
 30
0.0
 11
-463.2000000001067
 21
1303.500000000092
 31
0.0
  0
LINE
  5
6A3
330
1F
100
AcDbEntity
  8
OUTLINE
100
AcDbLine
 10
-463.2000000001067
 20
1338.499999999891
 30
0.0
 11
-453.1999999999066
 21
1338.499999999891
 31
0.0
  0
LINE
  5
6A4
330
1F
100
AcDbEntity
  8
OUTLINE
100
AcDbLine
 10
-424.4999999995966
 20
1441.000000000099
 30
0.0
 11
-471.2999999998032
 21
1441.000000000093
 31
0.0
  0
LINE
  5
6A5
330
1F
100
AcDbEntity
  8
OUTLINE
100
AcDbLine
 10
-422.5000000000004
 20
1442.999999999997
 30
0.0
 11
-472.0999999999062
 21
1442.999999999997
 31
0.0
  0
LINE
  5
6A6
330
1F
100
AcDbEntity
  8
OUTLINE
100
AcDbLine
 10
-422.5000000000004
 20
1421.499999999997
 30
0.0
 11
-424.4999999995966
 21
1421.499999999997
 31
0.0
  0
LINE
  5
6A7
330
1F
100
AcDbEntity
  8
OUTLINE
100
AcDbLine
 10
-424.4999999995966
 20
1421.499999999997
 30
0.0
 11
-424.4999999995966
 21
1441.000000000099
 31
0.0
  0
LINE
  5
6A8
330
1F
100
AcDbEntity
  8
OUTLINE
100
AcDbLine
 10
-471.8000000003053
 20
1434.999999999701
 30
0.0
 11
-471.7999999996031
 21
1440.500000000293
 31
0.0
  0
LINE
  5
6A9
330
1F
100
AcDbEntity
  8
OUTLINE
100
AcDbLine
 10
-474.0999999998061
 20
1434.999999999701
 30
0.0
 11
-471.8000000003053
 21
1434.999999999701
 31
0.0
  0
LINE
  5
6AA
330
1F
100
AcDbEntity
  8
OUTLINE
100
AcDbLine
 10
-474.0999999998061
 20
1441.000000000097
 30
0.0
 11
-474.0999999998061
 21
1434.999999999701
 31
0.0
  0
ARC
  5
6AB
330
1F
100
AcDbEntity
  8
OUTLINE
100
AcDbCircle
 10
-472.0999999999062
 20
1441.000000000097
 30
0.0
 40
1.999999999899999
100
AcDbArc
 50
90.0
 51
180.0
  0
ARC
  5
6AC
330
1F
100
AcDbEntity
  8
OUTLINE
100
AcDbCircle
 10
-471.2999999998032
 20
1440.500000000293
 30
0.0
 40
0.4999999998
100
AcDbArc
 50
90.0
 51
180.0
  0
LINE
  5
6AD
330
1F
100
AcDbEntity
  8
OUTLINE
100
AcDbLine
 10
-453.1999999999066
 20
1333.499999999991
 30
0.0
 11
-422.5000000000004
 21
1333.499999999991
 31
0.0
  0
LINE
  5
6AE
330
1F
100
AcDbEntity
  8
OUTLINE
100
AcDbLine
 10
-453.1999999999066
 20
1308.499999999992
 30
0.0
 11
-422.5000000000004
 21
1308.499999999992
 31
0.0
  0
LINE
  5
6AF
330
1F
100
AcDbEntity
  8
OUTLINE
100
AcDbLine
 10
-436.1900000002029
 20
1370.000000000288
 30
0.0
 11
-428.8100000001036
 21
1370.000000000288
 31
0.0
  0
LINE
  5
6B0
330
1F
100
AcDbEntity
  8
OUTLINE
100
AcDbLine
 10
-440.5000000001023
 20
1368.000000000393
 30
0.0
 11
-440.5000000001023
 21
1366.000000000493
 31
0.0
  0
LINE
  5
6B1
330
1F
100
AcDbEntity
  8
OUTLINE
100
AcDbLine
 10
-422.5000000000004
 20
1368.000000000393
 30
0.0
 11
-440.5000000001023
 21
1368.000000000393
 31
0.0
  0
LINE
  5
6B2
330
1F
100
AcDbEntity
  8
OUTLINE
100
AcDbLine
 10
-440.5000000001023
 20
1366.000000000493
 30
0.0
 11
-422.5000000000004
 21
1366.000000000493
 31
0.0
  0
LINE
  5
6B3
330
1F
100
AcDbEntity
  8
OUTLINE
100
AcDbLine
 10
-428.8100000001036
 20
1370.000000000288
 30
0.0
 11
-428.8100000001036
 21
1368.000000000393
 31
0.0
  0
LINE
  5
6B4
330
1F
100
AcDbEntity
  8
OUTLINE
100
AcDbLine
 10
-436.1900000002029
 20
1368.000000000393
 30
0.0
 11
-436.1900000002029
 21
1370.000000000288
 31
0.0
  0
LINE
  5
6B5
330
1F
100
AcDbEntity
  8
OUTLINE
100
AcDbLine
 10
422.4999999999995
 20
-1499.999999999996
 30
0.0
 11
-422.5000000000004
 21
-1499.999999999998
 31
0.0
  0
LINE
  5
6B6
330
1F
100
AcDbEntity
  8
OUTLINE
100
AcDbLine
 10
422.4999999999977
 20
-1289.999999999994
 30
0.0
 11
-422.5000000000022
 21
-1290.0
 31
0.0
  0
LINE
  5
6B7
330
1F
100
AcDbEntity
  8
OUTLINE
100
AcDbLine
 10
-422.5000000000004
 20
-1499.999999999998
 30
0.0
 11
-422.5000000000022
 21
-1290.0
 31
0.0
  0
LINE
  5
6B8
330
1F
100
AcDbEntity
  8
OUTLINE
100
AcDbLine
 10
422.4999999999995
 20
-1499.999999999996
 30
0.0
 11
422.4999999999977
 21
-1289.999999999994
 31
0.0
  0
LINE
  5
6B9
330
1F
100
AcDbEntity
  8
OUTLINE
100
AcDbLine
 10
466.4999999999049
 20
-1466.999999999878
 30
0.0
 11
466.4999999999049
 21
-1442.999999999996
 31
0.0
  0
LINE
  5
6BA
330
1F
100
AcDbEntity
  8
OUTLINE
100
AcDbLine
 10
453.1999999999039
 20
-1303.500000000091
 30
0.0
 11
453.1999999999039
 21
-1338.49999999989
 31
0.0
  0
LINE
  5
6BB
330
1F
100
AcDbEntity
  8
OUTLINE
100
AcDbLine
 10
463.2000000001039
 20
-1303.500000000091
 30
0.0
 11
463.2000000001039
 21
-1338.49999999989
 31
0.0
  0
LINE
  5
6BC
330
1F
100
AcDbEntity
  8
OUTLINE
100
AcDbLine
 10
453.1999999999039
 20
-1303.500000000091
 30
0.0
 11
463.2000000001039
 21
-1303.500000000091
 31
0.0
  0
LINE
  5
6BD
330
1F
100
AcDbEntity
  8
OUTLINE
100
AcDbLine
 10
463.2000000001039
 20
-1338.49999999989
 30
0.0
 11
453.1999999999039
 21
-1338.49999999989
 31
0.0
  0
LINE
  5
6BE
330
1F
100
AcDbEntity
  8
OUTLINE
100
AcDbLine
 10
424.4999999995957
 20
-1441.000000000098
 30
0.0
 11
471.2999999998023
 21
-1441.000000000092
 31
0.0
  0
LINE
  5
6BF
330
1F
100
AcDbEntity
  8
OUTLINE
100
AcDbLine
 10
422.4999999999995
 20
-1442.999999999996
 30
0.0
 11
472.0999999999035
 21
-1442.999999999996
 31
0.0
  0
LINE
  5
6C0
330
1F
100
AcDbEntity
  8
OUTLINE
100
AcDbLine
 10
424.4999999995957
 20
-1436.999999999741
 30
0.0
 11
462.5000000001014
 21
-1436.999999999741
 31
0.0
  0
LINE
  5
6C1
330
1F
100
AcDbEntity
  8
OUTLINE
100
AcDbLine
 10
422.4999999999995
 20
-1421.499999999996
 30
0.0
 11
424.4999999995957
 21
-1421.499999999996
 31
0.0
  0
LINE
  5
6C2
330
1F
100
AcDbEntity
  8
OUTLINE
100
AcDbLine
 10
424.4999999995957
 20
-1421.499999999996
 30
0.0
 11
424.4999999995957
 21
-1441.000000000098
 31
0.0
  0
LINE
  5
6C3
330
1F
100
AcDbEntity
  8
OUTLINE
100
AcDbLine
 10
471.8000000003043
 20
-1434.9999999997
 30
0.0
 11
471.7999999996022
 21
-1440.500000000293
 31
0.0
  0
LINE
  5
6C4
330
1F
100
AcDbEntity
  8
OUTLINE
100
AcDbLine
 10
474.0999999998052
 20
-1434.9999999997
 30
0.0
 11
471.8000000003043
 21
-1434.9999999997
 31
0.0
  0
LINE
  5
6C5
330
1F
100
AcDbEntity
  8
OUTLINE
100
AcDbLine
 10
474.0999999998052
 20
-1441.000000000096
 30
0.0
 11
474.0999999998052
 21
-1434.9999999997
 31
0.0
  0
ARC
  5
6C6
330
1F
100
AcDbEntity
  8
OUTLINE
100
AcDbCircle
 10
472.0999999999035
 20
-1441.000000000096
 30
0.0
 40
1.999999999899999
100
AcDbArc
 50
270.0000000000005
 51
0.0000000000004863
  0
ARC
  5
6C7
330
1F
100
AcDbEntity
  8
OUTLINE
100
AcDbCircle
 10
471.2999999998023
 20
-1440.500000000293
 30
0.0
 40
0.4999999998
100
AcDbArc
 50
270.0000000000005
 51
0.0000000000004863
  0
LINE
  5
6C8
330
1F
100
AcDbEntity
  8
OUTLINE
100
AcDbLine
 10
462.5000000001014
 20
-1436.999999999741
 30
0.0
 11
466.4999999999049
 21
-1439.000000000107
 31
0.0
  0
LINE
  5
6C9
330
1F
100
AcDbEntity
  8
OUTLINE
100
AcDbLine
 10
462.5000000001014
 20
-1469.000000000243
 30
0.0
 11
422.4999999999995
 21
-1469.000000000243
 31
0.0
  0
LINE
  5
6CA
330
1F
100
AcDbEntity
  8
OUTLINE
100
AcDbLine
 10
466.4999999999049
 20
-1466.999999999878
 30
0.0
 11
462.5000000001014
 21
-1469.000000000243
 31
0.0
  0
LINE
  5
6CB
330
1F
100
AcDbEntity
  8
OUTLINE
100
AcDbLine
 10
453.1999999999039
 20
-1333.499999999991
 30
0.0
 11
422.4999999999977
 21
-1333.499999999991
 31
0.0
  0
LINE
  5
6CC
330
1F
100
AcDbEntity
  8
OUTLINE
100
AcDbLine
 10
453.1999999999039
 20
-1308.49999999999
 30
0.0
 11
422.4999999999977
 21
-1308.49999999999
 31
0.0
  0
LINE
  5
6CD
330
1F
100
AcDbEntity
  8
OUTLINE
100
AcDbLine
 10
466.4999999999049
 20
-1441.000000000092
 30
0.0
 11
466.4999999999049
 21
-1439.000000000107
 31
0.0
  0
LINE
  5
6CE
330
1F
100
AcDbEntity
  8
OUTLINE
100
AcDbLine
 10
436.1900000002001
 20
-1370.000000000287
 30
0.0
 11
428.8100000001008
 21
-1370.000000000287
 31
0.0
  0
LINE
  5
6CF
330
1F
100
AcDbEntity
  8
OUTLINE
100
AcDbLine
 10
440.5000000000995
 20
-1368.000000000392
 30
0.0
 11
440.5000000000995
 21
-1366.000000000493
 31
0.0
  0
LINE
  5
6D0
330
1F
100
AcDbEntity
  8
OUTLINE
100
AcDbLine
 10
422.4999999999977
 20
-1368.000000000392
 30
0.0
 11
440.5000000000995
 21
-1368.000000000392
 31
0.0
  0
LINE
  5
6D1
330
1F
100
AcDbEntity
  8
OUTLINE
100
AcDbLine
 10
440.5000000000995
 20
-1366.000000000493
 30
0.0
 11
422.4999999999977
 21
-1366.000000000493
 31
0.0
  0
LINE
  5
6D2
330
1F
100
AcDbEntity
  8
OUTLINE
100
AcDbLine
 10
428.8100000001008
 20
-1370.000000000287
 30
0.0
 11
428.8100000001008
 21
-1368.000000000392
 31
0.0
  0
LINE
  5
6D3
330
1F
100
AcDbEntity
  8
OUTLINE
100
AcDbLine
 10
436.1900000002001
 20
-1368.000000000392
 30
0.0
 11
436.1900000002001
 21
-1370.000000000287
 31
0.0
  0
LINE
  5
6D4
330
1F
100
AcDbEntity
  8
OUTLINE
100
AcDbLine
 10
-453.1999999999084
 20
-1303.500000000099
 30
0.0
 11
-453.1999999999084
 21
-1338.499999999899
 31
0.0
  0
LINE
  5
6D5
330
1F
100
AcDbEntity
  8
OUTLINE
100
AcDbLine
 10
-463.2000000001085
 20
-1303.500000000099
 30
0.0
 11
-463.2000000001085
 21
-1338.499999999899
 31
0.0
  0
LINE
  5
6D6
330
1F
100
AcDbEntity
  8
OUTLINE
100
AcDbLine
 10
-453.1999999999084
 20
-1303.500000000099
 30
0.0
 11
-463.2000000001085
 21
-1303.500000000099
 31
0.0
  0
LINE
  5
6D7
330
1F
100
AcDbEntity
  8
OUTLINE
100
AcDbLine
 10
-463.2000000001085
 20
-1338.499999999899
 30
0.0
 11
-453.1999999999084
 21
-1338.499999999899
 31
0.0
  0
LINE
  5
6D8
330
1F
100
AcDbEntity
  8
OUTLINE
100
AcDbLine
 10
-424.4999999995975
 20
-1441.000000000105
 30
0.0
 11
-471.2999999998041
 21
-1441.000000000101
 31
0.0
  0
LINE
  5
6D9
330
1F
100
AcDbEntity
  8
OUTLINE
100
AcDbLine
 10
-422.5000000000013
 20
-1443.000000000003
 30
0.0
 11
-472.0999999999071
 21
-1443.000000000004
 31
0.0
  0
LINE
  5
6DA
330
1F
100
AcDbEntity
  8
OUTLINE
100
AcDbLine
 10
-422.5000000000013
 20
-1421.500000000003
 30
0.0
 11
-424.4999999995975
 21
-1421.500000000003
 31
0.0
  0
LINE
  5
6DB
330
1F
100
AcDbEntity
  8
OUTLINE
100
AcDbLine
 10
-424.4999999995975
 20
-1421.500000000003
 30
0.0
 11
-424.4999999995975
 21
-1441.000000000105
 31
0.0
  0
LINE
  5
6DC
330
1F
100
AcDbEntity
  8
OUTLINE
100
AcDbLine
 10
-471.8000000003062
 20
-1434.999999999708
 30
0.0
 11
-471.7999999996041
 21
-1440.500000000301
 31
0.0
  0
LINE
  5
6DD
330
1F
100
AcDbEntity
  8
OUTLINE
100
AcDbLine
 10
-474.0999999998071
 20
-1434.999999999708
 30
0.0
 11
-471.8000000003062
 21
-1434.999999999708
 31
0.0
  0
LINE
  5
6DE
330
1F
100
AcDbEntity
  8
OUTLINE
100
AcDbLine
 10
-474.0999999998071
 20
-1441.000000000104
 30
0.0
 11
-474.0999999998071
 21
-1434.999999999708
 31
0.0
  0
ARC
  5
6DF
330
1F
100
AcDbEntity
  8
OUTLINE
100
AcDbCircle
 10
-472.0999999999071
 20
-1441.000000000104
 30
0.0
 40
1.999999999899999
100
AcDbArc
 50
180.0000000000005
 51
270.0000000000005
  0
ARC
  5
6E0
330
1F
100
AcDbEntity
  8
OUTLINE
100
AcDbCircle
 10
-471.2999999998041
 20
-1440.500000000301
 30
0.0
 40
0.4999999998
100
AcDbArc
 50
180.0000000000005
 51
270.0000000000005
  0
LINE
  5
6E1
330
1F
100
AcDbEntity
  8
OUTLINE
100
AcDbLine
 10
-453.1999999999084
 20
-1333.499999999999
 30
0.0
 11
-422.5000000000022
 21
-1333.499999999998
 31
0.0
  0
LINE
  5
6E2
330
1F
100
AcDbEntity
  8
OUTLINE
100
AcDbLine
 10
-453.1999999999084
 20
-1308.499999999999
 30
0.0
 11
-422.5000000000022
 21
-1308.499999999998
 31
0.0
  0
LINE
  5
6E3
330
1F
100
AcDbEntity
  8
OUTLINE
100
AcDbLine
 10
-436.1900000002037
 20
-1370.000000000295
 30
0.0
 11
-428.8100000001045
 21
-1370.000000000295
 31
0.0
  0
LINE
  5
6E4
330
1F
100
AcDbEntity
  8
OUTLINE
100
AcDbLine
 10
-440.5000000001032
 20
-1368.0000000004
 30
0.0
 11
-440.5000000001032
 21
-1366.0000000005
 31
0.0
  0
LINE
  5
6E5
330
1F
100
AcDbEntity
  8
OUTLINE
100
AcDbLine
 10
-422.5000000000013
 20
-1368.0000000004
 30
0.0
 11
-440.5000000001032
 21
-1368.0000000004
 31
0.0
  0
LINE
  5
6E6
330
1F
100
AcDbEntity
  8
OUTLINE
100
AcDbLine
 10
-440.5000000001032
 20
-1366.0000000005
 30
0.0
 11
-422.5000000000013
 21
-1366.0000000005
 31
0.0
  0
LINE
  5
6E7
330
1F
100
AcDbEntity
  8
OUTLINE
100
AcDbLine
 10
-428.8100000001045
 20
-1370.000000000295
 30
0.0
 11
-428.8100000001045
 21
-1368.0000000004
 31
0.0
  0
LINE
  5
6E8
330
1F
100
AcDbEntity
  8
OUTLINE
100
AcDbLine
 10
-436.1900000002037
 20
-1368.0000000004
 30
0.0
 11
-436.1900000002037
 21
-1370.000000000295
 31
0.0
  0
LINE
  5
6E9
330
1F
100
AcDbEntity
  8
OUTLINE
100
AcDbLine
 10
-422.5000000000078
 20
-2677.500000000003
 30
0.0
 11
-422.4999999999966
 21
-3322.500000000003
 31
0.0
  0
LINE
  5
6EA
330
1F
100
AcDbEntity
  8
OUTLINE
100
AcDbLine
 10
422.4999999999921
 20
-2677.499999999989
 30
0.0
 11
422.5000000000033
 21
-3322.499999999987
 31
0.0
  0
LINE
  5
6F2
330
1F
100
AcDbEntity
  8
OUTLINE
100
AcDbLine
 10
-422.4999999999966
 20
-3322.500000000003
 30
0.0
 11
422.5000000000033
 21
-3322.499999999987
 31
0.0
  0
LINE
  5
6F3
330
1F
100
AcDbEntity
  8
OUTLINE
100
AcDbLine
 10
-422.5000000000078
 20
-2677.500000000003
 30
0.0
 11
422.4999999999921
 21
-2677.499999999989
 31
0.0
  0
LINE
  5
6F4
330
1F
100
AcDbEntity
  8
OUTLINE
100
AcDbLine
 10
-401.5000000000082
 20
-2657.500000000004
 30
0.0
 11
401.4999999999917
 21
-2657.499999999989
 31
0.0
  0
LINE
  5
6F5
330
1F
100
AcDbEntity
  8
OUTLINE
100
AcDbLine
 10
401.4999999999921
 20
-2677.499999999989
 30
0.0
 11
401.4999999999917
 21
-2657.499999999989
 31
0.0
  0
LINE
  5
6F6
330
1F
100
AcDbEntity
  8
OUTLINE
100
AcDbLine
 10
-401.5000000000078
 20
-2677.500000000003
 30
0.0
 11
-401.5000000000082
 21
-2657.500000000004
 31
0.0
  0
LINE
  5
6F7
330
1F
100
AcDbEntity
  8
OUTLINE
100
AcDbLine
 10
-474.0999999998033
 20
-3273.000000000206
 30
0.0
 11
-474.0999999998035
 21
-3261.000000000112
 31
0.0
  0
LINE
  5
6F8
330
1F
100
AcDbEntity
  8
OUTLINE
100
AcDbLine
 10
-422.4999999999974
 20
-3280.49999999956
 30
0.0
 11
-464.5289321879038
 21
-3280.500000000714
 31
0.0
  0
LINE
  5
6F9
330
1F
100
AcDbEntity
  8
OUTLINE
100
AcDbLine
 10
-468.0644660939989
 20
-3279.035533906003
 30
0.0
 11
-474.0999999998033
 21
-3273.000000000206
 31
0.0
  0
ARC
  5
6FA
330
1F
100
AcDbEntity
  8
OUTLINE
100
AcDbCircle
 10
-464.5289321879038
 20
-3275.500000000614
 30
0.0
 40
5.0000000001
100
AcDbArc
 50
225.000000000001
 51
270.0000000000009
  0
ARC
  5
6FB
330
1F
100
AcDbEntity
  8
OUTLINE
100
AcDbCircle
 10
-454.8000000001025
 20
-3264.500000000111
 30
0.0
 40
5.999999999699999
100
AcDbArc
 50
180.0000000000009
 51
0.0000000000009867
  0
LINE
  5
6FC
330
1F
100
AcDbEntity
  8
OUTLINE
100
AcDbLine
 10
-460.799999999806
 20
-3261.000000000112
 30
0.0
 11
-460.7999999998059
 21
-3264.500000000111
 31
0.0
  0
LINE
  5
6FD
330
1F
100
AcDbEntity
  8
OUTLINE
100
AcDbLine
 10
-460.799999999806
 20
-3261.000000000112
 30
0.0
 11
-474.0999999998035
 21
-3261.000000000112
 31
0.0
  0
LINE
  5
6FE
330
1F
100
AcDbEntity
  8
OUTLINE
100
AcDbLine
 10
-474.0999999998039
 20
-3237.999999999806
 30
0.0
 11
-474.0999999998036
 21
-3249.999999999901
 31
0.0
  0
LINE
  5
6FF
330
1F
100
AcDbEntity
  8
OUTLINE
100
AcDbLine
 10
-422.4999999999982
 20
-3230.500000000451
 30
0.0
 11
-464.5289321879046
 21
-3230.499999999298
 31
0.0
  0
LINE
  5
700
330
1F
100
AcDbEntity
  8
OUTLINE
100
AcDbLine
 10
-468.0644660939998
 20
-3231.964466094009
 30
0.0
 11
-474.0999999998039
 21
-3237.999999999806
 31
0.0
  0
ARC
  5
701
330
1F
100
AcDbEntity
  8
OUTLINE
100
AcDbCircle
 10
-464.5289321879045
 20
-3235.499999999398
 30
0.0
 40
5.0000000001
100
AcDbArc
 50
90.00000000000101
 51
135.000000000001
  0
ARC
  5
702
330
1F
100
AcDbEntity
  8
OUTLINE
100
AcDbCircle
 10
-454.8000000001027
 20
-3246.499999999901
 30
0.0
 40
5.999999999699999
100
AcDbArc
 50
0.0000000000009867
 51
180.0000000000009
  0
LINE
  5
703
330
1F
100
AcDbEntity
  8
OUTLINE
100
AcDbLine
 10
-460.7999999998062
 20
-3249.999999999901
 30
0.0
 11
-460.7999999998063
 21
-3246.499999999901
 31
0.0
  0
LINE
  5
704
330
1F
100
AcDbEntity
  8
OUTLINE
100
AcDbLine
 10
-460.7999999998062
 20
-3249.999999999901
 30
0.0
 11
-474.0999999998036
 21
-3249.999999999901
 31
0.0
  0
LINE
  5
705
330
1F
100
AcDbEntity
  8
OUTLINE
100
AcDbLine
 10
-448.8000000004044
 20
-3264.500000000111
 30
0.0
 11
-448.8000000004047
 21
-3246.499999999901
 31
0.0
  0
LINE
  5
706
330
1F
100
AcDbEntity
  8
OUTLINE
100
AcDbLine
 10
474.0999999998118
 20
-3273.00000000019
 30
0.0
 11
474.0999999998115
 21
-3261.000000000096
 31
0.0
  0
LINE
  5
707
330
1F
100
AcDbEntity
  8
OUTLINE
100
AcDbLine
 10
422.5000000000061
 20
-3280.499999999545
 30
0.0
 11
464.5289321879088
 21
-3280.500000000698
 31
0.0
  0
LINE
  5
708
330
1F
100
AcDbEntity
  8
OUTLINE
100
AcDbLine
 10
468.0644660940041
 20
-3279.035533905987
 30
0.0
 11
474.0999999998118
 21
-3273.00000000019
 31
0.0
  0
ARC
  5
709
330
1F
100
AcDbEntity
  8
OUTLINE
100
AcDbCircle
 10
464.5289321879088
 20
-3275.500000000597
 30
0.0
 40
5.0000000001
100
AcDbArc
 50
270.000000000001
 51
315.0000000000009
  0
ARC
  5
70A
330
1F
100
AcDbEntity
  8
OUTLINE
100
AcDbCircle
 10
454.8000000001106
 20
-3264.500000000095
 30
0.0
 40
5.999999999699999
100
AcDbArc
 50
180.0000000000009
 51
0.0000000000009797
  0
LINE
  5
70B
330
1F
100
AcDbEntity
  8
OUTLINE
100
AcDbLine
 10
460.7999999998122
 20
-3261.000000000096
 30
0.0
 11
460.7999999998123
 21
-3264.500000000095
 31
0.0
  0
LINE
  5
70C
330
1F
100
AcDbEntity
  8
OUTLINE
100
AcDbLine
 10
460.7999999998122
 20
-3261.000000000096
 30
0.0
 11
474.0999999998115
 21
-3261.000000000096
 31
0.0
  0
LINE
  5
70D
330
1F
100
AcDbEntity
  8
OUTLINE
100
AcDbLine
 10
474.0999999998112
 20
-3237.999999999789
 30
0.0
 11
474.0999999998114
 21
-3249.999999999884
 31
0.0
  0
LINE
  5
70E
330
1F
100
AcDbEntity
  8
OUTLINE
100
AcDbLine
 10
422.5000000000053
 20
-3230.500000000437
 30
0.0
 11
464.528932187908
 21
-3230.499999999282
 31
0.0
  0
LINE
  5
70F
330
1F
100
AcDbEntity
  8
OUTLINE
100
AcDbLine
 10
468.0644660940032
 20
-3231.964466093993
 30
0.0
 11
474.0999999998112
 21
-3237.999999999789
 31
0.0
  0
ARC
  5
710
330
1F
100
AcDbEntity
  8
OUTLINE
100
AcDbCircle
 10
464.5289321879081
 20
-3235.499999999382
 30
0.0
 40
5.0000000001
100
AcDbArc
 50
45.00000000000101
 51
90.00000000000101
  0
ARC
  5
711
330
1F
100
AcDbEntity
  8
OUTLINE
100
AcDbCircle
 10
454.8000000001104
 20
-3246.499999999884
 30
0.0
 40
5.999999999699999
100
AcDbArc
 50
0.0000000000009797
 51
180.0000000000009
  0
LINE
  5
712
330
1F
100
AcDbEntity
  8
OUTLINE
100
AcDbLine
 10
460.7999999998121
 20
-3249.999999999884
 30
0.0
 11
460.7999999998121
 21
-3246.499999999884
 31
0.0
  0
LINE
  5
713
330
1F
100
AcDbEntity
  8
OUTLINE
100
AcDbLine
 10
460.7999999998121
 20
-3249.999999999884
 30
0.0
 11
474.0999999998114
 21
-3249.999999999884
 31
0.0
  0
LINE
  5
714
330
1F
100
AcDbEntity
  8
OUTLINE
100
AcDbLine
 10
448.800000000409
 20
-3264.500000000095
 30
0.0
 11
448.8000000004086
 21
-3246.499999999884
 31
0.0
  0
LINE
  5
715
330
1F
100
AcDbEntity
  8
OUTLINE
100
AcDbLine
 10
-474.0999999998127
 20
-2726.999999999803
 30
0.0
 11
-474.0999999998124
 21
-2738.999999999897
 31
0.0
  0
LINE
  5
716
330
1F
100
AcDbEntity
  8
OUTLINE
100
AcDbLine
 10
-422.500000000007
 20
-2719.500000000447
 30
0.0
 11
-464.5289321879134
 21
-2719.499999999295
 31
0.0
  0
LINE
  5
717
330
1F
100
AcDbEntity
  8
OUTLINE
100
AcDbLine
 10
-468.0644660940085
 20
-2720.964466094005
 30
0.0
 11
-474.0999999998127
 21
-2726.999999999803
 31
0.0
  0
ARC
  5
718
330
1F
100
AcDbEntity
  8
OUTLINE
100
AcDbCircle
 10
-464.5289321879133
 20
-2724.499999999395
 30
0.0
 40
5.0000000001
100
AcDbArc
 50
90.00000000000101
 51
135.000000000001
  0
ARC
  5
719
330
1F
100
AcDbEntity
  8
OUTLINE
100
AcDbCircle
 10
-454.8000000001116
 20
-2735.499999999897
 30
0.0
 40
5.999999999699999
100
AcDbArc
 50
0.0000000000009867
 51
180.0000000000009
  0
LINE
  5
71A
330
1F
100
AcDbEntity
  8
OUTLINE
100
AcDbLine
 10
-460.799999999815
 20
-2738.999999999897
 30
0.0
 11
-460.7999999998151
 21
-2735.499999999897
 31
0.0
  0
LINE
  5
71B
330
1F
100
AcDbEntity
  8
OUTLINE
100
AcDbLine
 10
-460.799999999815
 20
-2738.999999999897
 30
0.0
 11
-474.0999999998124
 21
-2738.999999999897
 31
0.0
  0
LINE
  5
71C
330
1F
100
AcDbEntity
  8
OUTLINE
100
AcDbLine
 10
-474.0999999998121
 20
-2762.000000000202
 30
0.0
 11
-474.0999999998122
 21
-2750.000000000108
 31
0.0
  0
LINE
  5
71D
330
1F
100
AcDbEntity
  8
OUTLINE
100
AcDbLine
 10
-422.5000000000062
 20
-2769.499999999556
 30
0.0
 11
-464.5289321879126
 21
-2769.50000000071
 31
0.0
  0
LINE
  5
71E
330
1F
100
AcDbEntity
  8
OUTLINE
100
AcDbLine
 10
-468.0644660940077
 20
-2768.035533905999
 30
0.0
 11
-474.0999999998121
 21
-2762.000000000202
 31
0.0
  0
ARC
  5
71F
330
1F
100
AcDbEntity
  8
OUTLINE
100
AcDbCircle
 10
-464.5289321879126
 20
-2764.50000000061
 30
0.0
 40
5.0000000001
100
AcDbArc
 50
225.000000000001
 51
270.0000000000009
  0
ARC
  5
720
330
1F
100
AcDbEntity
  8
OUTLINE
100
AcDbCircle
 10
-454.8000000001112
 20
-2753.500000000108
 30
0.0
 40
5.999999999699999
100
AcDbArc
 50
180.0000000000009
 51
0.0000000000009867
  0
LINE
  5
721
330
1F
100
AcDbEntity
  8
OUTLINE
100
AcDbLine
 10
-460.7999999998148
 20
-2750.000000000108
 30
0.0
 11
-460.7999999998148
 21
-2753.500000000108
 31
0.0
  0
LINE
  5
722
330
1F
100
AcDbEntity
  8
OUTLINE
100
AcDbLine
 10
-460.7999999998148
 20
-2750.000000000108
 30
0.0
 11
-474.0999999998122
 21
-2750.000000000108
 31
0.0
  0
LINE
  5
723
330
1F
100
AcDbEntity
  8
OUTLINE
100
AcDbLine
 10
-448.8000000004135
 20
-2735.499999999896
 30
0.0
 11
-448.8000000004133
 21
-2753.500000000107
 31
0.0
  0
LINE
  5
724
330
1F
100
AcDbEntity
  8
OUTLINE
100
AcDbLine
 10
474.0999999998023
 20
-2726.999999999786
 30
0.0
 11
474.0999999998026
 21
-2738.999999999881
 31
0.0
  0
LINE
  5
725
330
1F
100
AcDbEntity
  8
OUTLINE
100
AcDbLine
 10
422.4999999999965
 20
-2719.500000000433
 30
0.0
 11
464.5289321878991
 21
-2719.499999999278
 31
0.0
  0
LINE
  5
726
330
1F
100
AcDbEntity
  8
OUTLINE
100
AcDbLine
 10
468.0644660939945
 20
-2720.964466093989
 30
0.0
 11
474.0999999998023
 21
-2726.999999999786
 31
0.0
  0
ARC
  5
727
330
1F
100
AcDbEntity
  8
OUTLINE
100
AcDbCircle
 10
464.5289321878993
 20
-2724.499999999379
 30
0.0
 40
5.0000000001
100
AcDbArc
 50
45.00000000000101
 51
90.00000000000101
  0
ARC
  5
728
330
1F
100
AcDbEntity
  8
OUTLINE
100
AcDbCircle
 10
454.8000000001016
 20
-2735.499999999881
 30
0.0
 40
5.999999999699999
100
AcDbArc
 50
0.0000000000009867
 51
180.0000000000009
  0
LINE
  5
729
330
1F
100
AcDbEntity
  8
OUTLINE
100
AcDbLine
 10
460.7999999998033
 20
-2738.999999999881
 30
0.0
 11
460.7999999998033
 21
-2735.499999999881
 31
0.0
  0
LINE
  5
72A
330
1F
100
AcDbEntity
  8
OUTLINE
100
AcDbLine
 10
460.7999999998033
 20
-2738.999999999881
 30
0.0
 11
474.0999999998026
 21
-2738.999999999881
 31
0.0
  0
LINE
  5
72B
330
1F
100
AcDbEntity
  8
OUTLINE
100
AcDbLine
 10
474.099999999803
 20
-2762.000000000186
 30
0.0
 11
474.0999999998027
 21
-2750.000000000092
 31
0.0
  0
LINE
  5
72C
330
1F
100
AcDbEntity
  8
OUTLINE
100
AcDbLine
 10
422.4999999999973
 20
-2769.499999999541
 30
0.0
 11
464.5289321879
 21
-2769.500000000693
 31
0.0
  0
LINE
  5
72D
330
1F
100
AcDbEntity
  8
OUTLINE
100
AcDbLine
 10
468.0644660939953
 20
-2768.035533905983
 30
0.0
 11
474.099999999803
 21
-2762.000000000186
 31
0.0
  0
ARC
  5
72E
330
1F
100
AcDbEntity
  8
OUTLINE
100
AcDbCircle
 10
464.5289321878999
 20
-2764.500000000594
 30
0.0
 40
5.0000000001
100
AcDbArc
 50
270.0000000000009
 51
315.0000000000009
  0
ARC
  5
72F
330
1F
100
AcDbEntity
  8
OUTLINE
100
AcDbCircle
 10
454.8000000001018
 20
-2753.500000000092
 30
0.0
 40
5.999999999699999
100
AcDbArc
 50
180.0000000000009
 51
0.0000000000009867
  0
LINE
  5
730
330
1F
100
AcDbEntity
  8
OUTLINE
100
AcDbLine
 10
460.7999999998035
 20
-2750.000000000092
 30
0.0
 11
460.7999999998035
 21
-2753.500000000092
 31
0.0
  0
LINE
  5
731
330
1F
100
AcDbEntity
  8
OUTLINE
100
AcDbLine
 10
460.7999999998035
 20
-2750.000000000092
 30
0.0
 11
474.0999999998027
 21
-2750.000000000092
 31
0.0
  0
LINE
  5
732
330
1F
100
AcDbEntity
  8
OUTLINE
100
AcDbLine
 10
448.8000000003999
 20
-2735.499999999881
 30
0.0
 11
448.8000000004001
 21
-2753.500000000093
 31
0.0
  0
LINE
  5
733
330
1F
100
AcDbEntity
  8
OUTLINE
100
AcDbLine
 10
-453.1999999999093
 20
-2946.000000000104
 30
0.0
 11
-453.1999999999087
 21
-2980.999999999903
 31
0.0
  0
LINE
  5
734
330
1F
100
AcDbEntity
  8
OUTLINE
100
AcDbLine
 10
-463.2000000001093
 20
-2946.000000000104
 30
0.0
 11
-463.2000000001088
 21
-2980.999999999904
 31
0.0
  0
LINE
  5
735
330
1F
100
AcDbEntity
  8
OUTLINE
100
AcDbLine
 10
-453.1999999999093
 20
-2946.000000000104
 30
0.0
 11
-463.2000000001093
 21
-2946.000000000104
 31
0.0
  0
LINE
  5
736
330
1F
100
AcDbEntity
  8
OUTLINE
100
AcDbLine
 10
-463.2000000001088
 20
-2980.999999999904
 30
0.0
 11
-453.1999999999087
 21
-2980.999999999903
 31
0.0
  0
LINE
  5
737
330
1F
100
AcDbEntity
  8
OUTLINE
100
AcDbLine
 10
-453.1999999999087
 20
-2976.000000000004
 30
0.0
 11
-422.5000000000027
 21
-2976.000000000004
 31
0.0
  0
LINE
  5
738
330
1F
100
AcDbEntity
  8
OUTLINE
100
AcDbLine
 10
-453.1999999999093
 20
-2951.000000000004
 30
0.0
 11
-422.5000000000031
 21
-2951.000000000004
 31
0.0
  0
LINE
  5
739
330
1F
100
AcDbEntity
  8
OUTLINE
100
AcDbLine
 10
453.1999999999032
 20
-2966.500000000243
 30
0.0
 11
453.1999999999035
 21
-2980.999999999888
 31
0.0
  0
LINE
  5
73A
330
1F
100
AcDbEntity
  8
OUTLINE
100
AcDbLine
 10
463.2000000001034
 20
-2966.150000000158
 30
0.0
 11
463.2000000001036
 21
-2980.999999999888
 31
0.0
  0
LINE
  5
73B
330
1F
100
AcDbEntity
  8
OUTLINE
100
AcDbLine
 10
463.2000000001036
 20
-2980.999999999888
 30
0.0
 11
453.1999999999035
 21
-2980.999999999888
 31
0.0
  0
LINE
  5
73C
330
1F
100
AcDbEntity
  8
OUTLINE
100
AcDbLine
 10
453.1999999999034
 20
-2975.999999999988
 30
0.0
 11
422.4999999999972
 21
-2975.999999999989
 31
0.0
  0
LINE
  5
73D
330
1F
100
AcDbEntity
  8
OUTLINE
100
AcDbLine
 10
454.9400000001003
 20
-2911.494374724188
 30
0.0
 11
440.9400000001004
 21
-2911.494374724188
 31
0.0
  0
LINE
  5
73E
330
1F
100
AcDbEntity
  8
OUTLINE
100
AcDbLine
 10
440.9400000001004
 20
-2911.494374724188
 30
0.0
 11
440.9400000001
 21
-2889.505625275788
 31
0.0
  0
LINE
  5
73F
330
1F
100
AcDbEntity
  8
OUTLINE
100
AcDbLine
 10
440.9400000001003
 20
-2908.434374724487
 30
0.0
 11
422.4999999999961
 21
-2908.434374724487
 31
0.0
  0
LINE
  5
740
330
1F
100
AcDbEntity
  8
OUTLINE
100
AcDbLine
 10
462.9400000004023
 20
-2913.994374724591
 30
0.0
 11
462.9400000004092
 21
-2887.005625275383
 31
0.0
  0
LINE
  5
741
330
1F
100
AcDbEntity
  8
OUTLINE
100
AcDbLine
 10
462.9400000004023
 20
-2913.994374724591
 30
0.0
 11
454.9400000001004
 21
-2913.99437472459
 31
0.0
  0
LINE
  5
742
330
1F
100
AcDbEntity
  8
OUTLINE
100
AcDbLine
 10
454.9400000001035
 20
-2887.005625275385
 30
0.0
 11
454.9400000001004
 21
-2913.99437472459
 31
0.0
  0
LINE
  5
743
330
1F
100
AcDbEntity
  8
OUTLINE
100
AcDbLine
 10
467.9399999998021
 20
-2914.494374724387
 30
0.0
 11
467.9399999998016
 21
-2886.505625275592
 31
0.0
  0
LINE
  5
744
330
1F
100
AcDbEntity
  8
OUTLINE
100
AcDbLine
 10
468.1222716865995
 20
-2914.994374724187
 30
0.0
 11
467.9399999998021
 21
-2914.494374724387
 31
0.0
  0
LINE
  5
745
330
1F
100
AcDbEntity
  8
OUTLINE
100
AcDbLine
 10
493.9399999999003
 20
-2912.994374724287
 30
0.0
 11
493.9399999998999
 21
-2888.005625275686
 31
0.0
  0
LINE
  5
746
330
1F
100
AcDbEntity
  8
OUTLINE
100
AcDbLine
 10
468.1222716865995
 20
-2914.994374724187
 30
0.0
 11
489.748658088505
 21
-2914.994374724187
 31
0.0
  0
LINE
  5
747
330
1F
100
AcDbEntity
  8
OUTLINE
100
AcDbLine
 10
493.9399999999003
 20
-2912.994374724287
 30
0.0
 11
489.748658088505
 21
-2914.994374724187
 31
0.0
  0
LINE
  5
748
330
1F
100
AcDbEntity
  8
OUTLINE
100
AcDbLine
 10
454.9400000001
 20
-2889.505625275788
 30
0.0
 11
440.9400000001
 21
-2889.505625275788
 31
0.0
  0
LINE
  5
749
330
1F
100
AcDbEntity
  8
OUTLINE
100
AcDbLine
 10
440.9400000001
 20
-2892.565625275491
 30
0.0
 11
422.4999999999958
 21
-2892.565625275491
 31
0.0
  0
LINE
  5
74A
330
1F
100
AcDbEntity
  8
OUTLINE
100
AcDbLine
 10
462.9400000004092
 20
-2887.005625275383
 30
0.0
 11
454.9400000001035
 21
-2887.005625275385
 31
0.0
  0
LINE
  5
74B
330
1F
100
AcDbEntity
  8
OUTLINE
100
AcDbLine
 10
468.1222716865989
 20
-2886.005625275788
 30
0.0
 11
489.7486580885046
 21
-2886.005625275788
 31
0.0
  0
LINE
  5
74C
330
1F
100
AcDbEntity
  8
OUTLINE
100
AcDbLine
 10
493.9399999998999
 20
-2888.005625275686
 30
0.0
 11
489.7486580885046
 21
-2886.005625275788
 31
0.0
  0
LINE
  5
74D
330
1F
100
AcDbEntity
  8
OUTLINE
100
AcDbLine
 10
458.5000000003003
 20
-2828.544083128889
 30
0.0
 11
449.5000000004022
 21
-2828.544083128891
 31
0.0
  0
LINE
  5
74E
330
1F
100
AcDbEntity
  8
OUTLINE
100
AcDbLine
 10
458.5000000003003
 20
-2828.544083128889
 30
0.0
 11
458.5000000003001
 21
-2812.455916871087
 31
0.0
  0
LINE
  5
74F
330
1F
100
AcDbEntity
  8
OUTLINE
100
AcDbLine
 10
449.5000000004022
 20
-2828.544083128891
 30
0.0
 11
449.5000000004019
 21
-2812.455916871083
 31
0.0
  0
LINE
  5
750
330
1F
100
AcDbEntity
  8
OUTLINE
100
AcDbLine
 10
462.303526945698
 20
-2830.312197581887
 30
0.0
 11
475.49806480537
 21
-2830.312197581887
 31
0.0
  0
LINE
  5
751
330
1F
100
AcDbEntity
  8
OUTLINE
100
AcDbLine
 10
461.4000000004
 20
-2828.750000000192
 30
0.0
 11
461.4000000004
 21
-2827.544937911188
 31
0.0
  0
LINE
  5
752
330
1F
100
AcDbEntity
  8
OUTLINE
100
AcDbLine
 10
461.4000000004
 20
-2827.544937911188
 30
0.0
 11
461.4000000003997
 21
-2812.24999999979
 31
0.0
  0
LINE
  5
753
330
1F
100
AcDbEntity
  8
OUTLINE
100
AcDbLine
 10
462.242005857401
 20
-2830.185421491188
 30
0.0
 11
462.303526945698
 21
-2830.312197581887
 31
0.0
  0
LINE
  5
754
330
1F
100
AcDbEntity
  8
OUTLINE
100
AcDbLine
 10
461.4000000004
 20
-2825.099999999692
 30
0.0
 11
458.5000000003002
 21
-2825.099999999692
 31
0.0
  0
LINE
  5
755
330
1F
100
AcDbEntity
  8
OUTLINE
100
AcDbLine
 10
462.2320572026022
 20
-2830.191165349591
 30
0.0
 11
461.4000000004
 21
-2828.750000000192
 31
0.0
  0
LINE
  5
756
330
1F
100
AcDbEntity
  8
OUTLINE
100
AcDbLine
 10
476.3999999999962
 20
-2828.750000000192
 30
0.0
 11
476.3999999999959
 21
-2812.249999999784
 31
0.0
  0
LINE
  5
757
330
1F
100
AcDbEntity
  8
OUTLINE
100
AcDbLine
 10
476.3999999999962
 20
-2828.750000000192
 30
0.0
 11
475.49806480537
 21
-2830.312197581887
 31
0.0
  0
LINE
  5
758
330
1F
100
AcDbEntity
  8
OUTLINE
100
AcDbLine
 10
449.500000000402
 20
-2815.749999999784
 30
0.0
 11
422.4999999999945
 21
-2815.749999999785
 31
0.0
  0
LINE
  5
759
330
1F
100
AcDbEntity
  8
OUTLINE
100
AcDbLine
 10
458.5000000003001
 20
-2812.455916871087
 30
0.0
 11
449.5000000004019
 21
-2812.455916871083
 31
0.0
  0
LINE
  5
75A
330
1F
100
AcDbEntity
  8
OUTLINE
100
AcDbLine
 10
462.3035269456976
 20
-2810.687802418089
 30
0.0
 11
475.4980648053696
 21
-2810.687802418089
 31
0.0
  0
LINE
  5
75B
330
1F
100
AcDbEntity
  8
OUTLINE
100
AcDbLine
 10
461.4000000003997
 20
-2812.249999999784
 30
0.0
 11
461.4000000003998
 21
-2813.455062088788
 31
0.0
  0
LINE
  5
75C
330
1F
100
AcDbEntity
  8
OUTLINE
100
AcDbLine
 10
462.2420058574006
 20
-2810.814578508788
 30
0.0
 11
462.3035269456976
 21
-2810.687802418089
 31
0.0
  0
LINE
  5
75D
330
1F
100
AcDbEntity
  8
OUTLINE
100
AcDbLine
 10
461.4000000003998
 20
-2815.900000000284
 30
0.0
 11
458.5000000003001
 21
-2815.900000000284
 31
0.0
  0
LINE
  5
75E
330
1F
100
AcDbEntity
  8
OUTLINE
100
AcDbLine
 10
462.2320572026018
 20
-2810.808834650385
 30
0.0
 11
461.4000000003997
 21
-2812.249999999784
 31
0.0
  0
LINE
  5
75F
330
1F
100
AcDbEntity
  8
OUTLINE
100
AcDbLine
 10
476.3999999999959
 20
-2812.249999999784
 30
0.0
 11
475.4980648053696
 21
-2810.687802418089
 31
0.0
  0
LINE
  5
760
330
1F
100
AcDbEntity
  8
OUTLINE
100
AcDbLine
 10
449.5000000004021
 20
-2825.250000000192
 30
0.0
 11
422.4999999999947
 21
-2825.250000000193
 31
0.0
  0
LINE
  5
761
330
1F
100
AcDbEntity
  8
OUTLINE
100
AcDbLine
 10
468.1222716865989
 20
-2886.005625275788
 30
0.0
 11
467.9399999998016
 21
-2886.505625275592
 31
0.0
  0
LINE
  5
762
330
1F
100
AcDbEntity
  8
OUTLINE
100
AcDbLine
 10
462.9400000004023
 20
-2909.999999999988
 30
0.0
 11
467.939999999802
 21
-2909.999999999988
 31
0.0
  0
LINE
  5
763
330
1F
100
AcDbEntity
  8
OUTLINE
100
AcDbLine
 10
462.9400000004056
 20
-2890.999999999986
 30
0.0
 11
467.9399999998017
 21
-2890.999999999988
 31
0.0
  0
LINE
  5
764
330
1F
100
AcDbEntity
  8
OUTLINE
100
AcDbLine
 10
466.4999999999024
 20
-2964.499999999875
 30
0.0
 11
466.499999999902
 21
-2936.500000000106
 31
0.0
  0
LINE
  5
765
330
1F
100
AcDbEntity
  8
OUTLINE
100
AcDbLine
 10
424.4999999995927
 20
-2934.49999999974
 30
0.0
 11
462.5000000000984
 21
-2934.499999999739
 31
0.0
  0
LINE
  5
766
330
1F
100
AcDbEntity
  8
OUTLINE
100
AcDbLine
 10
462.5000000000984
 20
-2934.499999999739
 30
0.0
 11
466.499999999902
 21
-2936.500000000106
 31
0.0
  0
LINE
  5
767
330
1F
100
AcDbEntity
  8
OUTLINE
100
AcDbLine
 10
462.500000000099
 20
-2966.500000000241
 30
0.0
 11
422.4999999999971
 21
-2966.500000000241
 31
0.0
  0
LINE
  5
768
330
1F
100
AcDbEntity
  8
OUTLINE
100
AcDbLine
 10
466.4999999999024
 20
-2964.499999999875
 30
0.0
 11
462.500000000099
 21
-2966.500000000241
 31
0.0
  0
LINE
  5
769
330
1F
100
AcDbEntity
  8
OUTLINE
100
AcDbLine
 10
-422.4999999999986
 20
322.5000000000008
 30
0.0
 11
-422.5000000000013
 21
-322.499999999999
 31
0.0
  0
LINE
  5
76A
330
1F
100
AcDbEntity
  8
OUTLINE
100
AcDbLine
 10
422.5000000000013
 20
322.4999999999972
 30
0.0
 11
422.4999999999995
 21
-322.5000000000008
 31
0.0
  0
LINE
  5
76B
330
1F
100
AcDbEntity
  8
OUTLINE
100
AcDbLine
 10
-422.5000000000013
 20
-322.499999999999
 30
0.0
 11
422.4999999999995
 21
-322.5000000000008
 31
0.0
  0
LINE
  5
76C
330
1F
100
AcDbEntity
  8
OUTLINE
100
AcDbLine
 10
-422.4999999999986
 20
322.5000000000008
 30
0.0
 11
422.5000000000013
 21
322.4999999999972
 31
0.0
  0
LINE
  5
76D
330
1F
100
AcDbEntity
  8
OUTLINE
100
AcDbLine
 10
-401.4999999999986
 20
342.5000000000009
 30
0.0
 11
401.5000000000013
 21
342.4999999999977
 31
0.0
  0
LINE
  5
76E
330
1F
100
AcDbEntity
  8
OUTLINE
100
AcDbLine
 10
401.5000000000013
 20
322.4999999999977
 30
0.0
 11
401.5000000000013
 21
342.4999999999977
 31
0.0
  0
LINE
  5
76F
330
1F
100
AcDbEntity
  8
OUTLINE
100
AcDbLine
 10
-401.4999999999986
 20
322.5000000000008
 30
0.0
 11
-401.4999999999986
 21
342.5000000000009
 31
0.0
  0
LINE
  5
770
330
1F
100
AcDbEntity
  8
OUTLINE
100
AcDbLine
 10
-474.0999999998071
 20
-273.0000000002005
 30
0.0
 11
-474.0999999998061
 21
-261.0000000001059
 31
0.0
  0
LINE
  5
771
330
1F
100
AcDbEntity
  8
OUTLINE
100
AcDbLine
 10
-422.5000000000013
 20
-280.4999999995552
 30
0.0
 11
-464.5289321879077
 21
-280.500000000708
 31
0.0
  0
LINE
  5
772
330
1F
100
AcDbEntity
  8
OUTLINE
100
AcDbLine
 10
-468.0644660940028
 20
-279.0355339059974
 30
0.0
 11
-474.0999999998071
 21
-273.0000000002005
 31
0.0
  0
ARC
  5
773
330
1F
100
AcDbEntity
  8
OUTLINE
100
AcDbCircle
 10
-464.5289321879077
 20
-275.5000000006079
 30
0.0
 40
5.0000000001
100
AcDbArc
 50
224.9999999999997
 51
269.9999999999997
  0
ARC
  5
774
330
1F
100
AcDbEntity
  8
OUTLINE
100
AcDbCircle
 10
-454.8000000001052
 20
-264.5000000001059
 30
0.0
 40
5.999999999699999
100
AcDbArc
 50
179.9999999999997
 51
359.9999999999997
  0
LINE
  5
775
330
1F
100
AcDbEntity
  8
OUTLINE
100
AcDbLine
 10
-460.7999999998087
 20
-261.0000000001059
 30
0.0
 11
-460.7999999998087
 21
-264.5000000001059
 31
0.0
  0
LINE
  5
776
330
1F
100
AcDbEntity
  8
OUTLINE
100
AcDbLine
 10
-460.7999999998087
 20
-261.0000000001059
 30
0.0
 11
-474.0999999998061
 21
-261.0000000001059
 31
0.0
  0
LINE
  5
777
330
1F
100
AcDbEntity
  8
OUTLINE
100
AcDbLine
 10
-474.0999999998061
 20
-237.9999999998003
 30
0.0
 11
-474.0999999998061
 21
-249.9999999998949
 31
0.0
  0
LINE
  5
778
330
1F
100
AcDbEntity
  8
OUTLINE
100
AcDbLine
 10
-422.5000000000004
 20
-230.5000000004465
 30
0.0
 11
-464.5289321879068
 21
-230.4999999992928
 31
0.0
  0
LINE
  5
779
330
1F
100
AcDbEntity
  8
OUTLINE
100
AcDbLine
 10
-468.064466094002
 20
-231.9644660940034
 30
0.0
 11
-474.0999999998061
 21
-237.9999999998003
 31
0.0
  0
ARC
  5
77A
330
1F
100
AcDbEntity
  8
OUTLINE
100
AcDbCircle
 10
-464.5289321879068
 20
-235.4999999993929
 30
0.0
 40
5.0000000001
100
AcDbArc
 50
89.99999999999976
 51
134.9999999999997
  0
ARC
  5
77B
330
1F
100
AcDbEntity
  8
OUTLINE
100
AcDbCircle
 10
-454.8000000001052
 20
-246.4999999998949
 30
0.0
 40
5.999999999699999
100
AcDbArc
 50
359.9999999999997
 51
179.9999999999997
  0
LINE
  5
77C
330
1F
100
AcDbEntity
  8
OUTLINE
100
AcDbLine
 10
-460.7999999998087
 20
-249.9999999998949
 30
0.0
 11
-460.7999999998087
 21
-246.4999999998949
 31
0.0
  0
LINE
  5
77D
330
1F
100
AcDbEntity
  8
OUTLINE
100
AcDbLine
 10
-460.7999999998087
 20
-249.9999999998949
 30
0.0
 11
-474.0999999998061
 21
-249.9999999998949
 31
0.0
  0
LINE
  5
77E
330
1F
100
AcDbEntity
  8
OUTLINE
100
AcDbLine
 10
-448.8000000004071
 20
-264.5000000001059
 30
0.0
 11
-448.8000000004071
 21
-246.4999999998949
 31
0.0
  0
LINE
  5
77F
330
1F
100
AcDbEntity
  8
OUTLINE
100
AcDbLine
 10
474.0999999998089
 20
-273.0000000002046
 30
0.0
 11
474.0999999998089
 21
-261.00000000011
 31
0.0
  0
LINE
  5
780
330
1F
100
AcDbEntity
  8
OUTLINE
100
AcDbLine
 10
422.5000000000031
 20
-280.4999999995589
 30
0.0
 11
464.5289321879058
 21
-280.5000000007121
 31
0.0
  0
LINE
  5
781
330
1F
100
AcDbEntity
  8
OUTLINE
100
AcDbLine
 10
468.0644660940011
 20
-279.0355339060015
 30
0.0
 11
474.0999999998089
 21
-273.0000000002046
 31
0.0
  0
ARC
  5
782
330
1F
100
AcDbEntity
  8
OUTLINE
100
AcDbCircle
 10
464.5289321879058
 20
-275.500000000612
 30
0.0
 40
5.0000000001
100
AcDbArc
 50
269.9999999999997
 51
314.9999999999997
  0
ARC
  5
783
330
1F
100
AcDbEntity
  8
OUTLINE
100
AcDbCircle
 10
454.800000000108
 20
-264.50000000011
 30
0.0
 40
5.999999999699999
100
AcDbArc
 50
179.9999999999997
 51
359.9999999999997
  0
LINE
  5
784
330
1F
100
AcDbEntity
  8
OUTLINE
100
AcDbLine
 10
460.7999999998096
 20
-261.00000000011
 30
0.0
 11
460.7999999998096
 21
-264.50000000011
 31
0.0
  0
LINE
  5
785
330
1F
100
AcDbEntity
  8
OUTLINE
100
AcDbLine
 10
460.7999999998096
 20
-261.00000000011
 30
0.0
 11
474.0999999998089
 21
-261.00000000011
 31
0.0
  0
LINE
  5
786
330
1F
100
AcDbEntity
  8
OUTLINE
100
AcDbLine
 10
474.0999999998089
 20
-237.9999999998044
 30
0.0
 11
474.0999999998089
 21
-249.999999999899
 31
0.0
  0
LINE
  5
787
330
1F
100
AcDbEntity
  8
OUTLINE
100
AcDbLine
 10
422.5000000000031
 20
-230.5000000004501
 30
0.0
 11
464.5289321879058
 21
-230.4999999992969
 31
0.0
  0
LINE
  5
788
330
1F
100
AcDbEntity
  8
OUTLINE
100
AcDbLine
 10
468.0644660940011
 20
-231.9644660940075
 30
0.0
 11
474.0999999998089
 21
-237.9999999998044
 31
0.0
  0
ARC
  5
789
330
1F
100
AcDbEntity
  8
OUTLINE
100
AcDbCircle
 10
464.5289321879058
 20
-235.499999999397
 30
0.0
 40
5.0000000001
100
AcDbArc
 50
44.99999999999977
 51
89.99999999999976
  0
ARC
  5
78A
330
1F
100
AcDbEntity
  8
OUTLINE
100
AcDbCircle
 10
454.800000000108
 20
-246.499999999899
 30
0.0
 40
5.999999999699999
100
AcDbArc
 50
359.9999999999997
 51
179.9999999999997
  0
LINE
  5
78B
330
1F
100
AcDbEntity
  8
OUTLINE
100
AcDbLine
 10
460.7999999998096
 20
-249.999999999899
 30
0.0
 11
460.7999999998096
 21
-246.499999999899
 31
0.0
  0
LINE
  5
78C
330
1F
100
AcDbEntity
  8
OUTLINE
100
AcDbLine
 10
460.7999999998096
 20
-249.999999999899
 30
0.0
 11
474.0999999998089
 21
-249.999999999899
 31
0.0
  0
LINE
  5
78D
330
1F
100
AcDbEntity
  8
OUTLINE
100
AcDbLine
 10
448.8000000004062
 20
-264.50000000011
 30
0.0
 11
448.8000000004062
 21
-246.499999999899
 31
0.0
  0
LINE
  5
78E
330
1F
100
AcDbEntity
  8
OUTLINE
100
AcDbLine
 10
-474.0999999998043
 20
273.0000000002032
 30
0.0
 11
-474.0999999998043
 21
261.0000000001087
 31
0.0
  0
LINE
  5
78F
330
1F
100
AcDbEntity
  8
OUTLINE
100
AcDbLine
 10
-422.4999999999986
 20
280.499999999557
 30
0.0
 11
-464.5289321879049
 21
280.5000000007107
 31
0.0
  0
LINE
  5
790
330
1F
100
AcDbEntity
  8
OUTLINE
100
AcDbLine
 10
-468.0644660940002
 20
279.0355339060001
 30
0.0
 11
-474.0999999998043
 21
273.0000000002032
 31
0.0
  0
ARC
  5
791
330
1F
100
AcDbEntity
  8
OUTLINE
100
AcDbCircle
 10
-464.5289321879049
 20
275.5000000006107
 30
0.0
 40
5.0000000001
100
AcDbArc
 50
89.99999999999976
 51
134.9999999999997
  0
ARC
  5
792
330
1F
100
AcDbEntity
  8
OUTLINE
100
AcDbCircle
 10
-454.8000000001033
 20
264.5000000001086
 30
0.0
 40
5.999999999699999
100
AcDbArc
 50
359.9999999999997
 51
179.9999999999997
  0
LINE
  5
793
330
1F
100
AcDbEntity
  8
OUTLINE
100
AcDbLine
 10
-460.7999999998069
 20
261.0000000001087
 30
0.0
 11
-460.7999999998069
 21
264.5000000001086
 31
0.0
  0
LINE
  5
794
330
1F
100
AcDbEntity
  8
OUTLINE
100
AcDbLine
 10
-460.7999999998069
 20
261.0000000001087
 30
0.0
 11
-474.0999999998043
 21
261.0000000001087
 31
0.0
  0
LINE
  5
795
330
1F
100
AcDbEntity
  8
OUTLINE
100
AcDbLine
 10
-474.0999999998043
 20
237.999999999803
 30
0.0
 11
-474.0999999998043
 21
249.9999999998976
 31
0.0
  0
LINE
  5
796
330
1F
100
AcDbEntity
  8
OUTLINE
100
AcDbLine
 10
-422.4999999999986
 20
230.5000000004483
 30
0.0
 11
-464.5289321879049
 21
230.4999999992956
 31
0.0
  0
LINE
  5
797
330
1F
100
AcDbEntity
  8
OUTLINE
100
AcDbLine
 10
-468.0644660940002
 20
231.9644660940062
 30
0.0
 11
-474.0999999998043
 21
237.999999999803
 31
0.0
  0
ARC
  5
798
330
1F
100
AcDbEntity
  8
OUTLINE
100
AcDbCircle
 10
-464.5289321879049
 20
235.4999999993956
 30
0.0
 40
5.0000000001
100
AcDbArc
 50
224.9999999999997
 51
269.9999999999997
  0
ARC
  5
799
330
1F
100
AcDbEntity
  8
OUTLINE
100
AcDbCircle
 10
-454.8000000001033
 20
246.4999999998976
 30
0.0
 40
5.999999999699999
100
AcDbArc
 50
179.9999999999997
 51
359.9999999999997
  0
LINE
  5
79A
330
1F
100
AcDbEntity
  8
OUTLINE
100
AcDbLine
 10
-460.7999999998069
 20
249.9999999998976
 30
0.0
 11
-460.7999999998069
 21
246.4999999998976
 31
0.0
  0
LINE
  5
79B
330
1F
100
AcDbEntity
  8
OUTLINE
100
AcDbLine
 10
-460.7999999998069
 20
249.9999999998976
 30
0.0
 11
-474.0999999998043
 21
249.9999999998976
 31
0.0
  0
LINE
  5
79C
330
1F
100
AcDbEntity
  8
OUTLINE
100
AcDbLine
 10
-448.8000000004054
 20
264.5000000001086
 30
0.0
 11
-448.8000000004054
 21
246.4999999998976
 31
0.0
  0
LINE
  5
79D
330
1F
100
AcDbEntity
  8
OUTLINE
100
AcDbLine
 10
474.0999999998107
 20
273.0000000001991
 30
0.0
 11
474.0999999998107
 21
261.0000000001046
 31
0.0
  0
LINE
  5
79E
330
1F
100
AcDbEntity
  8
OUTLINE
100
AcDbLine
 10
422.500000000005
 20
280.4999999995534
 30
0.0
 11
464.5289321879077
 21
280.5000000007066
 31
0.0
  0
LINE
  5
79F
330
1F
100
AcDbEntity
  8
OUTLINE
100
AcDbLine
 10
468.0644660940028
 20
279.035533905996
 30
0.0
 11
474.0999999998107
 21
273.0000000001991
 31
0.0
  0
ARC
  5
7A0
330
1F
100
AcDbEntity
  8
OUTLINE
100
AcDbCircle
 10
464.5289321879077
 20
275.5000000006066
 30
0.0
 40
5.0000000001
100
AcDbArc
 50
44.99999999999977
 51
89.99999999999976
  0
ARC
  5
7A1
330
1F
100
AcDbEntity
  8
OUTLINE
100
AcDbCircle
 10
454.8000000001097
 20
264.5000000001045
 30
0.0
 40
5.999999999699999
100
AcDbArc
 50
359.9999999999997
 51
179.9999999999997
  0
LINE
  5
7A2
330
1F
100
AcDbEntity
  8
OUTLINE
100
AcDbLine
 10
460.7999999998114
 20
261.0000000001046
 30
0.0
 11
460.7999999998114
 21
264.5000000001045
 31
0.0
  0
LINE
  5
7A3
330
1F
100
AcDbEntity
  8
OUTLINE
100
AcDbLine
 10
460.7999999998114
 20
261.0000000001046
 30
0.0
 11
474.0999999998107
 21
261.0000000001046
 31
0.0
  0
LINE
  5
7A4
330
1F
100
AcDbEntity
  8
OUTLINE
100
AcDbLine
 10
474.0999999998107
 20
237.9999999997989
 30
0.0
 11
474.0999999998107
 21
249.9999999998935
 31
0.0
  0
LINE
  5
7A5
330
1F
100
AcDbEntity
  8
OUTLINE
100
AcDbLine
 10
422.500000000005
 20
230.5000000004447
 30
0.0
 11
464.5289321879077
 21
230.4999999992915
 31
0.0
  0
LINE
  5
7A6
330
1F
100
AcDbEntity
  8
OUTLINE
100
AcDbLine
 10
468.0644660940028
 20
231.964466094002
 30
0.0
 11
474.0999999998107
 21
237.9999999997989
 31
0.0
  0
ARC
  5
7A7
330
1F
100
AcDbEntity
  8
OUTLINE
100
AcDbCircle
 10
464.5289321879077
 20
235.4999999993915
 30
0.0
 40
5.0000000001
100
AcDbArc
 50
269.9999999999997
 51
314.9999999999997
  0
ARC
  5
7A8
330
1F
100
AcDbEntity
  8
OUTLINE
100
AcDbCircle
 10
454.8000000001097
 20
246.4999999998935
 30
0.0
 40
5.999999999699999
100
AcDbArc
 50
179.9999999999997
 51
359.9999999999997
  0
LINE
  5
7A9
330
1F
100
AcDbEntity
  8
OUTLINE
100
AcDbLine
 10
460.7999999998114
 20
249.9999999998935
 30
0.0
 11
460.7999999998114
 21
246.4999999998935
 31
0.0
  0
LINE
  5
7AA
330
1F
100
AcDbEntity
  8
OUTLINE
100
AcDbLine
 10
460.7999999998114
 20
249.9999999998935
 30
0.0
 11
474.0999999998107
 21
249.9999999998935
 31
0.0
  0
LINE
  5
7AB
330
1F
100
AcDbEntity
  8
OUTLINE
100
AcDbLine
 10
448.800000000408
 20
264.5000000001045
 30
0.0
 11
448.800000000408
 21
246.4999999998935
 31
0.0
  0
LINE
  5
7AC
330
1F
100
AcDbEntity
  8
OUTLINE
100
AcDbLine
 10
-453.1999999999056
 20
53.99999999990132
 30
0.0
 11
-453.1999999999056
 21
19.0000000001014
 31
0.0
  0
LINE
  5
7AD
330
1F
100
AcDbEntity
  8
OUTLINE
100
AcDbLine
 10
-463.2000000001057
 20
53.99999999990132
 30
0.0
 11
-463.2000000001057
 21
19.0000000001014
 31
0.0
  0
LINE
  5
7AE
330
1F
100
AcDbEntity
  8
OUTLINE
100
AcDbLine
 10
-453.1999999999056
 20
53.99999999990132
 30
0.0
 11
-463.2000000001057
 21
53.99999999990132
 31
0.0
  0
LINE
  5
7AF
330
1F
100
AcDbEntity
  8
OUTLINE
100
AcDbLine
 10
-463.2000000001057
 20
19.0000000001014
 30
0.0
 11
-453.1999999999056
 21
19.0000000001014
 31
0.0
  0
LINE
  5
7B0
330
1F
100
AcDbEntity
  8
OUTLINE
100
AcDbLine
 10
-453.1999999999056
 20
24.00000000000136
 30
0.0
 11
-422.4999999999995
 21
24.0000000000009
 31
0.0
  0
LINE
  5
7B1
330
1F
100
AcDbEntity
  8
OUTLINE
100
AcDbLine
 10
-453.1999999999056
 20
49.00000000000137
 30
0.0
 11
-422.4999999999995
 21
49.0000000000009
 31
0.0
  0
LINE
  5
7B2
330
1F
100
AcDbEntity
  8
OUTLINE
100
AcDbLine
 10
454.9400000001055
 20
88.50562527579768
 30
0.0
 11
440.9400000001055
 21
88.50562527579768
 31
0.0
  0
LINE
  5
7B3
330
1F
100
AcDbEntity
  8
OUTLINE
100
AcDbLine
 10
440.9400000001055
 20
88.50562527579768
 30
0.0
 11
440.9400000001055
 21
110.4943747241986
 31
0.0
  0
LINE
  5
7B4
330
1F
100
AcDbEntity
  8
OUTLINE
100
AcDbLine
 10
440.9400000001055
 20
91.56562527549885
 30
0.0
 11
422.5000000000013
 21
91.56562527549885
 31
0.0
  0
LINE
  5
7B5
330
1F
100
AcDbEntity
  8
OUTLINE
100
AcDbLine
 10
462.9400000004075
 20
86.00562527539386
 30
0.0
 11
462.9400000004148
 21
112.9943747246024
 31
0.0
  0
LINE
  5
7B6
330
1F
100
AcDbEntity
  8
OUTLINE
100
AcDbLine
 10
462.9400000004075
 20
86.00562527539386
 30
0.0
 11
454.9400000001055
 21
86.00562527539569
 31
0.0
  0
LINE
  5
7B7
330
1F
100
AcDbEntity
  8
OUTLINE
100
AcDbLine
 10
454.9400000001091
 20
112.9943747246006
 30
0.0
 11
454.9400000001055
 21
86.00562527539569
 31
0.0
  0
LINE
  5
7B8
330
1F
100
AcDbEntity
  8
OUTLINE
100
AcDbLine
 10
467.9399999998072
 20
85.5056252755976
 30
0.0
 11
467.9399999998072
 21
113.4943747243933
 31
0.0
  0
LINE
  5
7B9
330
1F
100
AcDbEntity
  8
OUTLINE
100
AcDbLine
 10
468.1222716866045
 20
85.00562527579768
 30
0.0
 11
467.9399999998072
 21
85.5056252755976
 31
0.0
  0
LINE
  5
7BA
330
1F
100
AcDbEntity
  8
OUTLINE
100
AcDbLine
 10
493.9399999999054
 20
87.00562527569763
 30
0.0
 11
493.9399999999054
 21
111.9943747242987
 31
0.0
  0
LINE
  5
7BB
330
1F
100
AcDbEntity
  8
OUTLINE
100
AcDbLine
 10
468.1222716866045
 20
85.00562527579768
 30
0.0
 11
489.7486580885101
 21
85.00562527579768
 31
0.0
  0
LINE
  5
7BC
330
1F
100
AcDbEntity
  8
OUTLINE
100
AcDbLine
 10
493.9399999999054
 20
87.00562527569763
 30
0.0
 11
489.7486580885101
 21
85.00562527579768
 31
0.0
  0
LINE
  5
7BD
330
1F
100
AcDbEntity
  8
OUTLINE
100
AcDbLine
 10
454.9400000001055
 20
110.4943747241968
 30
0.0
 11
440.9400000001055
 21
110.4943747241986
 31
0.0
  0
LINE
  5
7BE
330
1F
100
AcDbEntity
  8
OUTLINE
100
AcDbLine
 10
440.9400000001055
 20
107.4343747244956
 30
0.0
 11
422.5000000000013
 21
107.4343747244956
 31
0.0
  0
LINE
  5
7BF
330
1F
100
AcDbEntity
  8
OUTLINE
100
AcDbLine
 10
462.9400000004148
 20
112.9943747246024
 30
0.0
 11
454.9400000001091
 21
112.9943747246006
 31
0.0
  0
LINE
  5
7C0
330
1F
100
AcDbEntity
  8
OUTLINE
100
AcDbLine
 10
468.1222716866045
 20
113.9943747241968
 30
0.0
 11
489.7486580885101
 21
113.9943747241968
 31
0.0
  0
LINE
  5
7C1
330
1F
100
AcDbEntity
  8
OUTLINE
100
AcDbLine
 10
493.9399999999054
 20
111.9943747242987
 30
0.0
 11
489.7486580885101
 21
113.9943747241968
 31
0.0
  0
LINE
  5
7C2
330
1F
100
AcDbEntity
  8
OUTLINE
100
AcDbLine
 10
458.5000000003069
 20
171.4559168710957
 30
0.0
 11
449.5000000004088
 21
171.4559168710939
 31
0.0
  0
LINE
  5
7C3
330
1F
100
AcDbEntity
  8
OUTLINE
100
AcDbLine
 10
458.5000000003069
 20
171.4559168710957
 30
0.0
 11
458.5000000003069
 21
187.5440831288988
 31
0.0
  0
LINE
  5
7C4
330
1F
100
AcDbEntity
  8
OUTLINE
100
AcDbLine
 10
449.5000000004088
 20
171.4559168710939
 30
0.0
 11
449.5000000004088
 21
187.5440831289024
 31
0.0
  0
LINE
  5
7C5
330
1F
100
AcDbEntity
  8
OUTLINE
100
AcDbLine
 10
462.3035269457045
 20
169.6878024180978
 30
0.0
 11
475.4980648053765
 21
169.6878024180978
 31
0.0
  0
LINE
  5
7C6
330
1F
100
AcDbEntity
  8
OUTLINE
100
AcDbLine
 10
461.4000000004066
 20
171.2499999997935
 30
0.0
 11
461.4000000004066
 21
172.4550620887976
 31
0.0
  0
LINE
  5
7C7
330
1F
100
AcDbEntity
  8
OUTLINE
100
AcDbLine
 10
461.4000000004066
 20
172.4550620887976
 30
0.0
 11
461.4000000004066
 21
187.7500000001955
 31
0.0
  0
LINE
  5
7C8
330
1F
100
AcDbEntity
  8
OUTLINE
100
AcDbLine
 10
462.2420058574075
 20
169.8145785087972
 30
0.0
 11
462.3035269457045
 21
169.6878024180978
 31
0.0
  0
LINE
  5
7C9
330
1F
100
AcDbEntity
  8
OUTLINE
100
AcDbLine
 10
461.4000000004066
 20
174.9000000002934
 30
0.0
 11
458.5000000003069
 21
174.9000000002934
 31
0.0
  0
LINE
  5
7CA
330
1F
100
AcDbEntity
  8
OUTLINE
100
AcDbLine
 10
462.2320572026088
 20
169.8088346503945
 30
0.0
 11
461.4000000004066
 21
171.2499999997935
 31
0.0
  0
LINE
  5
7CB
330
1F
100
AcDbEntity
  8
OUTLINE
100
AcDbLine
 10
476.4000000000028
 20
171.2499999997935
 30
0.0
 11
476.4000000000028
 21
187.750000000201
 31
0.0
  0
LINE
  5
7CC
330
1F
100
AcDbEntity
  8
OUTLINE
100
AcDbLine
 10
476.4000000000028
 20
171.2499999997935
 30
0.0
 11
475.4980648053765
 21
169.6878024180978
 31
0.0
  0
LINE
  5
7CD
330
1F
100
AcDbEntity
  8
OUTLINE
100
AcDbLine
 10
449.5000000004088
 20
184.250000000201
 30
0.0
 11
422.5000000000013
 21
184.250000000201
 31
0.0
  0
LINE
  5
7CE
330
1F
100
AcDbEntity
  8
OUTLINE
100
AcDbLine
 10
458.5000000003069
 20
187.5440831288988
 30
0.0
 11
449.5000000004088
 21
187.5440831289024
 31
0.0
  0
LINE
  5
7CF
330
1F
100
AcDbEntity
  8
OUTLINE
100
AcDbLine
 10
462.3035269457045
 20
189.3121975818967
 30
0.0
 11
475.4980648053765
 21
189.3121975818967
 31
0.0
  0
LINE
  5
7D0
330
1F
100
AcDbEntity
  8
OUTLINE
100
AcDbLine
 10
461.4000000004066
 20
187.750000000201
 30
0.0
 11
461.4000000004066
 21
186.5449379111969
 31
0.0
  0
LINE
  5
7D1
330
1F
100
AcDbEntity
  8
OUTLINE
100
AcDbLine
 10
462.2420058574075
 20
189.1854214911973
 30
0.0
 11
462.3035269457045
 21
189.3121975818967
 31
0.0
  0
LINE
  5
7D2
330
1F
100
AcDbEntity
  8
OUTLINE
100
AcDbLine
 10
461.4000000004066
 20
184.0999999997011
 30
0.0
 11
458.5000000003069
 21
184.0999999997011
 31
0.0
  0
LINE
  5
7D3
330
1F
100
AcDbEntity
  8
OUTLINE
100
AcDbLine
 10
462.2320572026088
 20
189.1911653495999
 30
0.0
 11
461.4000000004066
 21
187.750000000201
 31
0.0
  0
LINE
  5
7D4
330
1F
100
AcDbEntity
  8
OUTLINE
100
AcDbLine
 10
476.4000000000028
 20
187.750000000201
 30
0.0
 11
475.4980648053765
 21
189.3121975818967
 31
0.0
  0
LINE
  5
7D5
330
1F
100
AcDbEntity
  8
OUTLINE
100
AcDbLine
 10
449.5000000004088
 20
174.7499999997935
 30
0.0
 11
422.5000000000013
 21
174.7499999997935
 31
0.0
  0
LINE
  5
7D6
330
1F
100
AcDbEntity
  8
OUTLINE
100
AcDbLine
 10
468.1222716866045
 20
113.9943747241968
 30
0.0
 11
467.9399999998072
 21
113.4943747243933
 31
0.0
  0
LINE
  5
7D7
330
1F
100
AcDbEntity
  8
OUTLINE
100
AcDbLine
 10
462.9400000004075
 20
89.99999999999728
 30
0.0
 11
467.9399999998072
 21
89.99999999999728
 31
0.0
  0
LINE
  5
7D8
330
1F
100
AcDbEntity
  8
OUTLINE
100
AcDbLine
 10
462.9400000004111
 20
108.999999999999
 30
0.0
 11
467.9399999998072
 21
108.9999999999972
 31
0.0
  0
LINE
  5
7D9
330
1F
100
AcDbEntity
  8
OUTLINE
100
AcDbLine
 10
466.4999999999049
 20
35.50000000011005
 30
0.0
 11
466.4999999999067
 21
63.49999999987904
 31
0.0
  0
LINE
  5
7DA
330
1F
100
AcDbEntity
  8
OUTLINE
100
AcDbLine
 10
424.4999999995975
 20
65.50000000024647
 30
0.0
 11
462.5000000001032
 21
65.50000000024647
 31
0.0
  0
LINE
  5
7DB
330
1F
100
AcDbEntity
  8
OUTLINE
100
AcDbLine
 10
462.5000000001032
 20
65.50000000024647
 30
0.0
 11
466.4999999999067
 21
63.49999999987904
 31
0.0
  0
LINE
  5
7DC
330
1F
100
AcDbEntity
  8
OUTLINE
100
AcDbLine
 10
466.4999999999049
 20
35.50000000011005
 30
0.0
 11
463.2000000001057
 21
33.84999999982665
 31
0.0
  0
LINE
  5
7DD
330
1F
100
AcDbEntity
  8
OUTLINE
100
AcDbLine
 10
453.1999999999075
 20
53.99999999989723
 30
0.0
 11
453.1999999999056
 21
19.00000000009731
 31
0.0
  0
LINE
  5
7DE
330
1F
100
AcDbEntity
  8
OUTLINE
100
AcDbLine
 10
463.2000000001076
 20
53.99999999989723
 30
0.0
 11
463.2000000001057
 21
19.00000000009731
 31
0.0
  0
LINE
  5
7DF
330
1F
100
AcDbEntity
  8
OUTLINE
100
AcDbLine
 10
453.1999999999075
 20
53.99999999989723
 30
0.0
 11
463.2000000001076
 21
53.99999999989723
 31
0.0
  0
LINE
  5
7E0
330
1F
100
AcDbEntity
  8
OUTLINE
100
AcDbLine
 10
463.2000000001057
 20
19.00000000009731
 30
0.0
 11
453.1999999999056
 21
19.00000000009731
 31
0.0
  0
LINE
  5
7E1
330
1F
100
AcDbEntity
  8
OUTLINE
100
AcDbLine
 10
453.1999999999056
 20
23.99999999999727
 30
0.0
 11
422.4999999999995
 21
23.99999999999727
 31
0.0
  0
LINE
  5
7E2
330
1F
100
AcDbEntity
  8
OUTLINE
100
AcDbLine
 10
453.1999999999075
 20
48.99999999999727
 30
0.0
 11
422.5000000000013
 21
48.99999999999727
 31
0.0
  0
TEXT
  5
7E3
330
1F
100
AcDbEntity
  8
NOTE
100
AcDbText
 10
1975.254514755148
 20
-2299.75899711649
 30
0.0
 40
40.0
  1
RAV-SM404SDT-E
  7
ARIAL
100
AcDbText
  0
LINE
  5
7EB
330
1F
100
AcDbEntity
  8
BASIS
100
AcDbLine
 10
-0.0000000000004547
 20
1499.999999999997
 30
0.0
 11
-0.0000000000005062
 21
1289.999999999993
 31
0.0
  0
CIRCLE
  5
7EC
330
1F
100
AcDbEntity
  8
ARRANGE
100
AcDbCircle
 10
-0.0000000000004547
 20
1499.999999999997
 30
0.0
 40
20.0
  0
POINT
  5
7ED
330
1F
100
AcDbEntity
  8
ARRANGE
100
AcDbPoint
 10
-0.0000000000004547
 20
1499.999999999997
 30
0.0
  0
LINE
  5
7EE
330
1F
100
AcDbEntity
  8
DETAIL
100
AcDbLine
 10
422.4999999999995
 20
1499.999999999997
 30
0.0
 11
-422.5000000000004
 21
1499.999999999992
 31
0.0
  0
LINE
  5
7EF
330
1F
100
AcDbEntity
  8
DETAIL
100
AcDbLine
 10
422.4999999999995
 20
1289.999999999995
 30
0.0
 11
-422.5000000000004
 21
1289.999999999993
 31
0.0
  0
LINE
  5
7F0
330
1F
100
AcDbEntity
  8
DETAIL
100
AcDbLine
 10
-422.5000000000004
 20
1499.999999999992
 30
0.0
 11
-422.5000000000004
 21
1289.999999999993
 31
0.0
  0
LINE
  5
7F1
330
1F
100
AcDbEntity
  8
DETAIL
100
AcDbLine
 10
422.4999999999995
 20
1499.999999999997
 30
0.0
 11
422.4999999999995
 21
1289.999999999995
 31
0.0
  0
LINE
  5
7F2
330
1F
100
AcDbEntity
  8
DETAIL
100
AcDbLine
 10
466.4999999999049
 20
1466.999999999879
 30
0.0
 11
466.4999999999049
 21
1442.999999999997
 31
0.0
  0
LINE
  5
7F3
330
1F
100
AcDbEntity
  8
DETAIL
100
AcDbLine
 10
453.1999999999056
 20
1303.500000000092
 30
0.0
 11
453.1999999999056
 21
1338.499999999891
 31
0.0
  0
LINE
  5
7F4
330
1F
100
AcDbEntity
  8
DETAIL
100
AcDbLine
 10
463.2000000001057
 20
1303.500000000092
 30
0.0
 11
463.2000000001057
 21
1338.499999999891
 31
0.0
  0
LINE
  5
7F5
330
1F
100
AcDbEntity
  8
DETAIL
100
AcDbLine
 10
453.1999999999056
 20
1303.500000000092
 30
0.0
 11
463.2000000001057
 21
1303.500000000092
 31
0.0
  0
LINE
  5
7F6
330
1F
100
AcDbEntity
  8
DETAIL
100
AcDbLine
 10
463.2000000001057
 20
1338.499999999891
 30
0.0
 11
453.1999999999056
 21
1338.499999999891
 31
0.0
  0
LINE
  5
7F7
330
1F
100
AcDbEntity
  8
DETAIL
100
AcDbLine
 10
424.4999999995957
 20
1441.000000000099
 30
0.0
 11
471.2999999998023
 21
1441.000000000093
 31
0.0
  0
LINE
  5
7F8
330
1F
100
AcDbEntity
  8
DETAIL
100
AcDbLine
 10
422.4999999999995
 20
1442.999999999997
 30
0.0
 11
472.0999999999035
 21
1442.999999999997
 31
0.0
  0
LINE
  5
7F9
330
1F
100
AcDbEntity
  8
DETAIL
100
AcDbLine
 10
424.4999999995957
 20
1436.999999999742
 30
0.0
 11
462.5000000001014
 21
1436.999999999742
 31
0.0
  0
LINE
  5
7FA
330
1F
100
AcDbEntity
  8
DETAIL
100
AcDbLine
 10
454.9400000001036
 20
1403.994374724195
 30
0.0
 11
440.9400000001037
 21
1403.994374724195
 31
0.0
  0
LINE
  5
7FB
330
1F
100
AcDbEntity
  8
DETAIL
100
AcDbLine
 10
449.5000000004069
 20
1397.750000000199
 30
0.0
 11
422.4999999999995
 21
1397.750000000199
 31
0.0
  0
LINE
  5
7FC
330
1F
100
AcDbEntity
  8
DETAIL
100
AcDbLine
 10
440.9400000001037
 20
1403.994374724195
 30
0.0
 11
440.9400000001037
 21
1397.750000000199
 31
0.0
  0
LINE
  5
7FD
330
1F
100
AcDbEntity
  8
DETAIL
100
AcDbLine
 10
440.9400000001037
 20
1400.934374724494
 30
0.0
 11
422.4999999999995
 21
1400.934374724494
 31
0.0
  0
LINE
  5
7FE
330
1F
100
AcDbEntity
  8
DETAIL
100
AcDbLine
 10
422.4999999999995
 20
1421.499999999997
 30
0.0
 11
424.4999999995957
 21
1421.499999999997
 31
0.0
  0
LINE
  5
7FF
330
1F
100
AcDbEntity
  8
DETAIL
100
AcDbLine
 10
424.4999999995957
 20
1421.499999999997
 30
0.0
 11
424.4999999995957
 21
1441.000000000099
 31
0.0
  0
LINE
  5
800
330
1F
100
AcDbEntity
  8
DETAIL
100
AcDbLine
 10
462.9400000004056
 20
1406.494374724599
 30
0.0
 11
462.9400000004056
 21
1402.812197581894
 31
0.0
  0
LINE
  5
801
330
1F
100
AcDbEntity
  8
DETAIL
100
AcDbLine
 10
462.9400000004056
 20
1406.494374724599
 30
0.0
 11
454.9400000001036
 21
1406.494374724597
 31
0.0
  0
LINE
  5
802
330
1F
100
AcDbEntity
  8
DETAIL
100
AcDbLine
 10
454.9400000001036
 20
1401.044083128899
 30
0.0
 11
454.9400000001036
 21
1406.494374724597
 31
0.0
  0
LINE
  5
803
330
1F
100
AcDbEntity
  8
DETAIL
100
AcDbLine
 10
467.9399999998053
 20
1406.994374724395
 30
0.0
 11
467.9399999998053
 21
1402.812197581894
 31
0.0
  0
LINE
  5
804
330
1F
100
AcDbEntity
  8
DETAIL
100
AcDbLine
 10
458.500000000305
 20
1401.044083128897
 30
0.0
 11
449.5000000004069
 21
1401.044083128899
 31
0.0
  0
LINE
  5
805
330
1F
100
AcDbEntity
  8
DETAIL
100
AcDbLine
 10
458.500000000305
 20
1401.044083128897
 30
0.0
 11
458.500000000305
 21
1384.955916871094
 31
0.0
  0
LINE
  5
806
330
1F
100
AcDbEntity
  8
DETAIL
100
AcDbLine
 10
449.5000000004069
 20
1401.044083128899
 30
0.0
 11
449.5000000004069
 21
1384.95591687109
 31
0.0
  0
LINE
  5
807
330
1F
100
AcDbEntity
  8
DETAIL
100
AcDbLine
 10
462.3035269457027
 20
1402.812197581894
 30
0.0
 11
475.4980648053746
 21
1402.812197581894
 31
0.0
  0
LINE
  5
808
330
1F
100
AcDbEntity
  8
DETAIL
100
AcDbLine
 10
461.4000000004047
 20
1401.250000000199
 30
0.0
 11
461.4000000004047
 21
1400.044937911195
 31
0.0
  0
LINE
  5
809
330
1F
100
AcDbEntity
  8
DETAIL
100
AcDbLine
 10
461.4000000004047
 20
1400.044937911195
 30
0.0
 11
461.4000000004047
 21
1384.749999999797
 31
0.0
  0
LINE
  5
80A
330
1F
100
AcDbEntity
  8
DETAIL
100
AcDbLine
 10
462.2420058574056
 20
1402.685421491195
 30
0.0
 11
462.3035269457027
 21
1402.812197581894
 31
0.0
  0
LINE
  5
80B
330
1F
100
AcDbEntity
  8
DETAIL
100
AcDbLine
 10
468.1222716866026
 20
1407.494374724195
 30
0.0
 11
467.9399999998053
 21
1406.994374724395
 31
0.0
  0
LINE
  5
80C
330
1F
100
AcDbEntity
  8
DETAIL
100
AcDbLine
 10
461.4000000004047
 20
1397.599999999699
 30
0.0
 11
458.500000000305
 21
1397.599999999699
 31
0.0
  0
LINE
  5
80D
330
1F
100
AcDbEntity
  8
DETAIL
100
AcDbLine
 10
462.2320572026068
 20
1402.691165349598
 30
0.0
 11
461.4000000004047
 21
1401.250000000199
 31
0.0
  0
LINE
  5
80E
330
1F
100
AcDbEntity
  8
DETAIL
100
AcDbLine
 10
493.9399999999036
 20
1405.494374724295
 30
0.0
 11
493.9399999999036
 21
1380.505625275694
 31
0.0
  0
LINE
  5
80F
330
1F
100
AcDbEntity
  8
DETAIL
100
AcDbLine
 10
468.1222716866026
 20
1407.494374724195
 30
0.0
 11
489.7486580885082
 21
1407.494374724195
 31
0.0
  0
LINE
  5
810
330
1F
100
AcDbEntity
  8
DETAIL
100
AcDbLine
 10
476.4000000000009
 20
1401.250000000199
 30
0.0
 11
476.4000000000009
 21
1384.749999999791
 31
0.0
  0
LINE
  5
811
330
1F
100
AcDbEntity
  8
DETAIL
100
AcDbLine
 10
493.9399999999036
 20
1405.494374724295
 30
0.0
 11
489.7486580885082
 21
1407.494374724195
 31
0.0
  0
LINE
  5
812
330
1F
100
AcDbEntity
  8
DETAIL
100
AcDbLine
 10
476.4000000000009
 20
1401.250000000199
 30
0.0
 11
475.4980648053746
 21
1402.812197581894
 31
0.0
  0
LINE
  5
813
330
1F
100
AcDbEntity
  8
DETAIL
100
AcDbLine
 10
471.8000000003043
 20
1434.999999999701
 30
0.0
 11
471.7999999996022
 21
1440.500000000293
 31
0.0
  0
LINE
  5
814
330
1F
100
AcDbEntity
  8
DETAIL
100
AcDbLine
 10
474.0999999998052
 20
1434.999999999701
 30
0.0
 11
471.8000000003043
 21
1434.999999999701
 31
0.0
  0
LINE
  5
815
330
1F
100
AcDbEntity
  8
DETAIL
100
AcDbLine
 10
474.0999999998052
 20
1441.000000000097
 30
0.0
 11
474.0999999998052
 21
1434.999999999701
 31
0.0
  0
ARC
  5
816
330
1F
100
AcDbEntity
  8
DETAIL
100
AcDbCircle
 10
472.0999999999035
 20
1441.000000000097
 30
0.0
 40
1.999999999899999
100
AcDbArc
 50
0.0
 51
90.0
  0
ARC
  5
817
330
1F
100
AcDbEntity
  8
DETAIL
100
AcDbCircle
 10
471.2999999998023
 20
1440.500000000293
 30
0.0
 40
0.4999999998
100
AcDbArc
 50
0.0
 51
90.0
  0
LINE
  5
818
330
1F
100
AcDbEntity
  8
DETAIL
100
AcDbLine
 10
462.5000000001014
 20
1436.999999999742
 30
0.0
 11
466.4999999999049
 21
1439.000000000108
 31
0.0
  0
LINE
  5
819
330
1F
100
AcDbEntity
  8
DETAIL
100
AcDbLine
 10
462.5000000001014
 20
1469.000000000244
 30
0.0
 11
422.4999999999995
 21
1469.000000000244
 31
0.0
  0
LINE
  5
81A
330
1F
100
AcDbEntity
  8
DETAIL
100
AcDbLine
 10
466.4999999999049
 20
1466.999999999879
 30
0.0
 11
462.5000000001014
 21
1469.000000000244
 31
0.0
  0
LINE
  5
81B
330
1F
100
AcDbEntity
  8
BASIS
100
AcDbLine
 10
412.4999999999994
 20
1392.999999999995
 30
0.0
 11
503.9399999999035
 21
1392.999999999995
 31
0.0
  0
LINE
  5
81C
330
1F
100
AcDbEntity
  8
BASIS
100
AcDbLine
 10
473.2000000001057
 20
1320.99999999999
 30
0.0
 11
412.4999999999994
 21
1320.999999999991
 31
0.0
  0
LINE
  5
81D
330
1F
100
AcDbEntity
  8
DETAIL
100
AcDbLine
 10
453.1999999999056
 20
1333.499999999991
 30
0.0
 11
422.4999999999995
 21
1333.499999999991
 31
0.0
  0
LINE
  5
81E
330
1F
100
AcDbEntity
  8
DETAIL
100
AcDbLine
 10
453.1999999999056
 20
1308.499999999992
 30
0.0
 11
422.4999999999995
 21
1308.499999999992
 31
0.0
  0
LINE
  5
81F
330
1F
100
AcDbEntity
  8
DETAIL
100
AcDbLine
 10
462.5000000001014
 20
1436.999999999742
 30
0.0
 11
462.5000000001014
 21
1441.000000000093
 31
0.0
  0
LINE
  5
820
330
1F
100
AcDbEntity
  8
DETAIL
100
AcDbLine
 10
462.5000000001014
 20
1442.999999999997
 30
0.0
 11
462.5000000001014
 21
1469.000000000242
 31
0.0
  0
LINE
  5
821
330
1F
100
AcDbEntity
  8
BASIS
100
AcDbLine
 10
412.4999999999995
 20
1452.999999999993
 30
0.0
 11
476.4999999999049
 21
1452.999999999993
 31
0.0
  0
LINE
  5
822
330
1F
100
AcDbEntity
  8
DETAIL
100
AcDbLine
 10
466.4999999999049
 20
1441.000000000093
 30
0.0
 11
466.4999999999049
 21
1439.000000000108
 31
0.0
  0
LINE
  5
823
330
1F
100
AcDbEntity
  8
DETAIL
100
AcDbLine
 10
489.7486580885082
 20
1407.494374724195
 30
0.0
 11
489.7486580885082
 21
1378.505625275797
 31
0.0
  0
LINE
  5
824
330
1F
100
AcDbEntity
  8
DETAIL
100
AcDbLine
 10
454.9400000001036
 20
1382.005625275795
 30
0.0
 11
440.9400000001037
 21
1382.005625275795
 31
0.0
  0
LINE
  5
825
330
1F
100
AcDbEntity
  8
DETAIL
100
AcDbLine
 10
449.5000000004069
 20
1388.249999999791
 30
0.0
 11
422.4999999999995
 21
1388.249999999791
 31
0.0
  0
LINE
  5
826
330
1F
100
AcDbEntity
  8
DETAIL
100
AcDbLine
 10
440.9400000001037
 20
1382.005625275795
 30
0.0
 11
440.9400000001037
 21
1388.249999999791
 31
0.0
  0
LINE
  5
827
330
1F
100
AcDbEntity
  8
DETAIL
100
AcDbLine
 10
440.9400000001037
 20
1385.065625275497
 30
0.0
 11
422.4999999999995
 21
1385.065625275497
 31
0.0
  0
LINE
  5
828
330
1F
100
AcDbEntity
  8
DETAIL
100
AcDbLine
 10
462.9400000004056
 20
1379.505625275392
 30
0.0
 11
462.9400000004056
 21
1383.187802418096
 31
0.0
  0
LINE
  5
829
330
1F
100
AcDbEntity
  8
DETAIL
100
AcDbLine
 10
462.9400000004056
 20
1379.505625275392
 30
0.0
 11
454.9400000001036
 21
1379.505625275394
 31
0.0
  0
LINE
  5
82A
330
1F
100
AcDbEntity
  8
DETAIL
100
AcDbLine
 10
454.9400000001036
 20
1384.955916871092
 30
0.0
 11
454.9400000001036
 21
1379.505625275394
 31
0.0
  0
LINE
  5
82B
330
1F
100
AcDbEntity
  8
DETAIL
100
AcDbLine
 10
467.9399999998053
 20
1379.005625275596
 30
0.0
 11
467.9399999998053
 21
1383.187802418096
 31
0.0
  0
LINE
  5
82C
330
1F
100
AcDbEntity
  8
DETAIL
100
AcDbLine
 10
458.500000000305
 20
1384.955916871094
 30
0.0
 11
449.5000000004069
 21
1384.95591687109
 31
0.0
  0
LINE
  5
82D
330
1F
100
AcDbEntity
  8
DETAIL
100
AcDbLine
 10
462.3035269457027
 20
1383.187802418096
 30
0.0
 11
475.4980648053746
 21
1383.187802418096
 31
0.0
  0
LINE
  5
82E
330
1F
100
AcDbEntity
  8
DETAIL
100
AcDbLine
 10
461.4000000004047
 20
1384.749999999791
 30
0.0
 11
461.4000000004047
 21
1385.955062088795
 31
0.0
  0
LINE
  5
82F
330
1F
100
AcDbEntity
  8
DETAIL
100
AcDbLine
 10
462.2420058574056
 20
1383.314578508795
 30
0.0
 11
462.3035269457027
 21
1383.187802418096
 31
0.0
  0
LINE
  5
830
330
1F
100
AcDbEntity
  8
DETAIL
100
AcDbLine
 10
468.1222716866026
 20
1378.505625275796
 30
0.0
 11
467.9399999998053
 21
1379.005625275596
 31
0.0
  0
LINE
  5
831
330
1F
100
AcDbEntity
  8
DETAIL
100
AcDbLine
 10
461.4000000004047
 20
1388.400000000291
 30
0.0
 11
458.500000000305
 21
1388.400000000291
 31
0.0
  0
LINE
  5
832
330
1F
100
AcDbEntity
  8
DETAIL
100
AcDbLine
 10
462.2320572026068
 20
1383.308834650392
 30
0.0
 11
461.4000000004047
 21
1384.749999999791
 31
0.0
  0
LINE
  5
833
330
1F
100
AcDbEntity
  8
DETAIL
100
AcDbLine
 10
468.1222716866026
 20
1378.505625275796
 30
0.0
 11
489.7486580885082
 21
1378.505625275796
 31
0.0
  0
LINE
  5
834
330
1F
100
AcDbEntity
  8
DETAIL
100
AcDbLine
 10
493.9399999999036
 20
1380.505625275694
 30
0.0
 11
489.7486580885082
 21
1378.505625275796
 31
0.0
  0
LINE
  5
835
330
1F
100
AcDbEntity
  8
DETAIL
100
AcDbLine
 10
476.4000000000009
 20
1384.749999999791
 30
0.0
 11
475.4980648053746
 21
1383.187802418096
 31
0.0
  0
LINE
  5
836
330
1F
100
AcDbEntity
  8
DETAIL
100
AcDbLine
 10
436.1900000002019
 20
1370.000000000288
 30
0.0
 11
428.8100000001026
 21
1370.000000000288
 31
0.0
  0
LINE
  5
837
330
1F
100
AcDbEntity
  8
DETAIL
100
AcDbLine
 10
440.5000000001013
 20
1368.000000000393
 30
0.0
 11
440.5000000001013
 21
1366.000000000493
 31
0.0
  0
LINE
  5
838
330
1F
100
AcDbEntity
  8
DETAIL
100
AcDbLine
 10
422.4999999999995
 20
1368.000000000393
 30
0.0
 11
440.5000000001013
 21
1368.000000000393
 31
0.0
  0
LINE
  5
839
330
1F
100
AcDbEntity
  8
DETAIL
100
AcDbLine
 10
440.5000000001013
 20
1366.000000000493
 30
0.0
 11
422.4999999999995
 21
1366.000000000493
 31
0.0
  0
LINE
  5
83A
330
1F
100
AcDbEntity
  8
DETAIL
100
AcDbLine
 10
428.8100000001026
 20
1370.000000000288
 30
0.0
 11
428.8100000001026
 21
1368.000000000393
 31
0.0
  0
LINE
  5
83B
330
1F
100
AcDbEntity
  8
DETAIL
100
AcDbLine
 10
436.1900000002019
 20
1368.000000000393
 30
0.0
 11
436.1900000002019
 21
1370.000000000288
 31
0.0
  0
LINE
  5
83C
330
1F
100
AcDbEntity
  8
DETAIL
100
AcDbLine
 10
-453.1999999999066
 20
1303.500000000092
 30
0.0
 11
-453.1999999999066
 21
1338.499999999891
 31
0.0
  0
LINE
  5
83D
330
1F
100
AcDbEntity
  8
DETAIL
100
AcDbLine
 10
-463.2000000001067
 20
1303.500000000092
 30
0.0
 11
-463.2000000001067
 21
1338.499999999891
 31
0.0
  0
LINE
  5
83E
330
1F
100
AcDbEntity
  8
DETAIL
100
AcDbLine
 10
-453.1999999999066
 20
1303.500000000092
 30
0.0
 11
-463.2000000001067
 21
1303.500000000092
 31
0.0
  0
LINE
  5
83F
330
1F
100
AcDbEntity
  8
DETAIL
100
AcDbLine
 10
-463.2000000001067
 20
1338.499999999891
 30
0.0
 11
-453.1999999999066
 21
1338.499999999891
 31
0.0
  0
LINE
  5
840
330
1F
100
AcDbEntity
  8
DETAIL
100
AcDbLine
 10
-424.4999999995966
 20
1441.000000000099
 30
0.0
 11
-471.2999999998032
 21
1441.000000000093
 31
0.0
  0
LINE
  5
841
330
1F
100
AcDbEntity
  8
DETAIL
100
AcDbLine
 10
-422.5000000000004
 20
1442.999999999997
 30
0.0
 11
-472.0999999999062
 21
1442.999999999997
 31
0.0
  0
LINE
  5
842
330
1F
100
AcDbEntity
  8
DETAIL
100
AcDbLine
 10
-422.5000000000004
 20
1421.499999999997
 30
0.0
 11
-424.4999999995966
 21
1421.499999999997
 31
0.0
  0
LINE
  5
843
330
1F
100
AcDbEntity
  8
DETAIL
100
AcDbLine
 10
-424.4999999995966
 20
1421.499999999997
 30
0.0
 11
-424.4999999995966
 21
1441.000000000099
 31
0.0
  0
LINE
  5
844
330
1F
100
AcDbEntity
  8
DETAIL
100
AcDbLine
 10
-471.8000000003053
 20
1434.999999999701
 30
0.0
 11
-471.7999999996031
 21
1440.500000000293
 31
0.0
  0
LINE
  5
845
330
1F
100
AcDbEntity
  8
DETAIL
100
AcDbLine
 10
-474.0999999998061
 20
1434.999999999701
 30
0.0
 11
-471.8000000003053
 21
1434.999999999701
 31
0.0
  0
LINE
  5
846
330
1F
100
AcDbEntity
  8
DETAIL
100
AcDbLine
 10
-474.0999999998061
 20
1441.000000000097
 30
0.0
 11
-474.0999999998061
 21
1434.999999999701
 31
0.0
  0
ARC
  5
847
330
1F
100
AcDbEntity
  8
DETAIL
100
AcDbCircle
 10
-472.0999999999062
 20
1441.000000000097
 30
0.0
 40
1.999999999899999
100
AcDbArc
 50
90.0
 51
180.0
  0
ARC
  5
848
330
1F
100
AcDbEntity
  8
DETAIL
100
AcDbCircle
 10
-471.2999999998032
 20
1440.500000000293
 30
0.0
 40
0.4999999998
100
AcDbArc
 50
90.0
 51
180.0
  0
LINE
  5
849
330
1F
100
AcDbEntity
  8
BASIS
100
AcDbLine
 10
-473.2000000001067
 20
1320.99999999999
 30
0.0
 11
-412.5000000000005
 21
1320.999999999991
 31
0.0
  0
LINE
  5
84A
330
1F
100
AcDbEntity
  8
DETAIL
100
AcDbLine
 10
-453.1999999999066
 20
1333.499999999991
 30
0.0
 11
-422.5000000000004
 21
1333.499999999991
 31
0.0
  0
LINE
  5
84B
330
1F
100
AcDbEntity
  8
DETAIL
100
AcDbLine
 10
-453.1999999999066
 20
1308.499999999992
 30
0.0
 11
-422.5000000000004
 21
1308.499999999992
 31
0.0
  0
LINE
  5
84C
330
1F
100
AcDbEntity
  8
DETAIL
100
AcDbLine
 10
-436.1900000002029
 20
1370.000000000288
 30
0.0
 11
-428.8100000001036
 21
1370.000000000288
 31
0.0
  0
LINE
  5
84D
330
1F
100
AcDbEntity
  8
DETAIL
100
AcDbLine
 10
-440.5000000001023
 20
1368.000000000393
 30
0.0
 11
-440.5000000001023
 21
1366.000000000493
 31
0.0
  0
LINE
  5
84E
330
1F
100
AcDbEntity
  8
DETAIL
100
AcDbLine
 10
-422.5000000000004
 20
1368.000000000393
 30
0.0
 11
-440.5000000001023
 21
1368.000000000393
 31
0.0
  0
LINE
  5
84F
330
1F
100
AcDbEntity
  8
DETAIL
100
AcDbLine
 10
-440.5000000001023
 20
1366.000000000493
 30
0.0
 11
-422.5000000000004
 21
1366.000000000493
 31
0.0
  0
LINE
  5
850
330
1F
100
AcDbEntity
  8
DETAIL
100
AcDbLine
 10
-428.8100000001036
 20
1370.000000000288
 30
0.0
 11
-428.8100000001036
 21
1368.000000000393
 31
0.0
  0
LINE
  5
851
330
1F
100
AcDbEntity
  8
DETAIL
100
AcDbLine
 10
-436.1900000002029
 20
1368.000000000393
 30
0.0
 11
-436.1900000002029
 21
1370.000000000288
 31
0.0
  0
LINE
  5
852
330
1F
100
AcDbEntity
  8
DETAIL
100
AcDbLine
 10
409.9999999999995
 20
1478.999999999995
 30
0.0
 11
-410.0000000000004
 21
1478.999999999993
 31
0.0
  0
LINE
  5
853
330
1F
100
AcDbEntity
  8
DETAIL
100
AcDbLine
 10
409.9999999999995
 20
1310.999999999997
 30
0.0
 11
-410.0000000000004
 21
1310.999999999993
 31
0.0
  0
LINE
  5
854
330
1F
100
AcDbEntity
  8
DETAIL
100
AcDbLine
 10
-410.0000000000004
 20
1499.999999999992
 30
0.0
 11
-410.0000000000004
 21
1478.999999999993
 31
0.0
  0
LINE
  5
855
330
1F
100
AcDbEntity
  8
DETAIL
100
AcDbLine
 10
-410.0000000000004
 20
1310.999999999993
 30
0.0
 11
-410.0000000000004
 21
1289.999999999993
 31
0.0
  0
LINE
  5
856
330
1F
100
AcDbEntity
  8
DETAIL
100
AcDbLine
 10
409.9999999999995
 20
1499.999999999992
 30
0.0
 11
409.9999999999995
 21
1478.999999999995
 31
0.0
  0
LINE
  5
857
330
1F
100
AcDbEntity
  8
DETAIL
100
AcDbLine
 10
409.9999999999995
 20
1310.999999999997
 30
0.0
 11
409.9999999999995
 21
1289.999999999993
 31
0.0
  0
LINE
  5
858
330
1F
100
AcDbEntity
  8
DETAIL
100
AcDbLine
 10
401.4999999999995
 20
1478.999999999995
 30
0.0
 11
401.4999999999995
 21
1310.999999999997
 31
0.0
  0
LINE
  5
859
330
1F
100
AcDbEntity
  8
DETAIL
100
AcDbLine
 10
-401.5000000000005
 20
1478.999999999995
 30
0.0
 11
-401.5000000000005
 21
1310.999999999997
 31
0.0
  0
LINE
  5
85A
330
1F
100
AcDbEntity
  8
DETAIL
100
AcDbLine
 10
401.4999999999995
 20
1355.999999999995
 30
0.0
 11
-401.5000000000005
 21
1355.999999999995
 31
0.0
  0
LINE
  5
85B
330
1F
100
AcDbEntity
  8
DETAIL
100
AcDbLine
 10
401.4999999999995
 20
1363.999999999995
 30
0.0
 11
-401.5000000000005
 21
1363.999999999995
 31
0.0
  0
LINE
  5
85C
330
1F
100
AcDbEntity
  8
DETAIL
100
AcDbLine
 10
-366.5000000000004
 20
1478.999999999995
 30
0.0
 11
-366.5000000000005
 21
1363.999999999995
 31
0.0
  0
LINE
  5
85D
330
1F
100
AcDbEntity
  8
DETAIL
100
AcDbLine
 10
256.4999999999995
 20
1478.999999999995
 30
0.0
 11
256.4999999999995
 21
1363.999999999997
 31
0.0
  0
LINE
  5
85E
330
1F
100
AcDbEntity
  8
DETAIL
100
AcDbLine
 10
241.4999999999995
 20
1478.999999999995
 30
0.0
 11
241.4999999999995
 21
1363.999999999997
 31
0.0
  0
LINE
  5
85F
330
1F
100
AcDbEntity
  8
BASIS
100
AcDbLine
 10
-0.0000000000004547
 20
-1500.0
 30
0.0
 11
-0.0000000000022737
 21
-1289.999999999996
 31
0.0
  0
CIRCLE
  5
860
330
1F
100
AcDbEntity
  8
ARRANGE
100
AcDbCircle
 10
-0.0000000000004547
 20
-1499.999999999997
 30
0.0
 40
20.0
  0
POINT
  5
861
330
1F
100
AcDbEntity
  8
ARRANGE
100
AcDbPoint
 10
-0.0000000000004547
 20
-1499.999999999997
 30
0.0
  0
LINE
  5
862
330
1F
100
AcDbEntity
  8
DETAIL
100
AcDbLine
 10
422.4999999999995
 20
-1499.999999999996
 30
0.0
 11
-422.5000000000004
 21
-1499.999999999998
 31
0.0
  0
LINE
  5
863
330
1F
100
AcDbEntity
  8
DETAIL
100
AcDbLine
 10
422.4999999999977
 20
-1289.999999999994
 30
0.0
 11
-422.5000000000022
 21
-1290.0
 31
0.0
  0
LINE
  5
864
330
1F
100
AcDbEntity
  8
DETAIL
100
AcDbLine
 10
-422.5000000000004
 20
-1499.999999999998
 30
0.0
 11
-422.5000000000022
 21
-1290.0
 31
0.0
  0
LINE
  5
865
330
1F
100
AcDbEntity
  8
DETAIL
100
AcDbLine
 10
422.4999999999995
 20
-1499.999999999996
 30
0.0
 11
422.4999999999977
 21
-1289.999999999994
 31
0.0
  0
LINE
  5
866
330
1F
100
AcDbEntity
  8
DETAIL
100
AcDbLine
 10
466.4999999999049
 20
-1466.999999999878
 30
0.0
 11
466.4999999999049
 21
-1442.999999999996
 31
0.0
  0
LINE
  5
867
330
1F
100
AcDbEntity
  8
DETAIL
100
AcDbLine
 10
453.1999999999039
 20
-1303.500000000091
 30
0.0
 11
453.1999999999039
 21
-1338.49999999989
 31
0.0
  0
LINE
  5
868
330
1F
100
AcDbEntity
  8
DETAIL
100
AcDbLine
 10
463.2000000001039
 20
-1303.500000000091
 30
0.0
 11
463.2000000001039
 21
-1338.49999999989
 31
0.0
  0
LINE
  5
869
330
1F
100
AcDbEntity
  8
DETAIL
100
AcDbLine
 10
453.1999999999039
 20
-1303.500000000091
 30
0.0
 11
463.2000000001039
 21
-1303.500000000091
 31
0.0
  0
LINE
  5
86A
330
1F
100
AcDbEntity
  8
DETAIL
100
AcDbLine
 10
463.2000000001039
 20
-1338.49999999989
 30
0.0
 11
453.1999999999039
 21
-1338.49999999989
 31
0.0
  0
LINE
  5
86B
330
1F
100
AcDbEntity
  8
DETAIL
100
AcDbLine
 10
424.4999999995957
 20
-1441.000000000098
 30
0.0
 11
471.2999999998023
 21
-1441.000000000092
 31
0.0
  0
LINE
  5
86C
330
1F
100
AcDbEntity
  8
DETAIL
100
AcDbLine
 10
422.4999999999995
 20
-1442.999999999996
 30
0.0
 11
472.0999999999035
 21
-1442.999999999996
 31
0.0
  0
LINE
  5
86D
330
1F
100
AcDbEntity
  8
DETAIL
100
AcDbLine
 10
424.4999999995957
 20
-1436.999999999741
 30
0.0
 11
462.5000000001014
 21
-1436.999999999741
 31
0.0
  0
LINE
  5
86E
330
1F
100
AcDbEntity
  8
DETAIL
100
AcDbLine
 10
422.4999999999995
 20
-1421.499999999996
 30
0.0
 11
424.4999999995957
 21
-1421.499999999996
 31
0.0
  0
LINE
  5
86F
330
1F
100
AcDbEntity
  8
DETAIL
100
AcDbLine
 10
424.4999999995957
 20
-1421.499999999996
 30
0.0
 11
424.4999999995957
 21
-1441.000000000098
 31
0.0
  0
LINE
  5
870
330
1F
100
AcDbEntity
  8
DETAIL
100
AcDbLine
 10
471.8000000003043
 20
-1434.9999999997
 30
0.0
 11
471.7999999996022
 21
-1440.500000000293
 31
0.0
  0
LINE
  5
871
330
1F
100
AcDbEntity
  8
DETAIL
100
AcDbLine
 10
474.0999999998052
 20
-1434.9999999997
 30
0.0
 11
471.8000000003043
 21
-1434.9999999997
 31
0.0
  0
LINE
  5
872
330
1F
100
AcDbEntity
  8
DETAIL
100
AcDbLine
 10
474.0999999998052
 20
-1441.000000000096
 30
0.0
 11
474.0999999998052
 21
-1434.9999999997
 31
0.0
  0
ARC
  5
873
330
1F
100
AcDbEntity
  8
DETAIL
100
AcDbCircle
 10
472.0999999999035
 20
-1441.000000000096
 30
0.0
 40
1.999999999899999
100
AcDbArc
 50
270.0000000000005
 51
0.0000000000004863
  0
ARC
  5
874
330
1F
100
AcDbEntity
  8
DETAIL
100
AcDbCircle
 10
471.2999999998023
 20
-1440.500000000293
 30
0.0
 40
0.4999999998
100
AcDbArc
 50
270.0000000000005
 51
0.0000000000004863
  0
LINE
  5
875
330
1F
100
AcDbEntity
  8
DETAIL
100
AcDbLine
 10
462.5000000001014
 20
-1436.999999999741
 30
0.0
 11
466.4999999999049
 21
-1439.000000000107
 31
0.0
  0
LINE
  5
876
330
1F
100
AcDbEntity
  8
DETAIL
100
AcDbLine
 10
462.5000000001014
 20
-1469.000000000243
 30
0.0
 11
422.4999999999995
 21
-1469.000000000243
 31
0.0
  0
LINE
  5
877
330
1F
100
AcDbEntity
  8
DETAIL
100
AcDbLine
 10
466.4999999999049
 20
-1466.999999999878
 30
0.0
 11
462.5000000001014
 21
-1469.000000000243
 31
0.0
  0
LINE
  5
878
330
1F
100
AcDbEntity
  8
BASIS
100
AcDbLine
 10
412.4999999999976
 20
-1392.999999999995
 30
0.0
 11
503.9399999999018
 21
-1392.999999999994
 31
0.0
  0
LINE
  5
879
330
1F
100
AcDbEntity
  8
BASIS
100
AcDbLine
 10
473.2000000001039
 20
-1320.999999999989
 30
0.0
 11
412.4999999999976
 21
-1320.99999999999
 31
0.0
  0
LINE
  5
87A
330
1F
100
AcDbEntity
  8
DETAIL
100
AcDbLine
 10
453.1999999999039
 20
-1333.499999999991
 30
0.0
 11
422.4999999999977
 21
-1333.499999999991
 31
0.0
  0
LINE
  5
87B
330
1F
100
AcDbEntity
  8
DETAIL
100
AcDbLine
 10
453.1999999999039
 20
-1308.49999999999
 30
0.0
 11
422.4999999999977
 21
-1308.49999999999
 31
0.0
  0
LINE
  5
87C
330
1F
100
AcDbEntity
  8
DETAIL
100
AcDbLine
 10
462.5000000001014
 20
-1436.999999999741
 30
0.0
 11
462.5000000001014
 21
-1441.000000000092
 31
0.0
  0
LINE
  5
87D
330
1F
100
AcDbEntity
  8
DETAIL
100
AcDbLine
 10
462.5000000001014
 20
-1442.999999999996
 30
0.0
 11
462.5000000001014
 21
-1469.000000000241
 31
0.0
  0
LINE
  5
87E
330
1F
100
AcDbEntity
  8
BASIS
100
AcDbLine
 10
412.4999999999995
 20
-1452.999999999993
 30
0.0
 11
476.4999999999049
 21
-1452.999999999993
 31
0.0
  0
LINE
  5
87F
330
1F
100
AcDbEntity
  8
DETAIL
100
AcDbLine
 10
466.4999999999049
 20
-1441.000000000092
 30
0.0
 11
466.4999999999049
 21
-1439.000000000107
 31
0.0
  0
LINE
  5
880
330
1F
100
AcDbEntity
  8
DETAIL
100
AcDbLine
 10
436.1900000002001
 20
-1370.000000000287
 30
0.0
 11
428.8100000001008
 21
-1370.000000000287
 31
0.0
  0
LINE
  5
881
330
1F
100
AcDbEntity
  8
DETAIL
100
AcDbLine
 10
440.5000000000995
 20
-1368.000000000392
 30
0.0
 11
440.5000000000995
 21
-1366.000000000493
 31
0.0
  0
LINE
  5
882
330
1F
100
AcDbEntity
  8
DETAIL
100
AcDbLine
 10
422.4999999999977
 20
-1368.000000000392
 30
0.0
 11
440.5000000000995
 21
-1368.000000000392
 31
0.0
  0
LINE
  5
883
330
1F
100
AcDbEntity
  8
DETAIL
100
AcDbLine
 10
440.5000000000995
 20
-1366.000000000493
 30
0.0
 11
422.4999999999977
 21
-1366.000000000493
 31
0.0
  0
LINE
  5
884
330
1F
100
AcDbEntity
  8
DETAIL
100
AcDbLine
 10
428.8100000001008
 20
-1370.000000000287
 30
0.0
 11
428.8100000001008
 21
-1368.000000000392
 31
0.0
  0
LINE
  5
885
330
1F
100
AcDbEntity
  8
DETAIL
100
AcDbLine
 10
436.1900000002001
 20
-1368.000000000392
 30
0.0
 11
436.1900000002001
 21
-1370.000000000287
 31
0.0
  0
LINE
  5
886
330
1F
100
AcDbEntity
  8
DETAIL
100
AcDbLine
 10
-453.1999999999084
 20
-1303.500000000099
 30
0.0
 11
-453.1999999999084
 21
-1338.499999999899
 31
0.0
  0
LINE
  5
887
330
1F
100
AcDbEntity
  8
DETAIL
100
AcDbLine
 10
-463.2000000001085
 20
-1303.500000000099
 30
0.0
 11
-463.2000000001085
 21
-1338.499999999899
 31
0.0
  0
LINE
  5
888
330
1F
100
AcDbEntity
  8
DETAIL
100
AcDbLine
 10
-453.1999999999084
 20
-1303.500000000099
 30
0.0
 11
-463.2000000001085
 21
-1303.500000000099
 31
0.0
  0
LINE
  5
889
330
1F
100
AcDbEntity
  8
DETAIL
100
AcDbLine
 10
-463.2000000001085
 20
-1338.499999999899
 30
0.0
 11
-453.1999999999084
 21
-1338.499999999899
 31
0.0
  0
LINE
  5
88A
330
1F
100
AcDbEntity
  8
DETAIL
100
AcDbLine
 10
-424.4999999995975
 20
-1441.000000000105
 30
0.0
 11
-471.2999999998041
 21
-1441.000000000101
 31
0.0
  0
LINE
  5
88B
330
1F
100
AcDbEntity
  8
DETAIL
100
AcDbLine
 10
-422.5000000000013
 20
-1443.000000000003
 30
0.0
 11
-472.0999999999071
 21
-1443.000000000004
 31
0.0
  0
LINE
  5
88C
330
1F
100
AcDbEntity
  8
DETAIL
100
AcDbLine
 10
-422.5000000000013
 20
-1421.500000000003
 30
0.0
 11
-424.4999999995975
 21
-1421.500000000003
 31
0.0
  0
LINE
  5
88D
330
1F
100
AcDbEntity
  8
DETAIL
100
AcDbLine
 10
-424.4999999995975
 20
-1421.500000000003
 30
0.0
 11
-424.4999999995975
 21
-1441.000000000105
 31
0.0
  0
LINE
  5
88E
330
1F
100
AcDbEntity
  8
DETAIL
100
AcDbLine
 10
-471.8000000003062
 20
-1434.999999999708
 30
0.0
 11
-471.7999999996041
 21
-1440.500000000301
 31
0.0
  0
LINE
  5
88F
330
1F
100
AcDbEntity
  8
DETAIL
100
AcDbLine
 10
-474.0999999998071
 20
-1434.999999999708
 30
0.0
 11
-471.8000000003062
 21
-1434.999999999708
 31
0.0
  0
LINE
  5
890
330
1F
100
AcDbEntity
  8
DETAIL
100
AcDbLine
 10
-474.0999999998071
 20
-1441.000000000104
 30
0.0
 11
-474.0999999998071
 21
-1434.999999999708
 31
0.0
  0
ARC
  5
891
330
1F
100
AcDbEntity
  8
DETAIL
100
AcDbCircle
 10
-472.0999999999071
 20
-1441.000000000104
 30
0.0
 40
1.999999999899999
100
AcDbArc
 50
180.0000000000005
 51
270.0000000000005
  0
ARC
  5
892
330
1F
100
AcDbEntity
  8
DETAIL
100
AcDbCircle
 10
-471.2999999998041
 20
-1440.500000000301
 30
0.0
 40
0.4999999998
100
AcDbArc
 50
180.0000000000005
 51
270.0000000000005
  0
LINE
  5
893
330
1F
100
AcDbEntity
  8
BASIS
100
AcDbLine
 10
-473.2000000001085
 20
-1320.999999999997
 30
0.0
 11
-412.5000000000023
 21
-1320.999999999998
 31
0.0
  0
LINE
  5
894
330
1F
100
AcDbEntity
  8
DETAIL
100
AcDbLine
 10
-453.1999999999084
 20
-1333.499999999999
 30
0.0
 11
-422.5000000000022
 21
-1333.499999999998
 31
0.0
  0
LINE
  5
895
330
1F
100
AcDbEntity
  8
DETAIL
100
AcDbLine
 10
-453.1999999999084
 20
-1308.499999999999
 30
0.0
 11
-422.5000000000022
 21
-1308.499999999998
 31
0.0
  0
LINE
  5
896
330
1F
100
AcDbEntity
  8
DETAIL
100
AcDbLine
 10
-436.1900000002037
 20
-1370.000000000295
 30
0.0
 11
-428.8100000001045
 21
-1370.000000000295
 31
0.0
  0
LINE
  5
897
330
1F
100
AcDbEntity
  8
DETAIL
100
AcDbLine
 10
-440.5000000001032
 20
-1368.0000000004
 30
0.0
 11
-440.5000000001032
 21
-1366.0000000005
 31
0.0
  0
LINE
  5
898
330
1F
100
AcDbEntity
  8
DETAIL
100
AcDbLine
 10
-422.5000000000013
 20
-1368.0000000004
 30
0.0
 11
-440.5000000001032
 21
-1368.0000000004
 31
0.0
  0
LINE
  5
899
330
1F
100
AcDbEntity
  8
DETAIL
100
AcDbLine
 10
-440.5000000001032
 20
-1366.0000000005
 30
0.0
 11
-422.5000000000013
 21
-1366.0000000005
 31
0.0
  0
LINE
  5
89A
330
1F
100
AcDbEntity
  8
DETAIL
100
AcDbLine
 10
-428.8100000001045
 20
-1370.000000000295
 30
0.0
 11
-428.8100000001045
 21
-1368.0000000004
 31
0.0
  0
LINE
  5
89B
330
1F
100
AcDbEntity
  8
DETAIL
100
AcDbLine
 10
-436.1900000002037
 20
-1368.0000000004
 30
0.0
 11
-436.1900000002037
 21
-1370.000000000295
 31
0.0
  0
LINE
  5
89C
330
1F
100
AcDbEntity
  8
DETAIL
100
AcDbLine
 10
422.4999999999977
 20
-1301.999999999994
 30
0.0
 11
-422.5000000000022
 21
-1302.0
 31
0.0
  0
LINE
  5
89D
330
1F
100
AcDbEntity
  8
DETAIL
100
AcDbLine
 10
422.4999999999995
 20
-1487.999999999996
 30
0.0
 11
-422.5000000000004
 21
-1487.999999999998
 31
0.0
  0
LINE
  5
89E
330
1F
100
AcDbEntity
  8
BASIS
100
AcDbLine
 10
-0.0000000000078276
 20
-2677.499999999996
 30
0.0
 11
0.0000000000032801
 21
-3322.499999999996
 31
0.0
  0
CIRCLE
  5
89F
330
1F
100
AcDbEntity
  8
ARRANGE
100
AcDbCircle
 10
-0.0000000000004547
 20
-3000.0
 30
0.0
 40
20.0
  0
POINT
  5
8A0
330
1F
100
AcDbEntity
  8
ARRANGE
100
AcDbPoint
 10
-0.0000000000004547
 20
-3000.0
 30
0.0
  0
LINE
  5
8A1
330
1F
100
AcDbEntity
  8
BASIS
100
AcDbLine
 10
422.4999999999977
 20
-2999.999999999987
 30
0.0
 11
-422.5000000000022
 21
-3000.000000000003
 31
0.0
  0
LINE
  5
8A2
330
1F
100
AcDbEntity
  8
DETAIL
100
AcDbLine
 10
-422.5000000000078
 20
-2677.500000000003
 30
0.0
 11
-422.4999999999966
 21
-3322.500000000003
 31
0.0
  0
LINE
  5
8A3
330
1F
100
AcDbEntity
  8
DETAIL
100
AcDbLine
 10
422.4999999999921
 20
-2677.499999999989
 30
0.0
 11
422.5000000000033
 21
-3322.499999999987
 31
0.0
  0
LINE
  5
916
330
1F
100
AcDbEntity
  8
DETAIL
100
AcDbLine
 10
-422.4999999999966
 20
-3322.500000000003
 30
0.0
 11
422.5000000000033
 21
-3322.499999999987
 31
0.0
  0
LINE
  5
917
330
1F
100
AcDbEntity
  8
DETAIL
100
AcDbLine
 10
-422.5000000000078
 20
-2677.500000000003
 30
0.0
 11
422.4999999999921
 21
-2677.499999999989
 31
0.0
  0
LINE
  5
918
330
1F
100
AcDbEntity
  8
DETAIL
100
AcDbLine
 10
-401.5000000000082
 20
-2657.500000000004
 30
0.0
 11
401.4999999999917
 21
-2657.499999999989
 31
0.0
  0
LINE
  5
919
330
1F
100
AcDbEntity
  8
DETAIL
100
AcDbLine
 10
401.4999999999921
 20
-2677.499999999989
 30
0.0
 11
401.4999999999917
 21
-2657.499999999989
 31
0.0
  0
LINE
  5
91A
330
1F
100
AcDbEntity
  8
DETAIL
100
AcDbLine
 10
-401.5000000000078
 20
-2677.500000000003
 30
0.0
 11
-401.5000000000082
 21
-2657.500000000004
 31
0.0
  0
LINE
  5
91B
330
1F
100
AcDbEntity
  8
DETAIL
100
AcDbLine
 10
-474.0999999998033
 20
-3273.000000000206
 30
0.0
 11
-474.0999999998035
 21
-3261.000000000112
 31
0.0
  0
LINE
  5
91C
330
1F
100
AcDbEntity
  8
DETAIL
100
AcDbLine
 10
-422.4999999999974
 20
-3280.49999999956
 30
0.0
 11
-464.5289321879038
 21
-3280.500000000714
 31
0.0
  0
LINE
  5
91D
330
1F
100
AcDbEntity
  8
DETAIL
100
AcDbLine
 10
-468.0644660939989
 20
-3279.035533906003
 30
0.0
 11
-474.0999999998033
 21
-3273.000000000206
 31
0.0
  0
ARC
  5
91E
330
1F
100
AcDbEntity
  8
DETAIL
100
AcDbCircle
 10
-464.5289321879038
 20
-3275.500000000614
 30
0.0
 40
5.0000000001
100
AcDbArc
 50
225.000000000001
 51
270.0000000000009
  0
ARC
  5
91F
330
1F
100
AcDbEntity
  8
DETAIL
100
AcDbCircle
 10
-454.8000000001025
 20
-3264.500000000111
 30
0.0
 40
5.999999999699999
100
AcDbArc
 50
180.0000000000009
 51
0.0000000000009867
  0
LINE
  5
920
330
1F
100
AcDbEntity
  8
DETAIL
100
AcDbLine
 10
-460.799999999806
 20
-3261.000000000112
 30
0.0
 11
-460.7999999998059
 21
-3264.500000000111
 31
0.0
  0
LINE
  5
921
330
1F
100
AcDbEntity
  8
DETAIL
100
AcDbLine
 10
-460.799999999806
 20
-3261.000000000112
 30
0.0
 11
-474.0999999998035
 21
-3261.000000000112
 31
0.0
  0
LINE
  5
922
330
1F
100
AcDbEntity
  8
DETAIL
100
AcDbLine
 10
-474.0999999998039
 20
-3237.999999999806
 30
0.0
 11
-474.0999999998036
 21
-3249.999999999901
 31
0.0
  0
LINE
  5
923
330
1F
100
AcDbEntity
  8
DETAIL
100
AcDbLine
 10
-422.4999999999982
 20
-3230.500000000451
 30
0.0
 11
-464.5289321879046
 21
-3230.499999999298
 31
0.0
  0
LINE
  5
924
330
1F
100
AcDbEntity
  8
DETAIL
100
AcDbLine
 10
-468.0644660939998
 20
-3231.964466094009
 30
0.0
 11
-474.0999999998039
 21
-3237.999999999806
 31
0.0
  0
ARC
  5
925
330
1F
100
AcDbEntity
  8
DETAIL
100
AcDbCircle
 10
-464.5289321879045
 20
-3235.499999999398
 30
0.0
 40
5.0000000001
100
AcDbArc
 50
90.00000000000101
 51
135.000000000001
  0
ARC
  5
926
330
1F
100
AcDbEntity
  8
DETAIL
100
AcDbCircle
 10
-454.8000000001027
 20
-3246.499999999901
 30
0.0
 40
5.999999999699999
100
AcDbArc
 50
0.0000000000009867
 51
180.0000000000009
  0
LINE
  5
927
330
1F
100
AcDbEntity
  8
DETAIL
100
AcDbLine
 10
-460.7999999998062
 20
-3249.999999999901
 30
0.0
 11
-460.7999999998063
 21
-3246.499999999901
 31
0.0
  0
LINE
  5
928
330
1F
100
AcDbEntity
  8
DETAIL
100
AcDbLine
 10
-460.7999999998062
 20
-3249.999999999901
 30
0.0
 11
-474.0999999998036
 21
-3249.999999999901
 31
0.0
  0
LINE
  5
929
330
1F
100
AcDbEntity
  8
DETAIL
100
AcDbLine
 10
-448.8000000004044
 20
-3264.500000000111
 30
0.0
 11
-448.8000000004047
 21
-3246.499999999901
 31
0.0
  0
LINE
  5
92A
330
1F
100
AcDbEntity
  8
BASIS
100
AcDbLine
 10
-490.9999999999978
 20
-3255.500000000004
 30
0.0
 11
-418.9999999999978
 21
-3255.500000000003
 31
0.0
  0
CIRCLE
  5
92B
330
1F
100
AcDbEntity
  8
FIX
100
AcDbCircle
 10
-454.9999999999978
 20
-3255.500000000004
 30
0.0
 40
20.0
  0
LINE
  5
92C
330
1F
100
AcDbEntity
  8
BASIS
100
AcDbLine
 10
-454.9999999999984
 20
-3219.500000000004
 30
0.0
 11
-454.9999999999973
 21
-3291.500000000004
 31
0.0
  0
CIRCLE
  5
92D
330
1F
100
AcDbEntity
  8
FIX
100
AcDbCircle
 10
-455.0000000000014
 20
-1443.000000000004
 30
0.0
 40
20.0
  0
LINE
  5
92E
330
1F
100
AcDbEntity
  8
BASIS
100
AcDbLine
 10
-455.0000000000004
 20
-1479.000000000004
 30
0.0
 11
-455.0000000000014
 21
-1407.000000000004
 31
0.0
  0
CIRCLE
  5
92F
330
1F
100
AcDbEntity
  8
FIX
100
AcDbCircle
 10
454.9999999999995
 20
-1442.999999999996
 30
0.0
 40
20.0
  0
LINE
  5
930
330
1F
100
AcDbEntity
  8
BASIS
100
AcDbLine
 10
454.9999999999995
 20
-1478.999999999996
 30
0.0
 11
454.9999999999995
 21
-1406.999999999996
 31
0.0
  0
CIRCLE
  5
931
330
1F
100
AcDbEntity
  8
FIX
100
AcDbCircle
 10
-455.0000000000004
 20
1442.999999999997
 30
0.0
 40
20.0
  0
LINE
  5
932
330
1F
100
AcDbEntity
  8
BASIS
100
AcDbLine
 10
-455.0000000000005
 20
1406.999999999997
 30
0.0
 11
-455.0000000000004
 21
1478.999999999997
 31
0.0
  0
CIRCLE
  5
933
330
1F
100
AcDbEntity
  8
FIX
100
AcDbCircle
 10
454.9999999999995
 20
1442.999999999997
 30
0.0
 40
20.0
  0
LINE
  5
934
330
1F
100
AcDbEntity
  8
BASIS
100
AcDbLine
 10
454.9999999999995
 20
1406.999999999997
 30
0.0
 11
454.9999999999995
 21
1478.999999999997
 31
0.0
  0
LINE
  5
939
330
1F
100
AcDbEntity
  8
DETAIL
100
AcDbLine
 10
474.0999999998118
 20
-3273.00000000019
 30
0.0
 11
474.0999999998115
 21
-3261.000000000096
 31
0.0
  0
LINE
  5
93A
330
1F
100
AcDbEntity
  8
DETAIL
100
AcDbLine
 10
422.5000000000061
 20
-3280.499999999545
 30
0.0
 11
464.5289321879088
 21
-3280.500000000698
 31
0.0
  0
LINE
  5
93B
330
1F
100
AcDbEntity
  8
DETAIL
100
AcDbLine
 10
468.0644660940041
 20
-3279.035533905987
 30
0.0
 11
474.0999999998118
 21
-3273.00000000019
 31
0.0
  0
ARC
  5
93C
330
1F
100
AcDbEntity
  8
DETAIL
100
AcDbCircle
 10
464.5289321879088
 20
-3275.500000000597
 30
0.0
 40
5.0000000001
100
AcDbArc
 50
270.000000000001
 51
315.0000000000009
  0
ARC
  5
93D
330
1F
100
AcDbEntity
  8
DETAIL
100
AcDbCircle
 10
454.8000000001106
 20
-3264.500000000095
 30
0.0
 40
5.999999999699999
100
AcDbArc
 50
180.0000000000009
 51
0.0000000000009797
  0
LINE
  5
93E
330
1F
100
AcDbEntity
  8
DETAIL
100
AcDbLine
 10
460.7999999998122
 20
-3261.000000000096
 30
0.0
 11
460.7999999998123
 21
-3264.500000000095
 31
0.0
  0
LINE
  5
93F
330
1F
100
AcDbEntity
  8
DETAIL
100
AcDbLine
 10
460.7999999998122
 20
-3261.000000000096
 30
0.0
 11
474.0999999998115
 21
-3261.000000000096
 31
0.0
  0
LINE
  5
940
330
1F
100
AcDbEntity
  8
DETAIL
100
AcDbLine
 10
474.0999999998112
 20
-3237.999999999789
 30
0.0
 11
474.0999999998114
 21
-3249.999999999884
 31
0.0
  0
LINE
  5
941
330
1F
100
AcDbEntity
  8
DETAIL
100
AcDbLine
 10
422.5000000000053
 20
-3230.500000000437
 30
0.0
 11
464.528932187908
 21
-3230.499999999282
 31
0.0
  0
LINE
  5
942
330
1F
100
AcDbEntity
  8
DETAIL
100
AcDbLine
 10
468.0644660940032
 20
-3231.964466093993
 30
0.0
 11
474.0999999998112
 21
-3237.999999999789
 31
0.0
  0
ARC
  5
943
330
1F
100
AcDbEntity
  8
DETAIL
100
AcDbCircle
 10
464.5289321879081
 20
-3235.499999999382
 30
0.0
 40
5.0000000001
100
AcDbArc
 50
45.00000000000101
 51
90.00000000000101
  0
ARC
  5
944
330
1F
100
AcDbEntity
  8
DETAIL
100
AcDbCircle
 10
454.8000000001104
 20
-3246.499999999884
 30
0.0
 40
5.999999999699999
100
AcDbArc
 50
0.0000000000009797
 51
180.0000000000009
  0
LINE
  5
945
330
1F
100
AcDbEntity
  8
DETAIL
100
AcDbLine
 10
460.7999999998121
 20
-3249.999999999884
 30
0.0
 11
460.7999999998121
 21
-3246.499999999884
 31
0.0
  0
LINE
  5
946
330
1F
100
AcDbEntity
  8
DETAIL
100
AcDbLine
 10
460.7999999998121
 20
-3249.999999999884
 30
0.0
 11
474.0999999998114
 21
-3249.999999999884
 31
0.0
  0
LINE
  5
947
330
1F
100
AcDbEntity
  8
DETAIL
100
AcDbLine
 10
448.800000000409
 20
-3264.500000000095
 30
0.0
 11
448.8000000004086
 21
-3246.499999999884
 31
0.0
  0
LINE
  5
948
330
1F
100
AcDbEntity
  8
BASIS
100
AcDbLine
 10
491.0000000000021
 20
-3255.499999999988
 30
0.0
 11
419.0000000000021
 21
-3255.499999999989
 31
0.0
  0
CIRCLE
  5
949
330
1F
100
AcDbEntity
  8
FIX
100
AcDbCircle
 10
455.0000000000022
 20
-3255.499999999988
 30
0.0
 40
20.0
  0
LINE
  5
94A
330
1F
100
AcDbEntity
  8
BASIS
100
AcDbLine
 10
455.0000000000015
 20
-3219.499999999988
 30
0.0
 11
455.0000000000027
 21
-3291.499999999988
 31
0.0
  0
LINE
  5
94B
330
1F
100
AcDbEntity
  8
DETAIL
100
AcDbLine
 10
-474.0999999998127
 20
-2726.999999999803
 30
0.0
 11
-474.0999999998124
 21
-2738.999999999897
 31
0.0
  0
LINE
  5
94C
330
1F
100
AcDbEntity
  8
DETAIL
100
AcDbLine
 10
-422.500000000007
 20
-2719.500000000447
 30
0.0
 11
-464.5289321879134
 21
-2719.499999999295
 31
0.0
  0
LINE
  5
94D
330
1F
100
AcDbEntity
  8
DETAIL
100
AcDbLine
 10
-468.0644660940085
 20
-2720.964466094005
 30
0.0
 11
-474.0999999998127
 21
-2726.999999999803
 31
0.0
  0
ARC
  5
94E
330
1F
100
AcDbEntity
  8
DETAIL
100
AcDbCircle
 10
-464.5289321879133
 20
-2724.499999999395
 30
0.0
 40
5.0000000001
100
AcDbArc
 50
90.00000000000101
 51
135.000000000001
  0
ARC
  5
94F
330
1F
100
AcDbEntity
  8
DETAIL
100
AcDbCircle
 10
-454.8000000001116
 20
-2735.499999999897
 30
0.0
 40
5.999999999699999
100
AcDbArc
 50
0.0000000000009867
 51
180.0000000000009
  0
LINE
  5
950
330
1F
100
AcDbEntity
  8
DETAIL
100
AcDbLine
 10
-460.799999999815
 20
-2738.999999999897
 30
0.0
 11
-460.7999999998151
 21
-2735.499999999897
 31
0.0
  0
LINE
  5
951
330
1F
100
AcDbEntity
  8
DETAIL
100
AcDbLine
 10
-460.799999999815
 20
-2738.999999999897
 30
0.0
 11
-474.0999999998124
 21
-2738.999999999897
 31
0.0
  0
LINE
  5
952
330
1F
100
AcDbEntity
  8
DETAIL
100
AcDbLine
 10
-474.0999999998121
 20
-2762.000000000202
 30
0.0
 11
-474.0999999998122
 21
-2750.000000000108
 31
0.0
  0
LINE
  5
953
330
1F
100
AcDbEntity
  8
DETAIL
100
AcDbLine
 10
-422.5000000000062
 20
-2769.499999999556
 30
0.0
 11
-464.5289321879126
 21
-2769.50000000071
 31
0.0
  0
LINE
  5
954
330
1F
100
AcDbEntity
  8
DETAIL
100
AcDbLine
 10
-468.0644660940077
 20
-2768.035533905999
 30
0.0
 11
-474.0999999998121
 21
-2762.000000000202
 31
0.0
  0
ARC
  5
955
330
1F
100
AcDbEntity
  8
DETAIL
100
AcDbCircle
 10
-464.5289321879126
 20
-2764.50000000061
 30
0.0
 40
5.0000000001
100
AcDbArc
 50
225.000000000001
 51
270.0000000000009
  0
ARC
  5
956
330
1F
100
AcDbEntity
  8
DETAIL
100
AcDbCircle
 10
-454.8000000001112
 20
-2753.500000000108
 30
0.0
 40
5.999999999699999
100
AcDbArc
 50
180.0000000000009
 51
0.0000000000009867
  0
LINE
  5
957
330
1F
100
AcDbEntity
  8
DETAIL
100
AcDbLine
 10
-460.7999999998148
 20
-2750.000000000108
 30
0.0
 11
-460.7999999998148
 21
-2753.500000000108
 31
0.0
  0
LINE
  5
958
330
1F
100
AcDbEntity
  8
DETAIL
100
AcDbLine
 10
-460.7999999998148
 20
-2750.000000000108
 30
0.0
 11
-474.0999999998122
 21
-2750.000000000108
 31
0.0
  0
LINE
  5
959
330
1F
100
AcDbEntity
  8
DETAIL
100
AcDbLine
 10
-448.8000000004135
 20
-2735.499999999896
 30
0.0
 11
-448.8000000004133
 21
-2753.500000000107
 31
0.0
  0
LINE
  5
95A
330
1F
100
AcDbEntity
  8
BASIS
100
AcDbLine
 10
-491.0000000000066
 20
-2744.500000000004
 30
0.0
 11
-419.0000000000067
 21
-2744.500000000003
 31
0.0
  0
CIRCLE
  5
95B
330
1F
100
AcDbEntity
  8
FIX
100
AcDbCircle
 10
-455.0000000000066
 20
-2744.500000000004
 30
0.0
 40
20.0
  0
LINE
  5
95C
330
1F
100
AcDbEntity
  8
BASIS
100
AcDbLine
 10
-455.000000000006
 20
-2780.500000000004
 30
0.0
 11
-455.0000000000072
 21
-2708.500000000004
 31
0.0
  0
LINE
  5
95D
330
1F
100
AcDbEntity
  8
DETAIL
100
AcDbLine
 10
474.0999999998023
 20
-2726.999999999786
 30
0.0
 11
474.0999999998026
 21
-2738.999999999881
 31
0.0
  0
LINE
  5
95E
330
1F
100
AcDbEntity
  8
DETAIL
100
AcDbLine
 10
422.4999999999965
 20
-2719.500000000433
 30
0.0
 11
464.5289321878991
 21
-2719.499999999278
 31
0.0
  0
LINE
  5
95F
330
1F
100
AcDbEntity
  8
DETAIL
100
AcDbLine
 10
468.0644660939945
 20
-2720.964466093989
 30
0.0
 11
474.0999999998023
 21
-2726.999999999786
 31
0.0
  0
ARC
  5
960
330
1F
100
AcDbEntity
  8
DETAIL
100
AcDbCircle
 10
464.5289321878993
 20
-2724.499999999379
 30
0.0
 40
5.0000000001
100
AcDbArc
 50
45.00000000000101
 51
90.00000000000101
  0
ARC
  5
961
330
1F
100
AcDbEntity
  8
DETAIL
100
AcDbCircle
 10
454.8000000001016
 20
-2735.499999999881
 30
0.0
 40
5.999999999699999
100
AcDbArc
 50
0.0000000000009867
 51
180.0000000000009
  0
LINE
  5
962
330
1F
100
AcDbEntity
  8
DETAIL
100
AcDbLine
 10
460.7999999998033
 20
-2738.999999999881
 30
0.0
 11
460.7999999998033
 21
-2735.499999999881
 31
0.0
  0
LINE
  5
963
330
1F
100
AcDbEntity
  8
DETAIL
100
AcDbLine
 10
460.7999999998033
 20
-2738.999999999881
 30
0.0
 11
474.0999999998026
 21
-2738.999999999881
 31
0.0
  0
LINE
  5
964
330
1F
100
AcDbEntity
  8
DETAIL
100
AcDbLine
 10
474.099999999803
 20
-2762.000000000186
 30
0.0
 11
474.0999999998027
 21
-2750.000000000092
 31
0.0
  0
LINE
  5
965
330
1F
100
AcDbEntity
  8
DETAIL
100
AcDbLine
 10
422.4999999999973
 20
-2769.499999999541
 30
0.0
 11
464.5289321879
 21
-2769.500000000693
 31
0.0
  0
LINE
  5
966
330
1F
100
AcDbEntity
  8
DETAIL
100
AcDbLine
 10
468.0644660939953
 20
-2768.035533905983
 30
0.0
 11
474.099999999803
 21
-2762.000000000186
 31
0.0
  0
ARC
  5
967
330
1F
100
AcDbEntity
  8
DETAIL
100
AcDbCircle
 10
464.5289321878999
 20
-2764.500000000594
 30
0.0
 40
5.0000000001
100
AcDbArc
 50
270.0000000000009
 51
315.0000000000009
  0
ARC
  5
968
330
1F
100
AcDbEntity
  8
DETAIL
100
AcDbCircle
 10
454.8000000001018
 20
-2753.500000000092
 30
0.0
 40
5.999999999699999
100
AcDbArc
 50
180.0000000000009
 51
0.0000000000009867
  0
LINE
  5
969
330
1F
100
AcDbEntity
  8
DETAIL
100
AcDbLine
 10
460.7999999998035
 20
-2750.000000000092
 30
0.0
 11
460.7999999998035
 21
-2753.500000000092
 31
0.0
  0
LINE
  5
96A
330
1F
100
AcDbEntity
  8
DETAIL
100
AcDbLine
 10
460.7999999998035
 20
-2750.000000000092
 30
0.0
 11
474.0999999998027
 21
-2750.000000000092
 31
0.0
  0
LINE
  5
96B
330
1F
100
AcDbEntity
  8
DETAIL
100
AcDbLine
 10
448.8000000003999
 20
-2735.499999999881
 30
0.0
 11
448.8000000004001
 21
-2753.500000000093
 31
0.0
  0
LINE
  5
96C
330
1F
100
AcDbEntity
  8
BASIS
100
AcDbLine
 10
490.9999999999933
 20
-2744.499999999988
 30
0.0
 11
418.9999999999933
 21
-2744.499999999989
 31
0.0
  0
CIRCLE
  5
96D
330
1F
100
AcDbEntity
  8
FIX
100
AcDbCircle
 10
454.9999999999933
 20
-2744.499999999988
 30
0.0
 40
20.0
  0
LINE
  5
96E
330
1F
100
AcDbEntity
  8
BASIS
100
AcDbLine
 10
454.9999999999939
 20
-2780.499999999988
 30
0.0
 11
454.9999999999926
 21
-2708.499999999988
 31
0.0
  0
LINE
  5
96F
330
1F
100
AcDbEntity
  8
DETAIL
100
AcDbLine
 10
-453.1999999999093
 20
-2946.000000000104
 30
0.0
 11
-453.1999999999087
 21
-2980.999999999903
 31
0.0
  0
LINE
  5
970
330
1F
100
AcDbEntity
  8
DETAIL
100
AcDbLine
 10
-463.2000000001093
 20
-2946.000000000104
 30
0.0
 11
-463.2000000001088
 21
-2980.999999999904
 31
0.0
  0
LINE
  5
971
330
1F
100
AcDbEntity
  8
DETAIL
100
AcDbLine
 10
-453.1999999999093
 20
-2946.000000000104
 30
0.0
 11
-463.2000000001093
 21
-2946.000000000104
 31
0.0
  0
LINE
  5
972
330
1F
100
AcDbEntity
  8
DETAIL
100
AcDbLine
 10
-463.2000000001088
 20
-2980.999999999904
 30
0.0
 11
-453.1999999999087
 21
-2980.999999999903
 31
0.0
  0
LINE
  5
973
330
1F
100
AcDbEntity
  8
BASIS
100
AcDbLine
 10
-473.2000000001091
 20
-2963.500000000003
 30
0.0
 11
-405.8394929743837
 21
-2963.500000000003
 31
0.0
  0
LINE
  5
974
330
1F
100
AcDbEntity
  8
DETAIL
100
AcDbLine
 10
-453.1999999999087
 20
-2976.000000000004
 30
0.0
 11
-422.5000000000027
 21
-2976.000000000004
 31
0.0
  0
LINE
  5
975
330
1F
100
AcDbEntity
  8
DETAIL
100
AcDbLine
 10
-453.1999999999093
 20
-2951.000000000004
 30
0.0
 11
-422.5000000000031
 21
-2951.000000000004
 31
0.0
  0
LINE
  5
976
330
1F
100
AcDbEntity
  8
DETAIL
100
AcDbLine
 10
453.1999999999032
 20
-2966.500000000243
 30
0.0
 11
453.1999999999035
 21
-2980.999999999888
 31
0.0
  0
LINE
  5
977
330
1F
100
AcDbEntity
  8
DETAIL
100
AcDbLine
 10
463.2000000001034
 20
-2966.150000000158
 30
0.0
 11
463.2000000001036
 21
-2980.999999999888
 31
0.0
  0
LINE
  5
978
330
1F
100
AcDbEntity
  8
DETAIL
100
AcDbLine
 10
463.2000000001036
 20
-2980.999999999888
 30
0.0
 11
453.1999999999035
 21
-2980.999999999888
 31
0.0
  0
LINE
  5
979
330
1F
100
AcDbEntity
  8
DETAIL
100
AcDbLine
 10
453.1999999999034
 20
-2975.999999999988
 30
0.0
 11
422.4999999999972
 21
-2975.999999999989
 31
0.0
  0
LINE
  5
97A
330
1F
100
AcDbEntity
  8
DETAIL
100
AcDbLine
 10
454.9400000001003
 20
-2911.494374724188
 30
0.0
 11
440.9400000001004
 21
-2911.494374724188
 31
0.0
  0
LINE
  5
97B
330
1F
100
AcDbEntity
  8
DETAIL
100
AcDbLine
 10
440.9400000001004
 20
-2911.494374724188
 30
0.0
 11
440.9400000001
 21
-2889.505625275788
 31
0.0
  0
LINE
  5
97C
330
1F
100
AcDbEntity
  8
DETAIL
100
AcDbLine
 10
440.9400000001003
 20
-2908.434374724487
 30
0.0
 11
422.4999999999961
 21
-2908.434374724487
 31
0.0
  0
LINE
  5
97D
330
1F
100
AcDbEntity
  8
DETAIL
100
AcDbLine
 10
462.9400000004023
 20
-2913.994374724591
 30
0.0
 11
462.9400000004092
 21
-2887.005625275383
 31
0.0
  0
LINE
  5
97E
330
1F
100
AcDbEntity
  8
DETAIL
100
AcDbLine
 10
462.9400000004023
 20
-2913.994374724591
 30
0.0
 11
454.9400000001004
 21
-2913.99437472459
 31
0.0
  0
LINE
  5
97F
330
1F
100
AcDbEntity
  8
DETAIL
100
AcDbLine
 10
454.9400000001035
 20
-2887.005625275385
 30
0.0
 11
454.9400000001004
 21
-2913.99437472459
 31
0.0
  0
LINE
  5
980
330
1F
100
AcDbEntity
  8
DETAIL
100
AcDbLine
 10
467.9399999998021
 20
-2914.494374724387
 30
0.0
 11
467.9399999998016
 21
-2886.505625275592
 31
0.0
  0
LINE
  5
981
330
1F
100
AcDbEntity
  8
DETAIL
100
AcDbLine
 10
468.1222716865995
 20
-2914.994374724187
 30
0.0
 11
467.9399999998021
 21
-2914.494374724387
 31
0.0
  0
LINE
  5
982
330
1F
100
AcDbEntity
  8
DETAIL
100
AcDbLine
 10
493.9399999999003
 20
-2912.994374724287
 30
0.0
 11
493.9399999998999
 21
-2888.005625275686
 31
0.0
  0
LINE
  5
983
330
1F
100
AcDbEntity
  8
DETAIL
100
AcDbLine
 10
468.1222716865995
 20
-2914.994374724187
 30
0.0
 11
489.748658088505
 21
-2914.994374724187
 31
0.0
  0
LINE
  5
984
330
1F
100
AcDbEntity
  8
DETAIL
100
AcDbLine
 10
493.9399999999003
 20
-2912.994374724287
 30
0.0
 11
489.748658088505
 21
-2914.994374724187
 31
0.0
  0
LINE
  5
985
330
1F
100
AcDbEntity
  8
BASIS
100
AcDbLine
 10
412.0955308556181
 20
-2900.499999999989
 30
0.0
 11
503.9399999999001
 21
-2900.499999999987
 31
0.0
  0
LINE
  5
986
330
1F
100
AcDbEntity
  8
DETAIL
100
AcDbLine
 10
489.748658088505
 20
-2914.994374724187
 30
0.0
 11
489.7486580885046
 21
-2886.00562527579
 31
0.0
  0
LINE
  5
987
330
1F
100
AcDbEntity
  8
DETAIL
100
AcDbLine
 10
454.9400000001
 20
-2889.505625275788
 30
0.0
 11
440.9400000001
 21
-2889.505625275788
 31
0.0
  0
LINE
  5
988
330
1F
100
AcDbEntity
  8
DETAIL
100
AcDbLine
 10
440.9400000001
 20
-2892.565625275491
 30
0.0
 11
422.4999999999958
 21
-2892.565625275491
 31
0.0
  0
LINE
  5
989
330
1F
100
AcDbEntity
  8
DETAIL
100
AcDbLine
 10
462.9400000004092
 20
-2887.005625275383
 30
0.0
 11
454.9400000001035
 21
-2887.005625275385
 31
0.0
  0
LINE
  5
98A
330
1F
100
AcDbEntity
  8
DETAIL
100
AcDbLine
 10
468.1222716865989
 20
-2886.005625275788
 30
0.0
 11
489.7486580885046
 21
-2886.005625275788
 31
0.0
  0
LINE
  5
98B
330
1F
100
AcDbEntity
  8
DETAIL
100
AcDbLine
 10
493.9399999998999
 20
-2888.005625275686
 30
0.0
 11
489.7486580885046
 21
-2886.005625275788
 31
0.0
  0
LINE
  5
98C
330
1F
100
AcDbEntity
  8
DETAIL
100
AcDbLine
 10
458.5000000003003
 20
-2828.544083128889
 30
0.0
 11
449.5000000004022
 21
-2828.544083128891
 31
0.0
  0
LINE
  5
98D
330
1F
100
AcDbEntity
  8
DETAIL
100
AcDbLine
 10
458.5000000003003
 20
-2828.544083128889
 30
0.0
 11
458.5000000003001
 21
-2812.455916871087
 31
0.0
  0
LINE
  5
98E
330
1F
100
AcDbEntity
  8
DETAIL
100
AcDbLine
 10
449.5000000004022
 20
-2828.544083128891
 30
0.0
 11
449.5000000004019
 21
-2812.455916871083
 31
0.0
  0
LINE
  5
98F
330
1F
100
AcDbEntity
  8
DETAIL
100
AcDbLine
 10
462.303526945698
 20
-2830.312197581887
 30
0.0
 11
475.49806480537
 21
-2830.312197581887
 31
0.0
  0
LINE
  5
990
330
1F
100
AcDbEntity
  8
DETAIL
100
AcDbLine
 10
461.4000000004
 20
-2828.750000000192
 30
0.0
 11
461.4000000004
 21
-2827.544937911188
 31
0.0
  0
LINE
  5
991
330
1F
100
AcDbEntity
  8
DETAIL
100
AcDbLine
 10
461.4000000004
 20
-2827.544937911188
 30
0.0
 11
461.4000000003997
 21
-2812.24999999979
 31
0.0
  0
LINE
  5
992
330
1F
100
AcDbEntity
  8
DETAIL
100
AcDbLine
 10
462.242005857401
 20
-2830.185421491188
 30
0.0
 11
462.303526945698
 21
-2830.312197581887
 31
0.0
  0
LINE
  5
993
330
1F
100
AcDbEntity
  8
DETAIL
100
AcDbLine
 10
461.4000000004
 20
-2825.099999999692
 30
0.0
 11
458.5000000003002
 21
-2825.099999999692
 31
0.0
  0
LINE
  5
994
330
1F
100
AcDbEntity
  8
DETAIL
100
AcDbLine
 10
462.2320572026022
 20
-2830.191165349591
 30
0.0
 11
461.4000000004
 21
-2828.750000000192
 31
0.0
  0
LINE
  5
995
330
1F
100
AcDbEntity
  8
DETAIL
100
AcDbLine
 10
476.3999999999962
 20
-2828.750000000192
 30
0.0
 11
476.3999999999959
 21
-2812.249999999784
 31
0.0
  0
LINE
  5
996
330
1F
100
AcDbEntity
  8
DETAIL
100
AcDbLine
 10
476.3999999999962
 20
-2828.750000000192
 30
0.0
 11
475.49806480537
 21
-2830.312197581887
 31
0.0
  0
LINE
  5
997
330
1F
100
AcDbEntity
  8
BASIS
100
AcDbLine
 10
412.0955308556168
 20
-2820.499999999989
 30
0.0
 11
486.399999999996
 21
-2820.499999999988
 31
0.0
  0
LINE
  5
998
330
1F
100
AcDbEntity
  8
DETAIL
100
AcDbLine
 10
449.500000000402
 20
-2815.749999999784
 30
0.0
 11
422.4999999999945
 21
-2815.749999999785
 31
0.0
  0
LINE
  5
999
330
1F
100
AcDbEntity
  8
DETAIL
100
AcDbLine
 10
458.5000000003001
 20
-2812.455916871087
 30
0.0
 11
449.5000000004019
 21
-2812.455916871083
 31
0.0
  0
LINE
  5
99A
330
1F
100
AcDbEntity
  8
DETAIL
100
AcDbLine
 10
462.3035269456976
 20
-2810.687802418089
 30
0.0
 11
475.4980648053696
 21
-2810.687802418089
 31
0.0
  0
LINE
  5
99B
330
1F
100
AcDbEntity
  8
DETAIL
100
AcDbLine
 10
461.4000000003997
 20
-2812.249999999784
 30
0.0
 11
461.4000000003998
 21
-2813.455062088788
 31
0.0
  0
LINE
  5
99C
330
1F
100
AcDbEntity
  8
DETAIL
100
AcDbLine
 10
462.2420058574006
 20
-2810.814578508788
 30
0.0
 11
462.3035269456976
 21
-2810.687802418089
 31
0.0
  0
LINE
  5
99D
330
1F
100
AcDbEntity
  8
DETAIL
100
AcDbLine
 10
461.4000000003998
 20
-2815.900000000284
 30
0.0
 11
458.5000000003001
 21
-2815.900000000284
 31
0.0
  0
LINE
  5
99E
330
1F
100
AcDbEntity
  8
DETAIL
100
AcDbLine
 10
462.2320572026018
 20
-2810.808834650385
 30
0.0
 11
461.4000000003997
 21
-2812.249999999784
 31
0.0
  0
LINE
  5
99F
330
1F
100
AcDbEntity
  8
DETAIL
100
AcDbLine
 10
476.3999999999959
 20
-2812.249999999784
 30
0.0
 11
475.4980648053696
 21
-2810.687802418089
 31
0.0
  0
LINE
  5
9A0
330
1F
100
AcDbEntity
  8
DETAIL
100
AcDbLine
 10
449.5000000004021
 20
-2825.250000000192
 30
0.0
 11
422.4999999999947
 21
-2825.250000000193
 31
0.0
  0
LINE
  5
9A1
330
1F
100
AcDbEntity
  8
DETAIL
100
AcDbLine
 10
468.1222716865989
 20
-2886.005625275788
 30
0.0
 11
467.9399999998016
 21
-2886.505625275592
 31
0.0
  0
LINE
  5
9A2
330
1F
100
AcDbEntity
  8
DETAIL
100
AcDbLine
 10
462.9400000004023
 20
-2909.999999999988
 30
0.0
 11
467.939999999802
 21
-2909.999999999988
 31
0.0
  0
LINE
  5
9A3
330
1F
100
AcDbEntity
  8
DETAIL
100
AcDbLine
 10
462.9400000004056
 20
-2890.999999999986
 30
0.0
 11
467.9399999998017
 21
-2890.999999999988
 31
0.0
  0
LINE
  5
9A4
330
1F
100
AcDbEntity
  8
DETAIL
100
AcDbLine
 10
466.4999999999024
 20
-2964.499999999875
 30
0.0
 11
466.499999999902
 21
-2936.500000000106
 31
0.0
  0
LINE
  5
9A5
330
1F
100
AcDbEntity
  8
DETAIL
100
AcDbLine
 10
424.4999999995927
 20
-2934.49999999974
 30
0.0
 11
462.5000000000984
 21
-2934.499999999739
 31
0.0
  0
LINE
  5
9A6
330
1F
100
AcDbEntity
  8
DETAIL
100
AcDbLine
 10
462.5000000000984
 20
-2934.499999999739
 30
0.0
 11
466.499999999902
 21
-2936.500000000106
 31
0.0
  0
LINE
  5
9A7
330
1F
100
AcDbEntity
  8
DETAIL
100
AcDbLine
 10
462.500000000099
 20
-2966.500000000241
 30
0.0
 11
422.4999999999971
 21
-2966.500000000241
 31
0.0
  0
LINE
  5
9A8
330
1F
100
AcDbEntity
  8
DETAIL
100
AcDbLine
 10
466.4999999999024
 20
-2964.499999999875
 30
0.0
 11
462.500000000099
 21
-2966.500000000241
 31
0.0
  0
LINE
  5
9A9
330
1F
100
AcDbEntity
  8
DETAIL
100
AcDbLine
 10
462.5000000000984
 20
-2934.499999999739
 30
0.0
 11
462.500000000099
 21
-2966.500000000239
 31
0.0
  0
LINE
  5
9AA
330
1F
100
AcDbEntity
  8
BASIS
100
AcDbLine
 10
411.8656032699987
 20
-2950.499999999991
 30
0.0
 11
476.4999999999022
 21
-2950.49999999999
 31
0.0
  0
TEXT
  5
9AB
330
1F
100
AcDbEntity
  8
NOTE
100
AcDbText
 10
597.036525988014
 20
-3204.217196734546
 30
0.0
 40
30.0
  1
Hanging bolt pitch
 50
90.0
  7
ARIAL
100
AcDbText
  0
LINE
  5
9AC
330
1F
100
AcDbEntity
  8
SIZE
100
AcDbLine
 10
-455.0000000000022
 20
-3301.500000000003
 30
0.0
 11
-455.0000000000022
 21
-3454.374994562269
 31
0.0
  0
LINE
  5
9AD
330
1F
100
AcDbEntity
  8
SIZE
100
AcDbLine
 10
454.9999999999977
 20
-3301.500000000003
 30
0.0
 11
454.9999999999977
 21
-3454.374994562269
 31
0.0
  0
LINE
  5
9AE
330
1F
100
AcDbEntity
  8
SIZE
100
AcDbLine
 10
432.4999999999977
 20
-3322.500000000003
 30
0.0
 11
696.0050850801613
 21
-3322.500000000003
 31
0.0
  0
LINE
  5
9AF
330
1F
100
AcDbEntity
  8
SIZE
100
AcDbLine
 10
432.4999999999977
 20
-2677.500000000005
 30
0.0
 11
696.0050850801613
 21
-2677.500000000005
 31
0.0
  0
LINE
  5
9B0
330
1F
100
AcDbEntity
  8
SIZE
100
AcDbLine
 10
500.9999999999977
 20
-3255.500000000003
 30
0.0
 11
616.0050850801613
 21
-3255.500000000003
 31
0.0
  0
LINE
  5
9B1
330
1F
100
AcDbEntity
  8
SIZE
100
AcDbLine
 10
500.9999999999977
 20
-2744.500000000003
 30
0.0
 11
616.0050850801613
 21
-2744.500000000003
 31
0.0
  0
TEXT
  5
9B2
330
1F
100
AcDbEntity
  8
SIZE
100
AcDbText
 10
598.2347191373787
 20
-2862.488728571296
 30
0.0
 40
30.0
  1
511
 50
90.0
  7
ARIAL
100
AcDbText
  0
LINE
  5
9B3
330
1F
100
AcDbEntity
  8
SIZE
100
AcDbLine
 10
615.0243229301609
 20
-3240.500000000003
 30
0.0
 11
611.0050850801613
 21
-3255.500000000003
 31
0.0
  0
LINE
  5
9B4
330
1F
100
AcDbEntity
  8
SIZE
100
AcDbLine
 10
611.0050850801613
 20
-3255.500000000003
 30
0.0
 11
606.9858472301616
 21
-3240.500000000003
 31
0.0
  0
LINE
  5
9B5
330
1F
100
AcDbEntity
  8
SIZE
100
AcDbLine
 10
606.9858472301616
 20
-2759.500000000004
 30
0.0
 11
611.0050850801613
 21
-2744.500000000003
 31
0.0
  0
LINE
  5
9B6
330
1F
100
AcDbEntity
  8
SIZE
100
AcDbLine
 10
611.0050850801613
 20
-2744.500000000003
 30
0.0
 11
615.0243229301609
 21
-2759.500000000004
 31
0.0
  0
TEXT
  5
9B7
330
1F
100
AcDbEntity
  8
SIZE
100
AcDbText
 10
601.0050850801612
 20
-2729.54964882579
 30
0.0
 40
30.0
  1
67
 50
90.0
  7
ARIAL
100
AcDbText
  0
LINE
  5
9B8
330
1F
100
AcDbEntity
  8
SIZE
100
AcDbLine
 10
606.9858472301616
 20
-2692.500000000005
 30
0.0
 11
611.0050850801613
 21
-2677.500000000005
 31
0.0
  0
LINE
  5
9B9
330
1F
100
AcDbEntity
  8
SIZE
100
AcDbLine
 10
611.0050850801613
 20
-2677.500000000005
 30
0.0
 11
615.0243229301609
 21
-2692.500000000005
 31
0.0
  0
LINE
  5
9BA
330
1F
100
AcDbEntity
  8
SIZE
100
AcDbLine
 10
615.0243229301609
 20
-2729.500000000003
 30
0.0
 11
611.0050850801613
 21
-2744.500000000003
 31
0.0
  0
LINE
  5
9BB
330
1F
100
AcDbEntity
  8
SIZE
100
AcDbLine
 10
611.0050850801613
 20
-2744.500000000003
 30
0.0
 11
606.9858472301616
 21
-2729.500000000003
 31
0.0
  0
TEXT
  5
9BC
330
1F
100
AcDbEntity
  8
SIZE
100
AcDbText
 10
606.6883754684909
 20
-3312.708870975415
 30
0.0
 40
30.0
  1
67
 50
90.0
  7
ARIAL
100
AcDbText
  0
LINE
  5
9BD
330
1F
100
AcDbEntity
  8
SIZE
100
AcDbLine
 10
615.0243229301609
 20
-3307.500000000004
 30
0.0
 11
611.0050850801613
 21
-3322.500000000003
 31
0.0
  0
LINE
  5
9BE
330
1F
100
AcDbEntity
  8
SIZE
100
AcDbLine
 10
611.0050850801613
 20
-3322.500000000003
 30
0.0
 11
606.9858472301616
 21
-3307.500000000004
 31
0.0
  0
LINE
  5
9BF
330
1F
100
AcDbEntity
  8
SIZE
100
AcDbLine
 10
606.9858472301616
 20
-3270.500000000003
 30
0.0
 11
611.0050850801613
 21
-3255.500000000003
 31
0.0
  0
LINE
  5
9C0
330
1F
100
AcDbEntity
  8
SIZE
100
AcDbLine
 10
611.0050850801613
 20
-3255.500000000003
 30
0.0
 11
615.0243229301609
 21
-3270.500000000003
 31
0.0
  0
TEXT
  5
9C1
330
1F
100
AcDbEntity
  8
SIZE
100
AcDbText
 10
681.0050850801612
 20
-3040.000000000004
 30
0.0
 40
30.0
  1
645
 50
90.0
  7
ARIAL
100
AcDbText
  0
LINE
  5
9C2
330
1F
100
AcDbEntity
  8
SIZE
100
AcDbLine
 10
686.9858472301616
 20
-2692.500000000005
 30
0.0
 11
691.0050850801613
 21
-2677.500000000005
 31
0.0
  0
LINE
  5
9C3
330
1F
100
AcDbEntity
  8
SIZE
100
AcDbLine
 10
691.0050850801613
 20
-2677.500000000005
 30
0.0
 11
695.0243229301609
 21
-2692.500000000005
 31
0.0
  0
LINE
  5
9C4
330
1F
100
AcDbEntity
  8
SIZE
100
AcDbLine
 10
695.0243229301609
 20
-3307.500000000004
 30
0.0
 11
691.0050850801613
 21
-3322.500000000003
 31
0.0
  0
LINE
  5
9C5
330
1F
100
AcDbEntity
  8
SIZE
100
AcDbLine
 10
691.0050850801613
 20
-3322.500000000003
 30
0.0
 11
686.9858472301616
 21
-3307.500000000004
 31
0.0
  0
TEXT
  5
9C6
330
1F
100
AcDbEntity
  8
SIZE
100
AcDbText
 10
143.5393042748524
 20
-3436.683942577109
 30
0.0
 40
30.0
  1
910
  7
ARIAL
100
AcDbText
  0
LINE
  5
9C7
330
1F
100
AcDbEntity
  8
SIZE
100
AcDbLine
 10
439.9999999999977
 20
-3445.35575671227
 30
0.0
 11
454.9999999999977
 21
-3449.374994562269
 31
0.0
  0
LINE
  5
9C8
330
1F
100
AcDbEntity
  8
SIZE
100
AcDbLine
 10
454.9999999999977
 20
-3449.374994562269
 30
0.0
 11
439.9999999999977
 21
-3453.394232412269
 31
0.0
  0
LINE
  5
9C9
330
1F
100
AcDbEntity
  8
SIZE
100
AcDbLine
 10
-440.0000000000022
 20
-3453.394232412269
 30
0.0
 11
-455.0000000000022
 21
-3449.374994562269
 31
0.0
  0
LINE
  5
9CA
330
1F
100
AcDbEntity
  8
SIZE
100
AcDbLine
 10
-455.0000000000022
 20
-3449.374994562269
 30
0.0
 11
-440.0000000000022
 21
-3445.35575671227
 31
0.0
  0
TEXT
  5
9CB
330
1F
100
AcDbEntity
  8
NOTE
100
AcDbText
 10
-200.2189098577078
 20
-3435.268724339886
 30
0.0
 40
30.0
  1
Hanging bolt pitch
  7
ARIAL
100
AcDbText
  0
LINE
  5
9CC
330
1F
100
AcDbEntity
  8
BASIS
100
AcDbLine
 10
0.0000000000013642
 20
322.499999999999
 30
0.0
 11
-0.0000000000013642
 21
-322.5000000000008
 31
0.0
  0
CIRCLE
  5
9CD
330
1F
100
AcDbEntity
  8
ARRANGE
100
AcDbCircle
 10
0.0000000000022737
 20
-0.0000000000045475
 30
0.0
 40
20.0
  0
POINT
  5
9CE
330
1F
100
AcDbEntity
  8
ARRANGE
100
AcDbPoint
 10
0.0000000000022737
 20
-0.0000000000045475
 30
0.0
  0
LINE
  5
9CF
330
1F
100
AcDbEntity
  8
BASIS
100
AcDbLine
 10
422.4999999999995
 20
-0.0000000000009095
 30
0.0
 11
-422.4999999999995
 21
0.0000000000009095
 31
0.0
  0
LINE
  5
9D0
330
1F
100
AcDbEntity
  8
DETAIL
100
AcDbLine
 10
-422.4999999999986
 20
322.5000000000008
 30
0.0
 11
-422.5000000000013
 21
-322.499999999999
 31
0.0
  0
LINE
  5
9D1
330
1F
100
AcDbEntity
  8
DETAIL
100
AcDbLine
 10
422.5000000000013
 20
322.4999999999972
 30
0.0
 11
422.4999999999995
 21
-322.5000000000008
 31
0.0
  0
LINE
  5
9D2
330
1F
100
AcDbEntity
  8
DETAIL
100
AcDbLine
 10
-422.5000000000013
 20
-322.499999999999
 30
0.0
 11
422.4999999999995
 21
-322.5000000000008
 31
0.0
  0
LINE
  5
9D3
330
1F
100
AcDbEntity
  8
DETAIL
100
AcDbLine
 10
-422.4999999999986
 20
322.5000000000008
 30
0.0
 11
422.5000000000013
 21
322.4999999999972
 31
0.0
  0
LINE
  5
9D4
330
1F
100
AcDbEntity
  8
DETAIL
100
AcDbLine
 10
-401.4999999999986
 20
342.5000000000009
 30
0.0
 11
401.5000000000013
 21
342.4999999999977
 31
0.0
  0
LINE
  5
9D5
330
1F
100
AcDbEntity
  8
DETAIL
100
AcDbLine
 10
401.5000000000013
 20
322.4999999999977
 30
0.0
 11
401.5000000000013
 21
342.4999999999977
 31
0.0
  0
LINE
  5
9D6
330
1F
100
AcDbEntity
  8
DETAIL
100
AcDbLine
 10
-401.4999999999986
 20
322.5000000000008
 30
0.0
 11
-401.4999999999986
 21
342.5000000000009
 31
0.0
  0
LINE
  5
9D7
330
1F
100
AcDbEntity
  8
DETAIL
100
AcDbLine
 10
-474.0999999998071
 20
-273.0000000002005
 30
0.0
 11
-474.0999999998061
 21
-261.0000000001059
 31
0.0
  0
LINE
  5
9D8
330
1F
100
AcDbEntity
  8
DETAIL
100
AcDbLine
 10
-422.5000000000013
 20
-280.4999999995552
 30
0.0
 11
-464.5289321879077
 21
-280.500000000708
 31
0.0
  0
LINE
  5
9D9
330
1F
100
AcDbEntity
  8
DETAIL
100
AcDbLine
 10
-468.0644660940028
 20
-279.0355339059974
 30
0.0
 11
-474.0999999998071
 21
-273.0000000002005
 31
0.0
  0
ARC
  5
9DA
330
1F
100
AcDbEntity
  8
DETAIL
100
AcDbCircle
 10
-464.5289321879077
 20
-275.5000000006079
 30
0.0
 40
5.0000000001
100
AcDbArc
 50
224.9999999999997
 51
269.9999999999997
  0
ARC
  5
9DB
330
1F
100
AcDbEntity
  8
DETAIL
100
AcDbCircle
 10
-454.8000000001052
 20
-264.5000000001059
 30
0.0
 40
5.999999999699999
100
AcDbArc
 50
179.9999999999997
 51
359.9999999999997
  0
LINE
  5
9DC
330
1F
100
AcDbEntity
  8
DETAIL
100
AcDbLine
 10
-460.7999999998087
 20
-261.0000000001059
 30
0.0
 11
-460.7999999998087
 21
-264.5000000001059
 31
0.0
  0
LINE
  5
9DD
330
1F
100
AcDbEntity
  8
DETAIL
100
AcDbLine
 10
-460.7999999998087
 20
-261.0000000001059
 30
0.0
 11
-474.0999999998061
 21
-261.0000000001059
 31
0.0
  0
LINE
  5
9DE
330
1F
100
AcDbEntity
  8
DETAIL
100
AcDbLine
 10
-474.0999999998061
 20
-237.9999999998003
 30
0.0
 11
-474.0999999998061
 21
-249.9999999998949
 31
0.0
  0
LINE
  5
9DF
330
1F
100
AcDbEntity
  8
DETAIL
100
AcDbLine
 10
-422.5000000000004
 20
-230.5000000004465
 30
0.0
 11
-464.5289321879068
 21
-230.4999999992928
 31
0.0
  0
LINE
  5
9E0
330
1F
100
AcDbEntity
  8
DETAIL
100
AcDbLine
 10
-468.064466094002
 20
-231.9644660940034
 30
0.0
 11
-474.0999999998061
 21
-237.9999999998003
 31
0.0
  0
ARC
  5
9E1
330
1F
100
AcDbEntity
  8
DETAIL
100
AcDbCircle
 10
-464.5289321879068
 20
-235.4999999993929
 30
0.0
 40
5.0000000001
100
AcDbArc
 50
89.99999999999976
 51
134.9999999999997
  0
ARC
  5
9E2
330
1F
100
AcDbEntity
  8
DETAIL
100
AcDbCircle
 10
-454.8000000001052
 20
-246.4999999998949
 30
0.0
 40
5.999999999699999
100
AcDbArc
 50
359.9999999999997
 51
179.9999999999997
  0
LINE
  5
9E3
330
1F
100
AcDbEntity
  8
DETAIL
100
AcDbLine
 10
-460.7999999998087
 20
-249.9999999998949
 30
0.0
 11
-460.7999999998087
 21
-246.4999999998949
 31
0.0
  0
LINE
  5
9E4
330
1F
100
AcDbEntity
  8
DETAIL
100
AcDbLine
 10
-460.7999999998087
 20
-249.9999999998949
 30
0.0
 11
-474.0999999998061
 21
-249.9999999998949
 31
0.0
  0
LINE
  5
9E5
330
1F
100
AcDbEntity
  8
DETAIL
100
AcDbLine
 10
-448.8000000004071
 20
-264.5000000001059
 30
0.0
 11
-448.8000000004071
 21
-246.4999999998949
 31
0.0
  0
LINE
  5
9E6
330
1F
100
AcDbEntity
  8
BASIS
100
AcDbLine
 10
-491.0000000000004
 20
-255.4999999999986
 30
0.0
 11
-419.0000000000004
 21
-255.499999999999
 31
0.0
  0
CIRCLE
  5
9E7
330
1F
100
AcDbEntity
  8
FIX
100
AcDbCircle
 10
-455.0000000000004
 20
-255.4999999999986
 30
0.0
 40
20.0
  0
LINE
  5
9E8
330
1F
100
AcDbEntity
  8
BASIS
100
AcDbLine
 10
-455.0000000000004
 20
-219.4999999999986
 30
0.0
 11
-455.0000000000014
 21
-291.4999999999986
 31
0.0
  0
LINE
  5
9E9
330
1F
100
AcDbEntity
  8
DETAIL
100
AcDbLine
 10
474.0999999998089
 20
-273.0000000002046
 30
0.0
 11
474.0999999998089
 21
-261.00000000011
 31
0.0
  0
LINE
  5
9EA
330
1F
100
AcDbEntity
  8
DETAIL
100
AcDbLine
 10
422.5000000000031
 20
-280.4999999995589
 30
0.0
 11
464.5289321879058
 21
-280.5000000007121
 31
0.0
  0
LINE
  5
9EB
330
1F
100
AcDbEntity
  8
DETAIL
100
AcDbLine
 10
468.0644660940011
 20
-279.0355339060015
 30
0.0
 11
474.0999999998089
 21
-273.0000000002046
 31
0.0
  0
ARC
  5
9EC
330
1F
100
AcDbEntity
  8
DETAIL
100
AcDbCircle
 10
464.5289321879058
 20
-275.500000000612
 30
0.0
 40
5.0000000001
100
AcDbArc
 50
269.9999999999997
 51
314.9999999999997
  0
ARC
  5
9ED
330
1F
100
AcDbEntity
  8
DETAIL
100
AcDbCircle
 10
454.800000000108
 20
-264.50000000011
 30
0.0
 40
5.999999999699999
100
AcDbArc
 50
179.9999999999997
 51
359.9999999999997
  0
LINE
  5
9EE
330
1F
100
AcDbEntity
  8
DETAIL
100
AcDbLine
 10
460.7999999998096
 20
-261.00000000011
 30
0.0
 11
460.7999999998096
 21
-264.50000000011
 31
0.0
  0
LINE
  5
9EF
330
1F
100
AcDbEntity
  8
DETAIL
100
AcDbLine
 10
460.7999999998096
 20
-261.00000000011
 30
0.0
 11
474.0999999998089
 21
-261.00000000011
 31
0.0
  0
LINE
  5
9F0
330
1F
100
AcDbEntity
  8
DETAIL
100
AcDbLine
 10
474.0999999998089
 20
-237.9999999998044
 30
0.0
 11
474.0999999998089
 21
-249.999999999899
 31
0.0
  0
LINE
  5
9F1
330
1F
100
AcDbEntity
  8
DETAIL
100
AcDbLine
 10
422.5000000000031
 20
-230.5000000004501
 30
0.0
 11
464.5289321879058
 21
-230.4999999992969
 31
0.0
  0
LINE
  5
9F2
330
1F
100
AcDbEntity
  8
DETAIL
100
AcDbLine
 10
468.0644660940011
 20
-231.9644660940075
 30
0.0
 11
474.0999999998089
 21
-237.9999999998044
 31
0.0
  0
ARC
  5
9F3
330
1F
100
AcDbEntity
  8
DETAIL
100
AcDbCircle
 10
464.5289321879058
 20
-235.499999999397
 30
0.0
 40
5.0000000001
100
AcDbArc
 50
44.99999999999977
 51
89.99999999999976
  0
ARC
  5
9F4
330
1F
100
AcDbEntity
  8
DETAIL
100
AcDbCircle
 10
454.800000000108
 20
-246.499999999899
 30
0.0
 40
5.999999999699999
100
AcDbArc
 50
359.9999999999997
 51
179.9999999999997
  0
LINE
  5
9F5
330
1F
100
AcDbEntity
  8
DETAIL
100
AcDbLine
 10
460.7999999998096
 20
-249.999999999899
 30
0.0
 11
460.7999999998096
 21
-246.499999999899
 31
0.0
  0
LINE
  5
9F6
330
1F
100
AcDbEntity
  8
DETAIL
100
AcDbLine
 10
460.7999999998096
 20
-249.999999999899
 30
0.0
 11
474.0999999998089
 21
-249.999999999899
 31
0.0
  0
LINE
  5
9F7
330
1F
100
AcDbEntity
  8
DETAIL
100
AcDbLine
 10
448.8000000004062
 20
-264.50000000011
 30
0.0
 11
448.8000000004062
 21
-246.499999999899
 31
0.0
  0
LINE
  5
9F8
330
1F
100
AcDbEntity
  8
BASIS
100
AcDbLine
 10
490.9999999999995
 20
-255.5000000000027
 30
0.0
 11
418.9999999999995
 21
-255.5000000000027
 31
0.0
  0
CIRCLE
  5
9F9
330
1F
100
AcDbEntity
  8
FIX
100
AcDbCircle
 10
454.9999999999995
 20
-255.5000000000027
 30
0.0
 40
20.0
  0
LINE
  5
9FA
330
1F
100
AcDbEntity
  8
BASIS
100
AcDbLine
 10
454.9999999999995
 20
-219.5000000000027
 30
0.0
 11
454.9999999999995
 21
-291.5000000000027
 31
0.0
  0
LINE
  5
9FB
330
1F
100
AcDbEntity
  8
DETAIL
100
AcDbLine
 10
-474.0999999998043
 20
273.0000000002032
 30
0.0
 11
-474.0999999998043
 21
261.0000000001087
 31
0.0
  0
LINE
  5
9FC
330
1F
100
AcDbEntity
  8
DETAIL
100
AcDbLine
 10
-422.4999999999986
 20
280.499999999557
 30
0.0
 11
-464.5289321879049
 21
280.5000000007107
 31
0.0
  0
LINE
  5
9FD
330
1F
100
AcDbEntity
  8
DETAIL
100
AcDbLine
 10
-468.0644660940002
 20
279.0355339060001
 30
0.0
 11
-474.0999999998043
 21
273.0000000002032
 31
0.0
  0
ARC
  5
9FE
330
1F
100
AcDbEntity
  8
DETAIL
100
AcDbCircle
 10
-464.5289321879049
 20
275.5000000006107
 30
0.0
 40
5.0000000001
100
AcDbArc
 50
89.99999999999976
 51
134.9999999999997
  0
ARC
  5
9FF
330
1F
100
AcDbEntity
  8
DETAIL
100
AcDbCircle
 10
-454.8000000001033
 20
264.5000000001086
 30
0.0
 40
5.999999999699999
100
AcDbArc
 50
359.9999999999997
 51
179.9999999999997
  0
LINE
  5
A00
330
1F
100
AcDbEntity
  8
DETAIL
100
AcDbLine
 10
-460.7999999998069
 20
261.0000000001087
 30
0.0
 11
-460.7999999998069
 21
264.5000000001086
 31
0.0
  0
LINE
  5
A01
330
1F
100
AcDbEntity
  8
DETAIL
100
AcDbLine
 10
-460.7999999998069
 20
261.0000000001087
 30
0.0
 11
-474.0999999998043
 21
261.0000000001087
 31
0.0
  0
LINE
  5
A02
330
1F
100
AcDbEntity
  8
DETAIL
100
AcDbLine
 10
-474.0999999998043
 20
237.999999999803
 30
0.0
 11
-474.0999999998043
 21
249.9999999998976
 31
0.0
  0
LINE
  5
A03
330
1F
100
AcDbEntity
  8
DETAIL
100
AcDbLine
 10
-422.4999999999986
 20
230.5000000004483
 30
0.0
 11
-464.5289321879049
 21
230.4999999992956
 31
0.0
  0
LINE
  5
A04
330
1F
100
AcDbEntity
  8
DETAIL
100
AcDbLine
 10
-468.0644660940002
 20
231.9644660940062
 30
0.0
 11
-474.0999999998043
 21
237.999999999803
 31
0.0
  0
ARC
  5
A05
330
1F
100
AcDbEntity
  8
DETAIL
100
AcDbCircle
 10
-464.5289321879049
 20
235.4999999993956
 30
0.0
 40
5.0000000001
100
AcDbArc
 50
224.9999999999997
 51
269.9999999999997
  0
ARC
  5
A06
330
1F
100
AcDbEntity
  8
DETAIL
100
AcDbCircle
 10
-454.8000000001033
 20
246.4999999998976
 30
0.0
 40
5.999999999699999
100
AcDbArc
 50
179.9999999999997
 51
359.9999999999997
  0
LINE
  5
A07
330
1F
100
AcDbEntity
  8
DETAIL
100
AcDbLine
 10
-460.7999999998069
 20
249.9999999998976
 30
0.0
 11
-460.7999999998069
 21
246.4999999998976
 31
0.0
  0
LINE
  5
A08
330
1F
100
AcDbEntity
  8
DETAIL
100
AcDbLine
 10
-460.7999999998069
 20
249.9999999998976
 30
0.0
 11
-474.0999999998043
 21
249.9999999998976
 31
0.0
  0
LINE
  5
A09
330
1F
100
AcDbEntity
  8
DETAIL
100
AcDbLine
 10
-448.8000000004054
 20
264.5000000001086
 30
0.0
 11
-448.8000000004054
 21
246.4999999998976
 31
0.0
  0
LINE
  5
A0A
330
1F
100
AcDbEntity
  8
BASIS
100
AcDbLine
 10
-490.9999999999986
 20
255.5000000000013
 30
0.0
 11
-418.9999999999986
 21
255.5000000000009
 31
0.0
  0
CIRCLE
  5
A0B
330
1F
100
AcDbEntity
  8
FIX
100
AcDbCircle
 10
-454.9999999999986
 20
255.5000000000013
 30
0.0
 40
20.0
  0
LINE
  5
A0C
330
1F
100
AcDbEntity
  8
BASIS
100
AcDbLine
 10
-454.9999999999986
 20
219.5000000000013
 30
0.0
 11
-454.9999999999986
 21
291.5000000000013
 31
0.0
  0
LINE
  5
A0D
330
1F
100
AcDbEntity
  8
DETAIL
100
AcDbLine
 10
474.0999999998107
 20
273.0000000001991
 30
0.0
 11
474.0999999998107
 21
261.0000000001046
 31
0.0
  0
LINE
  5
A0E
330
1F
100
AcDbEntity
  8
DETAIL
100
AcDbLine
 10
422.500000000005
 20
280.4999999995534
 30
0.0
 11
464.5289321879077
 21
280.5000000007066
 31
0.0
  0
LINE
  5
A0F
330
1F
100
AcDbEntity
  8
DETAIL
100
AcDbLine
 10
468.0644660940028
 20
279.035533905996
 30
0.0
 11
474.0999999998107
 21
273.0000000001991
 31
0.0
  0
ARC
  5
A10
330
1F
100
AcDbEntity
  8
DETAIL
100
AcDbCircle
 10
464.5289321879077
 20
275.5000000006066
 30
0.0
 40
5.0000000001
100
AcDbArc
 50
44.99999999999977
 51
89.99999999999976
  0
ARC
  5
A11
330
1F
100
AcDbEntity
  8
DETAIL
100
AcDbCircle
 10
454.8000000001097
 20
264.5000000001045
 30
0.0
 40
5.999999999699999
100
AcDbArc
 50
359.9999999999997
 51
179.9999999999997
  0
LINE
  5
A12
330
1F
100
AcDbEntity
  8
DETAIL
100
AcDbLine
 10
460.7999999998114
 20
261.0000000001046
 30
0.0
 11
460.7999999998114
 21
264.5000000001045
 31
0.0
  0
LINE
  5
A13
330
1F
100
AcDbEntity
  8
DETAIL
100
AcDbLine
 10
460.7999999998114
 20
261.0000000001046
 30
0.0
 11
474.0999999998107
 21
261.0000000001046
 31
0.0
  0
LINE
  5
A14
330
1F
100
AcDbEntity
  8
DETAIL
100
AcDbLine
 10
474.0999999998107
 20
237.9999999997989
 30
0.0
 11
474.0999999998107
 21
249.9999999998935
 31
0.0
  0
LINE
  5
A15
330
1F
100
AcDbEntity
  8
DETAIL
100
AcDbLine
 10
422.500000000005
 20
230.5000000004447
 30
0.0
 11
464.5289321879077
 21
230.4999999992915
 31
0.0
  0
LINE
  5
A16
330
1F
100
AcDbEntity
  8
DETAIL
100
AcDbLine
 10
468.0644660940028
 20
231.964466094002
 30
0.0
 11
474.0999999998107
 21
237.9999999997989
 31
0.0
  0
ARC
  5
A17
330
1F
100
AcDbEntity
  8
DETAIL
100
AcDbCircle
 10
464.5289321879077
 20
235.4999999993915
 30
0.0
 40
5.0000000001
100
AcDbArc
 50
269.9999999999997
 51
314.9999999999997
  0
ARC
  5
A18
330
1F
100
AcDbEntity
  8
DETAIL
100
AcDbCircle
 10
454.8000000001097
 20
246.4999999998935
 30
0.0
 40
5.999999999699999
100
AcDbArc
 50
179.9999999999997
 51
359.9999999999997
  0
LINE
  5
A19
330
1F
100
AcDbEntity
  8
DETAIL
100
AcDbLine
 10
460.7999999998114
 20
249.9999999998935
 30
0.0
 11
460.7999999998114
 21
246.4999999998935
 31
0.0
  0
LINE
  5
A1A
330
1F
100
AcDbEntity
  8
DETAIL
100
AcDbLine
 10
460.7999999998114
 20
249.9999999998935
 30
0.0
 11
474.0999999998107
 21
249.9999999998935
 31
0.0
  0
LINE
  5
A1B
330
1F
100
AcDbEntity
  8
DETAIL
100
AcDbLine
 10
448.800000000408
 20
264.5000000001045
 30
0.0
 11
448.800000000408
 21
246.4999999998935
 31
0.0
  0
LINE
  5
A1C
330
1F
100
AcDbEntity
  8
BASIS
100
AcDbLine
 10
491.0000000000013
 20
255.4999999999972
 30
0.0
 11
419.0000000000013
 21
255.4999999999972
 31
0.0
  0
CIRCLE
  5
A1D
330
1F
100
AcDbEntity
  8
FIX
100
AcDbCircle
 10
455.0000000000014
 20
255.4999999999972
 30
0.0
 40
20.0
  0
LINE
  5
A1E
330
1F
100
AcDbEntity
  8
BASIS
100
AcDbLine
 10
455.0000000000014
 20
219.4999999999972
 30
0.0
 11
455.0000000000014
 21
291.4999999999972
 31
0.0
  0
LINE
  5
A1F
330
1F
100
AcDbEntity
  8
DETAIL
100
AcDbLine
 10
-453.1999999999056
 20
53.99999999990132
 30
0.0
 11
-453.1999999999056
 21
19.0000000001014
 31
0.0
  0
LINE
  5
A20
330
1F
100
AcDbEntity
  8
DETAIL
100
AcDbLine
 10
-463.2000000001057
 20
53.99999999990132
 30
0.0
 11
-463.2000000001057
 21
19.0000000001014
 31
0.0
  0
LINE
  5
A21
330
1F
100
AcDbEntity
  8
DETAIL
100
AcDbLine
 10
-453.1999999999056
 20
53.99999999990132
 30
0.0
 11
-463.2000000001057
 21
53.99999999990132
 31
0.0
  0
LINE
  5
A22
330
1F
100
AcDbEntity
  8
DETAIL
100
AcDbLine
 10
-463.2000000001057
 20
19.0000000001014
 30
0.0
 11
-453.1999999999056
 21
19.0000000001014
 31
0.0
  0
LINE
  5
A23
330
1F
100
AcDbEntity
  8
BASIS
100
AcDbLine
 10
-473.2000000001058
 20
36.50000000000273
 30
0.0
 11
-405.8394929743803
 21
36.5000000000009
 31
0.0
  0
LINE
  5
A24
330
1F
100
AcDbEntity
  8
DETAIL
100
AcDbLine
 10
-453.1999999999056
 20
24.00000000000136
 30
0.0
 11
-422.4999999999995
 21
24.0000000000009
 31
0.0
  0
LINE
  5
A25
330
1F
100
AcDbEntity
  8
DETAIL
100
AcDbLine
 10
-453.1999999999056
 20
49.00000000000137
 30
0.0
 11
-422.4999999999995
 21
49.0000000000009
 31
0.0
  0
LINE
  5
A26
330
1F
100
AcDbEntity
  8
DETAIL
100
AcDbLine
 10
454.9400000001055
 20
88.50562527579768
 30
0.0
 11
440.9400000001055
 21
88.50562527579768
 31
0.0
  0
LINE
  5
A27
330
1F
100
AcDbEntity
  8
DETAIL
100
AcDbLine
 10
440.9400000001055
 20
88.50562527579768
 30
0.0
 11
440.9400000001055
 21
110.4943747241986
 31
0.0
  0
LINE
  5
A28
330
1F
100
AcDbEntity
  8
DETAIL
100
AcDbLine
 10
440.9400000001055
 20
91.56562527549885
 30
0.0
 11
422.5000000000013
 21
91.56562527549885
 31
0.0
  0
LINE
  5
A29
330
1F
100
AcDbEntity
  8
DETAIL
100
AcDbLine
 10
462.9400000004075
 20
86.00562527539386
 30
0.0
 11
462.9400000004148
 21
112.9943747246024
 31
0.0
  0
LINE
  5
A2A
330
1F
100
AcDbEntity
  8
DETAIL
100
AcDbLine
 10
462.9400000004075
 20
86.00562527539386
 30
0.0
 11
454.9400000001055
 21
86.00562527539569
 31
0.0
  0
LINE
  5
A2B
330
1F
100
AcDbEntity
  8
DETAIL
100
AcDbLine
 10
454.9400000001091
 20
112.9943747246006
 30
0.0
 11
454.9400000001055
 21
86.00562527539569
 31
0.0
  0
LINE
  5
A2C
330
1F
100
AcDbEntity
  8
DETAIL
100
AcDbLine
 10
467.9399999998072
 20
85.5056252755976
 30
0.0
 11
467.9399999998072
 21
113.4943747243933
 31
0.0
  0
LINE
  5
A2D
330
1F
100
AcDbEntity
  8
DETAIL
100
AcDbLine
 10
468.1222716866045
 20
85.00562527579768
 30
0.0
 11
467.9399999998072
 21
85.5056252755976
 31
0.0
  0
LINE
  5
A2E
330
1F
100
AcDbEntity
  8
DETAIL
100
AcDbLine
 10
493.9399999999054
 20
87.00562527569763
 30
0.0
 11
493.9399999999054
 21
111.9943747242987
 31
0.0
  0
LINE
  5
A2F
330
1F
100
AcDbEntity
  8
DETAIL
100
AcDbLine
 10
468.1222716866045
 20
85.00562527579768
 30
0.0
 11
489.7486580885101
 21
85.00562527579768
 31
0.0
  0
LINE
  5
A30
330
1F
100
AcDbEntity
  8
DETAIL
100
AcDbLine
 10
493.9399999999054
 20
87.00562527569763
 30
0.0
 11
489.7486580885101
 21
85.00562527579768
 31
0.0
  0
LINE
  5
A31
330
1F
100
AcDbEntity
  8
BASIS
100
AcDbLine
 10
412.0955308556236
 20
99.49999999999727
 30
0.0
 11
503.9399999999054
 21
99.49999999999727
 31
0.0
  0
LINE
  5
A32
330
1F
100
AcDbEntity
  8
DETAIL
100
AcDbLine
 10
489.7486580885101
 20
85.00562527579768
 30
0.0
 11
489.7486580885101
 21
113.994374724195
 31
0.0
  0
LINE
  5
A33
330
1F
100
AcDbEntity
  8
DETAIL
100
AcDbLine
 10
454.9400000001055
 20
110.4943747241968
 30
0.0
 11
440.9400000001055
 21
110.4943747241986
 31
0.0
  0
LINE
  5
A34
330
1F
100
AcDbEntity
  8
DETAIL
100
AcDbLine
 10
440.9400000001055
 20
107.4343747244956
 30
0.0
 11
422.5000000000013
 21
107.4343747244956
 31
0.0
  0
LINE
  5
A35
330
1F
100
AcDbEntity
  8
DETAIL
100
AcDbLine
 10
462.9400000004148
 20
112.9943747246024
 30
0.0
 11
454.9400000001091
 21
112.9943747246006
 31
0.0
  0
LINE
  5
A36
330
1F
100
AcDbEntity
  8
DETAIL
100
AcDbLine
 10
468.1222716866045
 20
113.9943747241968
 30
0.0
 11
489.7486580885101
 21
113.9943747241968
 31
0.0
  0
LINE
  5
A37
330
1F
100
AcDbEntity
  8
DETAIL
100
AcDbLine
 10
493.9399999999054
 20
111.9943747242987
 30
0.0
 11
489.7486580885101
 21
113.9943747241968
 31
0.0
  0
LINE
  5
A38
330
1F
100
AcDbEntity
  8
DETAIL
100
AcDbLine
 10
458.5000000003069
 20
171.4559168710957
 30
0.0
 11
449.5000000004088
 21
171.4559168710939
 31
0.0
  0
LINE
  5
A39
330
1F
100
AcDbEntity
  8
DETAIL
100
AcDbLine
 10
458.5000000003069
 20
171.4559168710957
 30
0.0
 11
458.5000000003069
 21
187.5440831288988
 31
0.0
  0
LINE
  5
A3A
330
1F
100
AcDbEntity
  8
DETAIL
100
AcDbLine
 10
449.5000000004088
 20
171.4559168710939
 30
0.0
 11
449.5000000004088
 21
187.5440831289024
 31
0.0
  0
LINE
  5
A3B
330
1F
100
AcDbEntity
  8
DETAIL
100
AcDbLine
 10
462.3035269457045
 20
169.6878024180978
 30
0.0
 11
475.4980648053765
 21
169.6878024180978
 31
0.0
  0
LINE
  5
A3C
330
1F
100
AcDbEntity
  8
DETAIL
100
AcDbLine
 10
461.4000000004066
 20
171.2499999997935
 30
0.0
 11
461.4000000004066
 21
172.4550620887976
 31
0.0
  0
LINE
  5
A3D
330
1F
100
AcDbEntity
  8
DETAIL
100
AcDbLine
 10
461.4000000004066
 20
172.4550620887976
 30
0.0
 11
461.4000000004066
 21
187.7500000001955
 31
0.0
  0
LINE
  5
A3E
330
1F
100
AcDbEntity
  8
DETAIL
100
AcDbLine
 10
462.2420058574075
 20
169.8145785087972
 30
0.0
 11
462.3035269457045
 21
169.6878024180978
 31
0.0
  0
LINE
  5
A3F
330
1F
100
AcDbEntity
  8
DETAIL
100
AcDbLine
 10
461.4000000004066
 20
174.9000000002934
 30
0.0
 11
458.5000000003069
 21
174.9000000002934
 31
0.0
  0
LINE
  5
A40
330
1F
100
AcDbEntity
  8
DETAIL
100
AcDbLine
 10
462.2320572026088
 20
169.8088346503945
 30
0.0
 11
461.4000000004066
 21
171.2499999997935
 31
0.0
  0
LINE
  5
A41
330
1F
100
AcDbEntity
  8
DETAIL
100
AcDbLine
 10
476.4000000000028
 20
171.2499999997935
 30
0.0
 11
476.4000000000028
 21
187.750000000201
 31
0.0
  0
LINE
  5
A42
330
1F
100
AcDbEntity
  8
DETAIL
100
AcDbLine
 10
476.4000000000028
 20
171.2499999997935
 30
0.0
 11
475.4980648053765
 21
169.6878024180978
 31
0.0
  0
LINE
  5
A43
330
1F
100
AcDbEntity
  8
BASIS
100
AcDbLine
 10
412.0955308556236
 20
179.4999999999972
 30
0.0
 11
486.4000000000028
 21
179.4999999999972
 31
0.0
  0
LINE
  5
A44
330
1F
100
AcDbEntity
  8
DETAIL
100
AcDbLine
 10
449.5000000004088
 20
184.250000000201
 30
0.0
 11
422.5000000000013
 21
184.250000000201
 31
0.0
  0
LINE
  5
A45
330
1F
100
AcDbEntity
  8
DETAIL
100
AcDbLine
 10
458.5000000003069
 20
187.5440831288988
 30
0.0
 11
449.5000000004088
 21
187.5440831289024
 31
0.0
  0
LINE
  5
A46
330
1F
100
AcDbEntity
  8
DETAIL
100
AcDbLine
 10
462.3035269457045
 20
189.3121975818967
 30
0.0
 11
475.4980648053765
 21
189.3121975818967
 31
0.0
  0
LINE
  5
A47
330
1F
100
AcDbEntity
  8
DETAIL
100
AcDbLine
 10
461.4000000004066
 20
187.750000000201
 30
0.0
 11
461.4000000004066
 21
186.5449379111969
 31
0.0
  0
LINE
  5
A48
330
1F
100
AcDbEntity
  8
DETAIL
100
AcDbLine
 10
462.2420058574075
 20
189.1854214911973
 30
0.0
 11
462.3035269457045
 21
189.3121975818967
 31
0.0
  0
LINE
  5
A49
330
1F
100
AcDbEntity
  8
DETAIL
100
AcDbLine
 10
461.4000000004066
 20
184.0999999997011
 30
0.0
 11
458.5000000003069
 21
184.0999999997011
 31
0.0
  0
LINE
  5
A4A
330
1F
100
AcDbEntity
  8
DETAIL
100
AcDbLine
 10
462.2320572026088
 20
189.1911653495999
 30
0.0
 11
461.4000000004066
 21
187.750000000201
 31
0.0
  0
LINE
  5
A4B
330
1F
100
AcDbEntity
  8
DETAIL
100
AcDbLine
 10
476.4000000000028
 20
187.750000000201
 30
0.0
 11
475.4980648053765
 21
189.3121975818967
 31
0.0
  0
LINE
  5
A4C
330
1F
100
AcDbEntity
  8
DETAIL
100
AcDbLine
 10
449.5000000004088
 20
174.7499999997935
 30
0.0
 11
422.5000000000013
 21
174.7499999997935
 31
0.0
  0
LINE
  5
A4D
330
1F
100
AcDbEntity
  8
DETAIL
100
AcDbLine
 10
468.1222716866045
 20
113.9943747241968
 30
0.0
 11
467.9399999998072
 21
113.4943747243933
 31
0.0
  0
LINE
  5
A4E
330
1F
100
AcDbEntity
  8
DETAIL
100
AcDbLine
 10
462.9400000004075
 20
89.99999999999728
 30
0.0
 11
467.9399999998072
 21
89.99999999999728
 31
0.0
  0
LINE
  5
A4F
330
1F
100
AcDbEntity
  8
DETAIL
100
AcDbLine
 10
462.9400000004111
 20
108.999999999999
 30
0.0
 11
467.9399999998072
 21
108.9999999999972
 31
0.0
  0
LINE
  5
A50
330
1F
100
AcDbEntity
  8
DETAIL
100
AcDbLine
 10
466.4999999999049
 20
35.50000000011005
 30
0.0
 11
466.4999999999067
 21
63.49999999987904
 31
0.0
  0
LINE
  5
A51
330
1F
100
AcDbEntity
  8
DETAIL
100
AcDbLine
 10
424.4999999995975
 20
65.50000000024647
 30
0.0
 11
462.5000000001032
 21
65.50000000024647
 31
0.0
  0
LINE
  5
A52
330
1F
100
AcDbEntity
  8
DETAIL
100
AcDbLine
 10
462.5000000001032
 20
65.50000000024647
 30
0.0
 11
466.4999999999067
 21
63.49999999987904
 31
0.0
  0
LINE
  5
A53
330
1F
100
AcDbEntity
  8
DETAIL
100
AcDbLine
 10
466.4999999999049
 20
35.50000000011005
 30
0.0
 11
463.2000000001057
 21
33.84999999982665
 31
0.0
  0
LINE
  5
A54
330
1F
100
AcDbEntity
  8
DETAIL
100
AcDbLine
 10
462.5000000001032
 20
65.50000000024647
 30
0.0
 11
462.5000000001032
 21
53.99999999989723
 31
0.0
  0
LINE
  5
A55
330
1F
100
AcDbEntity
  8
DETAIL
100
AcDbLine
 10
453.1999999999075
 20
53.99999999989723
 30
0.0
 11
453.1999999999056
 21
19.00000000009731
 31
0.0
  0
LINE
  5
A56
330
1F
100
AcDbEntity
  8
DETAIL
100
AcDbLine
 10
463.2000000001076
 20
53.99999999989723
 30
0.0
 11
463.2000000001057
 21
19.00000000009731
 31
0.0
  0
LINE
  5
A57
330
1F
100
AcDbEntity
  8
DETAIL
100
AcDbLine
 10
453.1999999999075
 20
53.99999999989723
 30
0.0
 11
463.2000000001076
 21
53.99999999989723
 31
0.0
  0
LINE
  5
A58
330
1F
100
AcDbEntity
  8
DETAIL
100
AcDbLine
 10
463.2000000001057
 20
19.00000000009731
 30
0.0
 11
453.1999999999056
 21
19.00000000009731
 31
0.0
  0
LINE
  5
A59
330
1F
100
AcDbEntity
  8
BASIS
100
AcDbLine
 10
476.4999999999049
 20
36.49999999999863
 30
0.0
 11
405.8394929743813
 21
36.49999999999727
 31
0.0
  0
LINE
  5
A5A
330
1F
100
AcDbEntity
  8
DETAIL
100
AcDbLine
 10
453.1999999999056
 20
23.99999999999727
 30
0.0
 11
422.4999999999995
 21
23.99999999999727
 31
0.0
  0
LINE
  5
A5B
330
1F
100
AcDbEntity
  8
DETAIL
100
AcDbLine
 10
453.1999999999075
 20
48.99999999999727
 30
0.0
 11
422.5000000000013
 21
48.99999999999727
 31
0.0
  0
LINE
  5
A5C
330
1F
100
AcDbEntity
  8
DETAIL
100
AcDbLine
 10
-422.4999999999986
 20
222.5000000000008
 30
0.0
 11
422.5000000000013
 21
222.4999999999972
 31
0.0
  0
LINE
  5
A5D
330
1F
100
AcDbEntity
  8
DETAIL
100
AcDbLine
 10
402.4999999999968
 20
-34.499999999995
 30
0.0
 11
402.4999999999959
 21
-202.499999999995
 31
0.0
  0
LINE
  5
A5E
330
1F
100
AcDbEntity
  8
DETAIL
100
AcDbLine
 10
-402.5000000000032
 20
-34.49999999999909
 30
0.0
 11
-402.5000000000004
 21
-202.4999999999972
 31
0.0
  0
LINE
  5
A5F
330
1F
100
AcDbEntity
  8
DETAIL
100
AcDbLine
 10
422.4999999999995
 20
-202.4999999999954
 30
0.0
 11
-422.5000000000041
 21
-202.4999999999954
 31
0.0
  0
LINE
  5
A60
330
1F
100
AcDbEntity
  8
DETAIL
100
AcDbLine
 10
402.4999999999968
 20
-34.499999999995
 30
0.0
 11
-402.5000000000032
 21
-34.49999999999909
 31
0.0
  0
LINE
  5
A61
330
1F
100
AcDbEntity
  8
DETAIL
100
AcDbLine
 10
422.4999999999995
 20
-15.49999999999545
 30
0.0
 11
-422.5000000000031
 21
-15.49999999999909
 31
0.0
  0
LINE
  5
A62
330
1F
100
AcDbEntity
  8
DETAIL
100
AcDbLine
 10
-407.5000000000032
 20
-15.49999999999909
 30
0.0
 11
-407.5000000000032
 21
-29.50000000000091
 31
0.0
  0
LINE
  5
A63
330
1F
100
AcDbEntity
  8
DETAIL
100
AcDbLine
 10
-402.5000000000032
 20
-34.49999999999909
 30
0.0
 11
-407.5000000000032
 21
-29.50000000000091
 31
0.0
  0
LINE
  5
A64
330
1F
100
AcDbEntity
  8
DETAIL
100
AcDbLine
 10
407.4999999999895
 20
-15.49999999998999
 30
0.0
 11
407.4999999999895
 21
-29.49999999999181
 31
0.0
  0
LINE
  5
A65
330
1F
100
AcDbEntity
  8
DETAIL
100
AcDbLine
 10
402.4999999999895
 20
-34.49999999998954
 30
0.0
 11
407.4999999999895
 21
-29.49999999999181
 31
0.0
  0
LINE
  5
A66
330
1F
100
AcDbEntity
  8
OUTLINE
100
AcDbLine
 10
454.9400000001019
 20
-1382.005625275794
 30
0.0
 11
440.9400000001019
 21
-1382.005625275794
 31
0.0
  0
LINE
  5
A67
330
1F
100
AcDbEntity
  8
OUTLINE
100
AcDbLine
 10
440.9400000001019
 20
-1382.005625275794
 30
0.0
 11
440.9400000001037
 21
-1403.994374724195
 31
0.0
  0
LINE
  5
A68
330
1F
100
AcDbEntity
  8
OUTLINE
100
AcDbLine
 10
440.9400000001019
 20
-1385.065625275495
 30
0.0
 11
422.4999999999977
 21
-1385.065625275495
 31
0.0
  0
LINE
  5
A69
330
1F
100
AcDbEntity
  8
OUTLINE
100
AcDbLine
 10
462.9400000004038
 20
-1379.50562527539
 30
0.0
 11
462.9400000004129
 21
-1406.494374724599
 31
0.0
  0
LINE
  5
A6A
330
1F
100
AcDbEntity
  8
OUTLINE
100
AcDbLine
 10
462.9400000004038
 20
-1379.50562527539
 30
0.0
 11
454.9400000001019
 21
-1379.505625275392
 31
0.0
  0
LINE
  5
A6B
330
1F
100
AcDbEntity
  8
OUTLINE
100
AcDbLine
 10
454.9400000001074
 20
-1406.494374724597
 30
0.0
 11
454.9400000001019
 21
-1379.505625275392
 31
0.0
  0
LINE
  5
A6C
330
1F
100
AcDbEntity
  8
OUTLINE
100
AcDbLine
 10
467.9399999998036
 20
-1379.005625275594
 30
0.0
 11
467.9399999998054
 21
-1406.994374724389
 31
0.0
  0
LINE
  5
A6D
330
1F
100
AcDbEntity
  8
OUTLINE
100
AcDbLine
 10
468.1222716866009
 20
-1378.505625275794
 30
0.0
 11
467.9399999998036
 21
-1379.005625275594
 31
0.0
  0
LINE
  5
A6E
330
1F
100
AcDbEntity
  8
OUTLINE
100
AcDbLine
 10
493.9399999999018
 20
-1380.505625275694
 30
0.0
 11
493.9399999999036
 21
-1405.494374724295
 31
0.0
  0
LINE
  5
A6F
330
1F
100
AcDbEntity
  8
OUTLINE
100
AcDbLine
 10
468.1222716866009
 20
-1378.505625275794
 30
0.0
 11
489.7486580885065
 21
-1378.505625275794
 31
0.0
  0
LINE
  5
A70
330
1F
100
AcDbEntity
  8
OUTLINE
100
AcDbLine
 10
493.9399999999018
 20
-1380.505625275694
 30
0.0
 11
489.7486580885065
 21
-1378.505625275794
 31
0.0
  0
LINE
  5
A71
330
1F
100
AcDbEntity
  8
OUTLINE
100
AcDbLine
 10
454.9400000001037
 20
-1403.994374724193
 30
0.0
 11
440.9400000001037
 21
-1403.994374724195
 31
0.0
  0
LINE
  5
A72
330
1F
100
AcDbEntity
  8
OUTLINE
100
AcDbLine
 10
440.9400000001037
 20
-1400.934374724492
 30
0.0
 11
422.4999999999995
 21
-1400.934374724492
 31
0.0
  0
LINE
  5
A73
330
1F
100
AcDbEntity
  8
OUTLINE
100
AcDbLine
 10
462.9400000004129
 20
-1406.494374724599
 30
0.0
 11
454.9400000001074
 21
-1406.494374724597
 31
0.0
  0
LINE
  5
A74
330
1F
100
AcDbEntity
  8
OUTLINE
100
AcDbLine
 10
468.1222716866027
 20
-1407.494374724193
 30
0.0
 11
489.7486580885083
 21
-1407.494374724193
 31
0.0
  0
LINE
  5
A75
330
1F
100
AcDbEntity
  8
OUTLINE
100
AcDbLine
 10
493.9399999999036
 20
-1405.494374724295
 30
0.0
 11
489.7486580885083
 21
-1407.494374724193
 31
0.0
  0
LINE
  5
A76
330
1F
100
AcDbEntity
  8
OUTLINE
100
AcDbLine
 10
468.1222716866027
 20
-1407.494374724193
 30
0.0
 11
467.9399999998054
 21
-1406.994374724389
 31
0.0
  0
LINE
  5
A77
330
1F
100
AcDbEntity
  8
OUTLINE
100
AcDbLine
 10
462.9400000004038
 20
-1383.499999999993
 30
0.0
 11
467.9399999998036
 21
-1383.499999999993
 31
0.0
  0
LINE
  5
A78
330
1F
100
AcDbEntity
  8
OUTLINE
100
AcDbLine
 10
462.9400000004093
 20
-1402.499999999995
 30
0.0
 11
467.9399999998054
 21
-1402.499999999993
 31
0.0
  0
LINE
  5
A79
330
1F
100
AcDbEntity
  8
DETAIL
100
AcDbLine
 10
454.9400000001019
 20
-1382.005625275794
 30
0.0
 11
440.9400000001019
 21
-1382.005625275794
 31
0.0
  0
LINE
  5
A7A
330
1F
100
AcDbEntity
  8
DETAIL
100
AcDbLine
 10
440.9400000001019
 20
-1382.005625275794
 30
0.0
 11
440.9400000001037
 21
-1403.994374724195
 31
0.0
  0
LINE
  5
A7B
330
1F
100
AcDbEntity
  8
DETAIL
100
AcDbLine
 10
440.9400000001019
 20
-1385.065625275495
 30
0.0
 11
422.4999999999977
 21
-1385.065625275495
 31
0.0
  0
LINE
  5
A7C
330
1F
100
AcDbEntity
  8
DETAIL
100
AcDbLine
 10
462.9400000004038
 20
-1379.50562527539
 30
0.0
 11
462.9400000004129
 21
-1406.494374724599
 31
0.0
  0
LINE
  5
A7D
330
1F
100
AcDbEntity
  8
DETAIL
100
AcDbLine
 10
462.9400000004038
 20
-1379.50562527539
 30
0.0
 11
454.9400000001019
 21
-1379.505625275392
 31
0.0
  0
LINE
  5
A7E
330
1F
100
AcDbEntity
  8
DETAIL
100
AcDbLine
 10
454.9400000001074
 20
-1406.494374724597
 30
0.0
 11
454.9400000001019
 21
-1379.505625275392
 31
0.0
  0
LINE
  5
A7F
330
1F
100
AcDbEntity
  8
DETAIL
100
AcDbLine
 10
467.9399999998036
 20
-1379.005625275594
 30
0.0
 11
467.9399999998054
 21
-1406.994374724389
 31
0.0
  0
LINE
  5
A80
330
1F
100
AcDbEntity
  8
DETAIL
100
AcDbLine
 10
468.1222716866009
 20
-1378.505625275794
 30
0.0
 11
467.9399999998036
 21
-1379.005625275594
 31
0.0
  0
LINE
  5
A81
330
1F
100
AcDbEntity
  8
DETAIL
100
AcDbLine
 10
493.9399999999018
 20
-1380.505625275694
 30
0.0
 11
493.9399999999036
 21
-1405.494374724295
 31
0.0
  0
LINE
  5
A82
330
1F
100
AcDbEntity
  8
DETAIL
100
AcDbLine
 10
468.1222716866009
 20
-1378.505625275794
 30
0.0
 11
489.7486580885065
 21
-1378.505625275794
 31
0.0
  0
LINE
  5
A83
330
1F
100
AcDbEntity
  8
DETAIL
100
AcDbLine
 10
493.9399999999018
 20
-1380.505625275694
 30
0.0
 11
489.7486580885065
 21
-1378.505625275794
 31
0.0
  0
LINE
  5
A84
330
1F
100
AcDbEntity
  8
DETAIL
100
AcDbLine
 10
489.7486580885065
 20
-1378.505625275794
 30
0.0
 11
489.7486580885083
 21
-1407.494374724191
 31
0.0
  0
LINE
  5
A85
330
1F
100
AcDbEntity
  8
DETAIL
100
AcDbLine
 10
454.9400000001037
 20
-1403.994374724193
 30
0.0
 11
440.9400000001037
 21
-1403.994374724195
 31
0.0
  0
LINE
  5
A86
330
1F
100
AcDbEntity
  8
DETAIL
100
AcDbLine
 10
440.9400000001037
 20
-1400.934374724492
 30
0.0
 11
422.4999999999995
 21
-1400.934374724492
 31
0.0
  0
LINE
  5
A87
330
1F
100
AcDbEntity
  8
DETAIL
100
AcDbLine
 10
462.9400000004129
 20
-1406.494374724599
 30
0.0
 11
454.9400000001074
 21
-1406.494374724597
 31
0.0
  0
LINE
  5
A88
330
1F
100
AcDbEntity
  8
DETAIL
100
AcDbLine
 10
468.1222716866027
 20
-1407.494374724193
 30
0.0
 11
489.7486580885083
 21
-1407.494374724193
 31
0.0
  0
LINE
  5
A89
330
1F
100
AcDbEntity
  8
DETAIL
100
AcDbLine
 10
493.9399999999036
 20
-1405.494374724295
 30
0.0
 11
489.7486580885083
 21
-1407.494374724193
 31
0.0
  0
LINE
  5
A8A
330
1F
100
AcDbEntity
  8
DETAIL
100
AcDbLine
 10
468.1222716866027
 20
-1407.494374724193
 30
0.0
 11
467.9399999998054
 21
-1406.994374724389
 31
0.0
  0
LINE
  5
A8B
330
1F
100
AcDbEntity
  8
DETAIL
100
AcDbLine
 10
462.9400000004038
 20
-1383.499999999993
 30
0.0
 11
467.9399999998036
 21
-1383.499999999993
 31
0.0
  0
LINE
  5
A8C
330
1F
100
AcDbEntity
  8
DETAIL
100
AcDbLine
 10
462.9400000004093
 20
-1402.499999999995
 30
0.0
 11
467.9399999998054
 21
-1402.499999999993
 31
0.0
  0
LINE
  5
A91
330
1F
100
AcDbEntity
  8
SIZE
 48
40.0
100
AcDbLine
 10
-455.0000000000022
 20
-3449.374994562269
 30
0.0
 11
454.9999999999977
 21
-3449.374994562269
 31
0.0
  0
LINE
  5
A92
330
1F
100
AcDbEntity
  8
SIZE
 48
40.0
100
AcDbLine
 10
691.0050850801613
 20
-2677.500000000005
 30
0.0
 11
691.0050850801613
 21
-3322.500000000003
 31
0.0
  0
LINE
  5
A93
330
1F
100
AcDbEntity
  8
SIZE
 48
40.0
100
AcDbLine
 10
611.0050850801613
 20
-3322.500000000003
 30
0.0
 11
611.0050850801613
 21
-3255.500000000003
 31
0.0
  0
LINE
  5
A94
330
1F
100
AcDbEntity
  8
SIZE
 48
40.0
100
AcDbLine
 10
611.0050850801613
 20
-3255.500000000003
 30
0.0
 11
611.0050850801613
 21
-2744.500000000003
 31
0.0
  0
LINE
  5
A95
330
1F
100
AcDbEntity
  8
SIZE
 48
40.0
100
AcDbLine
 10
611.0050850801613
 20
-2744.500000000003
 30
0.0
 11
611.0050850801613
 21
-2677.500000000005
 31
0.0
  0
TEXT
  5
A96
330
1F
100
AcDbEntity
  8
NOTE
100
AcDbText
 10
1976.005225286108
 20
-2359.875582657138
 30
0.0
 40
40.0
  1
RAV-SM454SDT-E
  7
ARIAL
100
AcDbText
  0
TEXT
  5
A97
330
1F
100
AcDbEntity
  8
NOTE
100
AcDbText
 10
1975.761859704346
 20
-2417.196758164514
 30
0.0
 40
40.0
  1
RAV-SM564SDT-E
  7
ARIAL
100
AcDbText
  0
LINE
  5
A98
330
1F
100
AcDbEntity
  8
SIZE
 48
40.0
100
AcDbLine
 10
-412.5000000000031
 20
-34.49999999999909
 30
0.0
 11
-628.4397312325886
 21
-34.49999999999902
 31
0.0
  0
LINE
  5
A99
330
1F
100
AcDbEntity
  8
SIZE
 48
40.0
100
AcDbLine
 10
-432.5000000000001
 20
-15.49999999999909
 30
0.0
 11
-628.4397312325886
 21
-15.49999999999903
 31
0.0
  0
LINE
  5
A9A
330
1F
100
AcDbEntity
  8
SIZE
 48
40.0
100
AcDbLine
 10
-618.4397312325886
 20
-15.49999999999903
 30
0.0
 11
-618.4397312325886
 21
54.7114597544348
 31
0.0
  0
LINE
  5
A9B
330
1F
100
AcDbEntity
  8
SIZE
 48
40.0
100
AcDbLine
 10
-618.4397312325886
 20
-34.49999999999903
 30
0.0
 11
-618.4397312325886
 21
-15.49999999999903
 31
0.0
  0
LINE
  5
A9C
330
1F
100
AcDbEntity
  8
SIZE
 48
40.0
100
AcDbLine
 10
-432.5000000000009
 20
-202.4999999999954
 30
0.0
 11
-628.4397312325902
 21
-202.4999999999954
 31
0.0
  0
LINE
  5
A9D
330
1F
100
AcDbEntity
  8
SIZE
 48
40.0
100
AcDbLine
 10
-412.5000000000031
 20
-34.49999999999909
 30
0.0
 11
-628.4397312325902
 21
-34.49999999999902
 31
0.0
  0
LINE
  5
A9E
330
1F
100
AcDbEntity
  8
SIZE
 48
40.0
100
AcDbLine
 10
-432.5000000000013
 20
-322.499999999999
 30
0.0
 11
-628.4397312325896
 21
-322.499999999999
 31
0.0
  0
LINE
  5
A9F
330
1F
100
AcDbEntity
  8
SIZE
 48
40.0
100
AcDbLine
 10
-432.5000000000009
 20
-202.4999999999954
 30
0.0
 11
-628.4397312325896
 21
-202.4999999999954
 31
0.0
  0
TEXT
  5
AA0
330
1F
100
AcDbEntity
  8
SIZE
100
AcDbText
 10
-623.9513274126713
 20
-298.7414733969959
 30
0.0
 40
30.0
  1
120
 50
90.0
  7
KAIGAI
100
AcDbText
  0
LINE
  5
AA1
330
1F
100
AcDbEntity
  8
SIZE
100
AcDbLine
 10
-623.7987150325896
 20
-222.4999999999953
 30
0.0
 11
-618.4397312325895
 21
-202.4999999999954
 31
0.0
  0
LINE
  5
AA2
330
1F
100
AcDbEntity
  8
SIZE
100
AcDbLine
 10
-618.4397312325895
 20
-202.4999999999954
 30
0.0
 11
-613.0807474325895
 21
-222.4999999999953
 31
0.0
  0
LINE
  5
AA3
330
1F
100
AcDbEntity
  8
SIZE
100
AcDbLine
 10
-613.0807474325896
 20
-302.4999999999991
 30
0.0
 11
-618.4397312325897
 21
-322.499999999999
 31
0.0
  0
LINE
  5
AA4
330
1F
100
AcDbEntity
  8
SIZE
100
AcDbLine
 10
-618.4397312325897
 20
-322.499999999999
 30
0.0
 11
-623.7987150325897
 21
-302.4999999999991
 31
0.0
  0
TEXT
  5
AA5
330
1F
100
AcDbEntity
  8
SIZE
100
AcDbText
 10
-623.951327412672
 20
-154.823328785809
 30
0.0
 40
30.0
  1
168
 50
90.0
  7
KAIGAI
100
AcDbText
  0
LINE
  5
AA6
330
1F
100
AcDbEntity
  8
SIZE
100
AcDbLine
 10
-623.7987150325903
 20
-54.49999999999903
 30
0.0
 11
-618.4397312325902
 21
-34.49999999999903
 31
0.0
  0
LINE
  5
AA7
330
1F
100
AcDbEntity
  8
SIZE
100
AcDbLine
 10
-618.4397312325902
 20
-34.49999999999903
 30
0.0
 11
-613.0807474325902
 21
-54.49999999999903
 31
0.0
  0
LINE
  5
AA8
330
1F
100
AcDbEntity
  8
SIZE
100
AcDbLine
 10
-613.0807474325902
 20
-182.4999999999953
 30
0.0
 11
-618.4397312325902
 21
-202.4999999999954
 31
0.0
  0
LINE
  5
AA9
330
1F
100
AcDbEntity
  8
SIZE
100
AcDbLine
 10
-618.4397312325902
 20
-202.4999999999954
 30
0.0
 11
-623.7987150325903
 21
-182.4999999999953
 31
0.0
  0
TEXT
  5
AAA
330
1F
100
AcDbEntity
  8
SIZE
100
AcDbText
 10
-623.9513274126704
 20
4.936562073670714
 30
0.0
 40
30.0
  1
19
 50
90.0
  7
KAIGAI
100
AcDbText
  0
LINE
  5
AAB
330
1F
100
AcDbEntity
  8
SIZE
100
AcDbLine
 10
-613.0807474325886
 20
4.500000000000964
 30
0.0
 11
-618.4397312325886
 21
-15.49999999999903
 31
0.0
  0
LINE
  5
AAC
330
1F
100
AcDbEntity
  8
SIZE
100
AcDbLine
 10
-618.4397312325886
 20
-15.49999999999903
 30
0.0
 11
-623.7987150325887
 21
4.500000000000964
 31
0.0
  0
LINE
  5
AAD
330
1F
100
AcDbEntity
  8
SIZE
100
AcDbLine
 10
-623.7987150325887
 20
-54.49999999999903
 30
0.0
 11
-618.4397312325886
 21
-34.49999999999903
 31
0.0
  0
LINE
  5
AAE
330
1F
100
AcDbEntity
  8
SIZE
100
AcDbLine
 10
-618.4397312325886
 20
-34.49999999999903
 30
0.0
 11
-613.0807474325886
 21
-54.49999999999903
 31
0.0
  0
LINE
  5
AAF
330
1F
100
AcDbEntity
  8
SIZE
 48
40.0
100
AcDbLine
 10
-618.4397312325886
 20
-34.50000000000497
 30
0.0
 11
-618.4397312325899
 21
-202.4999999999966
 31
0.0
  0
LINE
  5
AB0
330
1F
100
AcDbEntity
  8
SIZE
 48
40.0
100
AcDbLine
 10
-618.4397312325899
 20
-202.4999999999966
 30
0.0
 11
-618.4397312325897
 21
-322.499999999999
 31
0.0
  0
LINE
  5
AB1
330
1F
100
AcDbEntity
  8
SIZE
 48
40.0
100
AcDbLine
 10
454.9999999999995
 20
-301.5000000000027
 30
0.0
 11
454.9999999999995
 21
-494.7901784499054
 31
0.0
  0
LINE
  5
AB2
330
1F
100
AcDbEntity
  8
SIZE
 48
40.0
100
AcDbLine
 10
-455.0000000000014
 20
-301.4999999999986
 30
0.0
 11
-455.0000000000014
 21
-494.7901784499054
 31
0.0
  0
LINE
  5
AB3
330
1F
100
AcDbEntity
  8
SIZE
 48
40.0
100
AcDbLine
 10
-402.5000000000004
 20
-212.4999999999972
 30
0.0
 11
-402.5000000000004
 21
-438.4822098210652
 31
0.0
  0
LINE
  5
AB4
330
1F
100
AcDbEntity
  8
SIZE
 48
40.0
100
AcDbLine
 10
402.4999999999959
 20
-212.4999999999954
 30
0.0
 11
402.4999999999959
 21
-438.4822098210652
 31
0.0
  0
TEXT
  5
AB5
330
1F
100
AcDbEntity
  8
SIZE
100
AcDbText
 10
-34.9727148703979
 20
-422.9706136409833
 30
0.0
 40
30.0
  1
805
  7
KAIGAI
100
AcDbText
  0
LINE
  5
AB6
330
1F
100
AcDbEntity
  8
SIZE
100
AcDbLine
 10
382.4999999999959
 20
-423.1232260210652
 30
0.0
 11
402.4999999999959
 21
-428.4822098210652
 31
0.0
  0
LINE
  5
AB7
330
1F
100
AcDbEntity
  8
SIZE
100
AcDbLine
 10
402.4999999999959
 20
-428.4822098210652
 30
0.0
 11
382.4999999999959
 21
-433.8411936210651
 31
0.0
  0
LINE
  5
AB8
330
1F
100
AcDbEntity
  8
SIZE
100
AcDbLine
 10
-382.5000000000004
 20
-433.8411936210651
 30
0.0
 11
-402.5000000000004
 21
-428.4822098210652
 31
0.0
  0
LINE
  5
AB9
330
1F
100
AcDbEntity
  8
SIZE
100
AcDbLine
 10
-402.5000000000004
 20
-428.4822098210652
 30
0.0
 11
-382.5000000000004
 21
-423.1232260210652
 31
0.0
  0
LINE
  5
ABA
330
1F
100
AcDbEntity
  8
SIZE
100
AcDbLine
 10
-435.0000000000013
 20
-490.1491622499054
 30
0.0
 11
-455.0000000000014
 21
-484.7901784499054
 31
0.0
  0
LINE
  5
ABB
330
1F
100
AcDbEntity
  8
SIZE
100
AcDbLine
 10
-455.0000000000014
 20
-484.7901784499054
 30
0.0
 11
-435.0000000000013
 21
-479.4311946499054
 31
0.0
  0
LINE
  5
ABC
330
1F
100
AcDbEntity
  8
SIZE
100
AcDbLine
 10
434.9999999999995
 20
-479.4311946499054
 30
0.0
 11
454.9999999999995
 21
-484.7901784499054
 31
0.0
  0
LINE
  5
ABD
330
1F
100
AcDbEntity
  8
SIZE
100
AcDbLine
 10
454.9999999999995
 20
-484.7901784499054
 30
0.0
 11
434.9999999999995
 21
-490.1491622499054
 31
0.0
  0
LINE
  5
ABE
330
1F
100
AcDbEntity
  8
SIZE
 48
40.0
100
AcDbLine
 10
-402.5000000000004
 20
-428.4822098210652
 30
0.0
 11
402.4999999999959
 21
-428.4822098210652
 31
0.0
  0
LINE
  5
ABF
330
1F
100
AcDbEntity
  8
SIZE
 48
40.0
100
AcDbLine
 10
454.9999999999995
 20
-484.7901784499054
 30
0.0
 11
-455.0000000000014
 21
-484.7901784499054
 31
0.0
  0
LINE
  5
AC0
330
1F
100
AcDbEntity
  8
SIZE
 48
40.0
100
AcDbLine
 10
-432.4999999999986
 20
322.5000000000008
 30
0.0
 11
-628.4397312325885
 21
322.5000000000008
 31
0.0
  0
LINE
  5
AC1
330
1F
100
AcDbEntity
  8
SIZE
 48
40.0
100
AcDbLine
 10
-411.4999999999986
 20
342.5000000000009
 30
0.0
 11
-628.4397312325885
 21
342.5000000000009
 31
0.0
  0
LINE
  5
AC2
330
1F
100
AcDbEntity
  8
SIZE
 48
40.0
100
AcDbLine
 10
-618.4397312325885
 20
322.5000000000008
 30
0.0
 11
-618.4397312325885
 21
282.5000000000009
 31
0.0
  0
LINE
  5
AC3
330
1F
100
AcDbEntity
  8
SIZE
 48
40.0
100
AcDbLine
 10
-618.4397312325885
 20
342.5000000000009
 30
0.0
 11
-618.4397312325885
 21
415.8833560709422
 31
0.0
  0
LINE
  5
AC4
330
1F
100
AcDbEntity
  8
SIZE
 48
40.0
100
AcDbLine
 10
-618.4397312325885
 20
322.5000000000008
 30
0.0
 11
-618.4397312325885
 21
342.5000000000009
 31
0.0
  0
TEXT
  5
AC5
330
1F
100
AcDbEntity
  8
SIZE
100
AcDbText
 10
-623.9513274126704
 20
366.2721691678044
 30
0.0
 40
30.0
  1
20
 50
90.0
  7
KAIGAI
100
AcDbText
  0
LINE
  5
AC6
330
1F
100
AcDbEntity
  8
SIZE
100
AcDbLine
 10
-613.0807474325885
 20
362.5000000000009
 30
0.0
 11
-618.4397312325885
 21
342.5000000000009
 31
0.0
  0
LINE
  5
AC7
330
1F
100
AcDbEntity
  8
SIZE
100
AcDbLine
 10
-618.4397312325885
 20
342.5000000000009
 30
0.0
 11
-623.7987150325885
 21
362.5000000000009
 31
0.0
  0
LINE
  5
AC8
330
1F
100
AcDbEntity
  8
SIZE
100
AcDbLine
 10
-623.7987150325885
 20
302.5000000000009
 30
0.0
 11
-618.4397312325885
 21
322.5000000000008
 31
0.0
  0
LINE
  5
AC9
330
1F
100
AcDbEntity
  8
SIZE
100
AcDbLine
 10
-618.4397312325885
 20
322.5000000000008
 30
0.0
 11
-613.0807474325885
 21
302.5000000000009
 31
0.0
  0
TEXT
  5
ACA
330
1F
100
AcDbEntity
  8
SIZE
100
AcDbText
 10
104.3168623944752
 20
-472.9720975258524
 30
0.0
 40
30.0
  1
910
  7
ARIAL
100
AcDbText
  0
TEXT
  5
ACB
330
1F
100
AcDbEntity
  8
NOTE
100
AcDbText
 10
-239.4413517380848
 20
-471.5568792886306
 30
0.0
 40
30.0
  1
Hanging bolt pitch
  7
ARIAL
100
AcDbText
  0
TEXT
  5
B23
330
1F
100
AcDbEntity
  8
NOTE
100
AcDbText
 10
12.30882372639144
 20
1586.121382427774
 30
0.0
 40
30.0
  1
(inside)
 50
180.0
  7
ARIAL
100
AcDbText
  0
LINE
  5
B24
330
1F
100
AcDbEntity
  8
SIZE
 48
40.0
100
AcDbLine
 10
401.4999999999995
 20
1488.999999999995
 30
0.0
 11
401.4999999999995
 21
1605.365550322042
 31
0.0
  0
LINE
  5
B25
330
1F
100
AcDbEntity
  8
SIZE
 48
40.0
100
AcDbLine
 10
-401.5000000000005
 20
1488.999999999995
 30
0.0
 11
-401.5000000000005
 21
1605.365550322042
 31
0.0
  0
LINE
  5
B26
330
1F
100
AcDbEntity
  8
SIZE
 48
40.0
100
AcDbLine
 10
-420.0000000000005
 20
1310.999999999993
 30
0.0
 11
-603.7410520613007
 21
1310.999999999993
 31
0.0
  0
LINE
  5
B27
330
1F
100
AcDbEntity
  8
SIZE
 48
40.0
100
AcDbLine
 10
-420.0000000000004
 20
1478.999999999993
 30
0.0
 11
-603.7410520613007
 21
1478.999999999993
 31
0.0
  0
TEXT
  5
B28
330
1F
100
AcDbEntity
  8
NOTE
100
AcDbText
 10
-623.8056249836077
 20
1451.984142156013
 30
0.0
 40
25.0
  1
(inside)
 50
270.0
  7
ARIAL
100
AcDbText
  0
TEXT
  5
B29
330
1F
100
AcDbEntity
  8
SIZE
100
AcDbText
 10
-588.2294558812185
 20
1431.323328785805
 30
0.0
 40
30.0
  1
168
 50
270.0
  7
KAIGAI
100
AcDbText
  0
LINE
  5
B2A
330
1F
100
AcDbEntity
  8
SIZE
100
AcDbLine
 10
-599.1000358613007
 20
1458.999999999994
 30
0.0
 11
-593.7410520613006
 21
1478.999999999993
 31
0.0
  0
LINE
  5
B2B
330
1F
100
AcDbEntity
  8
SIZE
100
AcDbLine
 10
-593.7410520613006
 20
1478.999999999993
 30
0.0
 11
-588.3820682613007
 21
1458.999999999994
 31
0.0
  0
LINE
  5
B2C
330
1F
100
AcDbEntity
  8
SIZE
100
AcDbLine
 10
-588.3820682613007
 20
1330.999999999993
 30
0.0
 11
-593.7410520613006
 21
1310.999999999993
 31
0.0
  0
LINE
  5
B2D
330
1F
100
AcDbEntity
  8
SIZE
100
AcDbLine
 10
-593.7410520613006
 20
1310.999999999993
 30
0.0
 11
-599.1000358613007
 21
1330.999999999993
 31
0.0
  0
LINE
  5
B2E
330
1F
100
AcDbEntity
  8
SIZE
 48
40.0
100
AcDbLine
 10
-420.0000000000004
 20
1478.999999999993
 30
0.0
 11
-603.7410520613007
 21
1478.999999999993
 31
0.0
  0
LINE
  5
B2F
330
1F
100
AcDbEntity
  8
SIZE
 48
40.0
100
AcDbLine
 10
-432.5000000000004
 20
1499.999999999992
 30
0.0
 11
-603.7410520613007
 21
1499.999999999992
 31
0.0
  0
LINE
  5
B30
330
1F
100
AcDbEntity
  8
SIZE
 48
40.0
100
AcDbLine
 10
-593.7410520613006
 20
1499.999999999992
 30
0.0
 11
-593.7410520613006
 21
1567.694406548423
 31
0.0
  0
LINE
  5
B31
330
1F
100
AcDbEntity
  8
SIZE
 48
40.0
100
AcDbLine
 10
-593.7410520613006
 20
1478.999999999993
 30
0.0
 11
-593.7410520613006
 21
1499.999999999992
 31
0.0
  0
LINE
  5
B32
330
1F
100
AcDbEntity
  8
SIZE
 48
40.0
100
AcDbLine
 10
-420.0000000000005
 20
1310.999999999993
 30
0.0
 11
-603.7410520613007
 21
1310.999999999993
 31
0.0
  0
LINE
  5
B33
330
1F
100
AcDbEntity
  8
SIZE
 48
40.0
100
AcDbLine
 10
-432.5000000000005
 20
1289.999999999993
 30
0.0
 11
-603.7410520613007
 21
1289.999999999993
 31
0.0
  0
LINE
  5
B34
330
1F
100
AcDbEntity
  8
SIZE
 48
40.0
100
AcDbLine
 10
-593.7410520613006
 20
1289.999999999993
 30
0.0
 11
-593.7410520613006
 21
1222.305593451562
 31
0.0
  0
LINE
  5
B35
330
1F
100
AcDbEntity
  8
SIZE
 48
40.0
100
AcDbLine
 10
-593.7410520613006
 20
1310.999999999993
 30
0.0
 11
-593.7410520613006
 21
1289.999999999993
 31
0.0
  0
LINE
  5
B36
330
1F
100
AcDbEntity
  8
SIZE
 48
40.0
100
AcDbLine
 10
482.0999999999035
 20
1442.999999999997
 30
0.0
 11
527.3070952417879
 21
1442.999999999997
 31
0.0
  0
LINE
  5
B37
330
1F
100
AcDbEntity
  8
SIZE
 48
40.0
100
AcDbLine
 10
432.4999999999995
 20
1499.999999999994
 30
0.0
 11
527.3070952417879
 21
1499.999999999994
 31
0.0
  0
LINE
  5
B38
330
1F
100
AcDbEntity
  8
SIZE
 48
40.0
100
AcDbLine
 10
432.4999999999995
 20
1499.999999999997
 30
0.0
 11
572.7784044092336
 21
1499.999999999997
 31
0.0
  0
LINE
  5
B39
330
1F
100
AcDbEntity
  8
SIZE
 48
40.0
100
AcDbLine
 10
432.4999999999994
 20
1289.999999999995
 30
0.0
 11
572.7784044092336
 21
1289.999999999995
 31
0.0
  0
LINE
  5
B3A
330
1F
100
AcDbEntity
  8
SIZE
 48
40.0
100
AcDbLine
 10
401.4999999999995
 20
1488.999999999995
 30
0.0
 11
401.4999999999995
 21
1605.365550322042
 31
0.0
  0
LINE
  5
B3B
330
1F
100
AcDbEntity
  8
SIZE
 48
40.0
100
AcDbLine
 10
422.4999999999995
 20
1509.999999999997
 30
0.0
 11
422.4999999999995
 21
1605.365550322042
 31
0.0
  0
LINE
  5
B3C
330
1F
100
AcDbEntity
  8
SIZE
 48
40.0
100
AcDbLine
 10
442.4999999999995
 20
1595.365550322042
 30
0.0
 11
510.1944065484306
 21
1595.365550322042
 31
0.0
  0
LINE
  5
B3D
330
1F
100
AcDbEntity
  8
SIZE
 48
40.0
100
AcDbLine
 10
401.4999999999995
 20
1595.365550322042
 30
0.0
 11
422.4999999999995
 21
1595.365550322042
 31
0.0
  0
LINE
  5
B3E
330
1F
100
AcDbEntity
  8
SIZE
 48
40.0
100
AcDbLine
 10
-401.5000000000005
 20
1488.999999999993
 30
0.0
 11
-401.5000000000005
 21
1605.365550322042
 31
0.0
  0
LINE
  5
B3F
330
1F
100
AcDbEntity
  8
SIZE
 48
40.0
100
AcDbLine
 10
-422.5000000000004
 20
1509.999999999991
 30
0.0
 11
-422.5000000000004
 21
1605.365550322042
 31
0.0
  0
LINE
  5
B40
330
1F
100
AcDbEntity
  8
SIZE
 48
40.0
100
AcDbLine
 10
-422.5000000000004
 20
1595.365550322042
 30
0.0
 11
-490.1944065484316
 21
1595.365550322042
 31
0.0
  0
LINE
  5
B41
330
1F
100
AcDbEntity
  8
SIZE
 48
40.0
100
AcDbLine
 10
-401.5000000000005
 20
1595.365550322042
 30
0.0
 11
-422.5000000000004
 21
1595.365550322042
 31
0.0
  0
TEXT
  5
B42
330
1F
100
AcDbEntity
  8
SIZE
100
AcDbText
 10
88.54149677449319
 20
1591.209157597633
 30
0.0
 40
30.0
  1
803
 50
180.0
  7
KAIGAI
100
AcDbText
  0
LINE
  5
B43
330
1F
100
AcDbEntity
  8
SIZE
100
AcDbLine
 10
-381.5000000000004
 20
1590.006566522042
 30
0.0
 11
-401.5000000000005
 21
1595.365550322042
 31
0.0
  0
LINE
  5
B44
330
1F
100
AcDbEntity
  8
SIZE
100
AcDbLine
 10
-401.5000000000005
 20
1595.365550322042
 30
0.0
 11
-381.5000000000004
 21
1600.724534122042
 31
0.0
  0
LINE
  5
B45
330
1F
100
AcDbEntity
  8
SIZE
100
AcDbLine
 10
381.4999999999995
 20
1600.724534122042
 30
0.0
 11
401.4999999999995
 21
1595.365550322042
 31
0.0
  0
LINE
  5
B46
330
1F
100
AcDbEntity
  8
SIZE
100
AcDbLine
 10
401.4999999999995
 20
1595.365550322042
 30
0.0
 11
381.4999999999995
 21
1590.006566522042
 31
0.0
  0
TEXT
  5
B47
330
1F
100
AcDbEntity
  8
SIZE
100
AcDbText
 10
-446.2721691678039
 20
1590.365550322042
 30
0.0
 40
30.0
  1
21
 50
180.0
  7
KAIGAI
100
AcDbText
  0
LINE
  5
B48
330
1F
100
AcDbEntity
  8
SIZE
100
AcDbLine
 10
-442.5000000000004
 20
1600.724534122042
 30
0.0
 11
-422.5000000000004
 21
1595.365550322042
 31
0.0
  0
LINE
  5
B49
330
1F
100
AcDbEntity
  8
SIZE
100
AcDbLine
 10
-422.5000000000004
 20
1595.365550322042
 30
0.0
 11
-442.5000000000004
 21
1590.006566522042
 31
0.0
  0
LINE
  5
B4A
330
1F
100
AcDbEntity
  8
SIZE
100
AcDbLine
 10
-381.5000000000004
 20
1590.006566522042
 30
0.0
 11
-401.5000000000005
 21
1595.365550322042
 31
0.0
  0
LINE
  5
B4B
330
1F
100
AcDbEntity
  8
SIZE
100
AcDbLine
 10
-401.5000000000005
 20
1595.365550322042
 30
0.0
 11
-381.5000000000004
 21
1600.724534122042
 31
0.0
  0
TEXT
  5
B4C
330
1F
100
AcDbEntity
  8
SIZE
100
AcDbText
 10
506.4222373806271
 20
1590.365550322042
 30
0.0
 40
30.0
  1
21
 50
180.0
  7
KAIGAI
100
AcDbText
  0
LINE
  5
B4D
330
1F
100
AcDbEntity
  8
SIZE
100
AcDbLine
 10
442.4999999999995
 20
1590.006566522042
 30
0.0
 11
422.4999999999995
 21
1595.365550322042
 31
0.0
  0
LINE
  5
B4E
330
1F
100
AcDbEntity
  8
SIZE
100
AcDbLine
 10
422.4999999999995
 20
1595.365550322042
 30
0.0
 11
442.4999999999995
 21
1600.724534122042
 31
0.0
  0
LINE
  5
B4F
330
1F
100
AcDbEntity
  8
SIZE
100
AcDbLine
 10
381.4999999999995
 20
1600.724534122042
 30
0.0
 11
401.4999999999995
 21
1595.365550322042
 31
0.0
  0
LINE
  5
B50
330
1F
100
AcDbEntity
  8
SIZE
100
AcDbLine
 10
401.4999999999995
 20
1595.365550322042
 30
0.0
 11
381.4999999999995
 21
1590.006566522042
 31
0.0
  0
TEXT
  5
B51
330
1F
100
AcDbEntity
  8
SIZE
100
AcDbText
 10
568.2900005893158
 20
1429.573669849928
 30
0.0
 40
30.0
  1
210
 50
270.0
  7
KAIGAI
100
AcDbText
  0
LINE
  5
B52
330
1F
100
AcDbEntity
  8
SIZE
100
AcDbLine
 10
568.1373882092336
 20
1309.999999999995
 30
0.0
 11
562.7784044092336
 21
1289.999999999995
 31
0.0
  0
LINE
  5
B53
330
1F
100
AcDbEntity
  8
SIZE
100
AcDbLine
 10
562.7784044092336
 20
1289.999999999995
 30
0.0
 11
557.4194206092336
 21
1309.999999999995
 31
0.0
  0
LINE
  5
B54
330
1F
100
AcDbEntity
  8
SIZE
100
AcDbLine
 10
557.4194206092336
 20
1479.999999999997
 30
0.0
 11
562.7784044092336
 21
1499.999999999997
 31
0.0
  0
LINE
  5
B55
330
1F
100
AcDbEntity
  8
SIZE
100
AcDbLine
 10
562.7784044092336
 20
1499.999999999997
 30
0.0
 11
568.1373882092336
 21
1479.999999999997
 31
0.0
  0
TEXT
  5
B56
330
1F
100
AcDbEntity
  8
SIZE
100
AcDbText
 10
522.81869142187
 20
1494.726466575712
 30
0.0
 40
30.0
  1
57
 50
270.0
  7
KAIGAI
100
AcDbText
  0
LINE
  5
B57
330
1F
100
AcDbEntity
  8
SIZE
100
AcDbLine
 10
511.9481114417879
 20
1479.999999999994
 30
0.0
 11
517.3070952417879
 21
1499.999999999994
 31
0.0
  0
LINE
  5
B58
330
1F
100
AcDbEntity
  8
SIZE
100
AcDbLine
 10
517.3070952417879
 20
1499.999999999994
 30
0.0
 11
522.6660790417879
 21
1479.999999999994
 31
0.0
  0
LINE
  5
B59
330
1F
100
AcDbEntity
  8
SIZE
100
AcDbLine
 10
522.6660790417879
 20
1462.999999999997
 30
0.0
 11
517.3070952417879
 21
1442.999999999997
 31
0.0
  0
LINE
  5
B5A
330
1F
100
AcDbEntity
  8
SIZE
100
AcDbLine
 10
517.3070952417879
 20
1442.999999999997
 30
0.0
 11
511.9481114417879
 21
1462.999999999997
 31
0.0
  0
TEXT
  5
B5B
330
1F
100
AcDbEntity
  8
SIZE
100
AcDbText
 10
-588.7410520613003
 20
1266.22783083219
 30
0.0
 40
30.0
  1
21
 50
270.0
  7
KAIGAI
100
AcDbText
  0
LINE
  5
B5C
330
1F
100
AcDbEntity
  8
SIZE
100
AcDbLine
 10
-599.1000358613007
 20
1269.999999999993
 30
0.0
 11
-593.7410520613006
 21
1289.999999999993
 31
0.0
  0
LINE
  5
B5D
330
1F
100
AcDbEntity
  8
SIZE
100
AcDbLine
 10
-593.7410520613006
 20
1289.999999999993
 30
0.0
 11
-588.3820682613007
 21
1269.999999999993
 31
0.0
  0
LINE
  5
B5E
330
1F
100
AcDbEntity
  8
SIZE
100
AcDbLine
 10
-588.3820682613007
 20
1330.999999999993
 30
0.0
 11
-593.7410520613006
 21
1310.999999999993
 31
0.0
  0
LINE
  5
B5F
330
1F
100
AcDbEntity
  8
SIZE
100
AcDbLine
 10
-593.7410520613006
 20
1310.999999999993
 30
0.0
 11
-599.1000358613007
 21
1330.999999999993
 31
0.0
  0
TEXT
  5
B60
330
1F
100
AcDbEntity
  8
SIZE
100
AcDbText
 10
-588.7410520613003
 20
1563.922237380619
 30
0.0
 40
30.0
  1
21
 50
270.0
  7
KAIGAI
100
AcDbText
  0
LINE
  5
B61
330
1F
100
AcDbEntity
  8
SIZE
100
AcDbLine
 10
-588.3820682613007
 20
1519.999999999992
 30
0.0
 11
-593.7410520613006
 21
1499.999999999992
 31
0.0
  0
LINE
  5
B62
330
1F
100
AcDbEntity
  8
SIZE
100
AcDbLine
 10
-593.7410520613006
 20
1499.999999999992
 30
0.0
 11
-599.1000358613007
 21
1519.999999999992
 31
0.0
  0
LINE
  5
B63
330
1F
100
AcDbEntity
  8
SIZE
100
AcDbLine
 10
-599.1000358613007
 20
1458.999999999994
 30
0.0
 11
-593.7410520613006
 21
1478.999999999993
 31
0.0
  0
LINE
  5
B64
330
1F
100
AcDbEntity
  8
SIZE
100
AcDbLine
 10
-593.7410520613006
 20
1478.999999999993
 30
0.0
 11
-588.3820682613007
 21
1458.999999999994
 31
0.0
  0
LINE
  5
B65
330
1F
100
AcDbEntity
  8
SIZE
 48
40.0
100
AcDbLine
 10
-593.7410520613006
 20
1310.999999999993
 30
0.0
 11
-593.7410520613006
 21
1478.999999999993
 31
0.0
  0
LINE
  5
B66
330
1F
100
AcDbEntity
  8
SIZE
 48
40.0
100
AcDbLine
 10
-401.5000000000005
 20
1595.365550322042
 30
0.0
 11
401.4999999999995
 21
1595.365550322042
 31
0.0
  0
LINE
  5
B67
330
1F
100
AcDbEntity
  8
SIZE
 48
40.0
100
AcDbLine
 10
562.7784044092336
 20
1289.999999999995
 30
0.0
 11
562.7784044092336
 21
1499.999999999997
 31
0.0
  0
LINE
  5
B68
330
1F
100
AcDbEntity
  8
SIZE
 48
40.0
100
AcDbLine
 10
517.3070952417886
 20
1499.999999999997
 30
0.0
 11
517.3070952417879
 21
1442.999999999997
 31
0.0
  0
LINE
  5
B69
330
1F
100
AcDbEntity
  8
SIZE
 48
40.0
100
AcDbLine
 10
422.4999999999995
 20
1279.999999999995
 30
0.0
 11
422.4999999999995
 21
1210.687974668023
 31
0.0
  0
LINE
  5
B6A
330
1F
100
AcDbEntity
  8
SIZE
 48
40.0
100
AcDbLine
 10
-422.5000000000004
 20
1279.999999999993
 30
0.0
 11
-422.5000000000004
 21
1210.687974668023
 31
0.0
  0
TEXT
  5
B6B
330
1F
100
AcDbEntity
  8
SIZE
100
AcDbText
 10
-197.4078248267377
 20
1206.167864694806
 30
0.0
 40
30.0
  1
845
 50
180.0
  7
KAIGAI
100
AcDbText
  0
LINE
  5
B6C
330
1F
100
AcDbEntity
  8
SIZE
100
AcDbLine
 10
-402.5000000000004
 20
1215.328990868023
 30
0.0
 11
-422.5000000000004
 21
1220.687974668023
 31
0.0
  0
LINE
  5
B6D
330
1F
100
AcDbEntity
  8
SIZE
100
AcDbLine
 10
-422.5000000000004
 20
1220.687974668023
 30
0.0
 11
-402.5000000000004
 21
1226.046958468023
 31
0.0
  0
LINE
  5
B6E
330
1F
100
AcDbEntity
  8
SIZE
100
AcDbLine
 10
402.4999999999995
 20
1226.046958468023
 30
0.0
 11
422.4999999999995
 21
1220.687974668023
 31
0.0
  0
LINE
  5
B6F
330
1F
100
AcDbEntity
  8
SIZE
100
AcDbLine
 10
422.4999999999995
 20
1220.687974668023
 30
0.0
 11
402.4999999999995
 21
1215.328990868023
 31
0.0
  0
LINE
  5
B70
330
1F
100
AcDbEntity
  8
SIZE
 48
40.0
100
AcDbLine
 10
-422.5000000000004
 20
1220.687974668023
 30
0.0
 11
422.4999999999995
 21
1220.687974668023
 31
0.0
  0
TEXT
  5
B71
330
1F
100
AcDbEntity
  8
NOTE
100
AcDbText
 10
244.7239105245666
 20
1205.860876754336
 30
0.0
 40
30.0
  1
Unit external dimention
 50
180.0
  7
ARIAL
100
AcDbText
  0
LINE
  5
B72
330
1F
100
AcDbEntity
  8
OUTLINE
100
AcDbLine
 10
-1999.999999999998
 20
322.5000000000182
 30
0.0
 11
-1999.999999999997
 21
-322.4999999999818
 31
0.0
  0
LINE
  5
B73
330
1F
100
AcDbEntity
  8
OUTLINE
100
AcDbLine
 10
-1789.999999999994
 20
322.5000000000163
 30
0.0
 11
-1789.999999999997
 21
-322.4999999999841
 31
0.0
  0
LINE
  5
B74
330
1F
100
AcDbEntity
  8
OUTLINE
100
AcDbLine
 10
-1999.999999999997
 20
-322.4999999999818
 30
0.0
 11
-1789.999999999997
 21
-322.4999999999841
 31
0.0
  0
LINE
  5
B75
330
1F
100
AcDbEntity
  8
OUTLINE
100
AcDbLine
 10
-1999.999999999998
 20
322.5000000000182
 30
0.0
 11
-1789.999999999994
 21
322.5000000000163
 31
0.0
  0
LINE
  5
B76
330
1F
100
AcDbEntity
  8
OUTLINE
100
AcDbLine
 10
-1978.999999999997
 20
342.5000000000181
 30
0.0
 11
-1810.999999999993
 21
342.5000000000163
 31
0.0
  0
LINE
  5
B77
330
1F
100
AcDbEntity
  8
OUTLINE
100
AcDbLine
 10
-1978.999999999997
 20
342.5000000000181
 30
0.0
 11
-1978.999999999997
 21
322.5000000000182
 31
0.0
  0
LINE
  5
B78
330
1F
100
AcDbEntity
  8
OUTLINE
100
AcDbLine
 10
-1810.999999999993
 20
342.5000000000163
 30
0.0
 11
-1810.99999999999
 21
322.5000000000163
 31
0.0
  0
LINE
  5
B79
330
1F
100
AcDbEntity
  8
BASIS
100
AcDbLine
 10
-2000.000000000001
 20
0.0000000000181899
 30
0.0
 11
-1789.999999999993
 21
0.0000000000159162
 31
0.0
  0
CIRCLE
  5
B7A
330
1F
100
AcDbEntity
  8
ARRANGE
100
AcDbCircle
 10
-1999.999999999997
 20
0.0000000000162835
 30
0.0
 40
20.0
  0
POINT
  5
B7B
330
1F
100
AcDbEntity
  8
ARRANGE
100
AcDbPoint
 10
-1999.999999999997
 20
0.0000000000181899
 30
0.0
  0
LINE
  5
B7C
330
1F
100
AcDbEntity
  8
DETAIL
100
AcDbLine
 10
-1999.999999999998
 20
322.5000000000182
 30
0.0
 11
-1999.999999999997
 21
-322.4999999999818
 31
0.0
  0
LINE
  5
B7D
330
1F
100
AcDbEntity
  8
DETAIL
100
AcDbLine
 10
-1789.999999999994
 20
322.5000000000163
 30
0.0
 11
-1789.999999999997
 21
-322.4999999999841
 31
0.0
  0
LINE
  5
B7E
330
1F
100
AcDbEntity
  8
DETAIL
100
AcDbLine
 10
-1999.999999999997
 20
-322.4999999999818
 30
0.0
 11
-1789.999999999997
 21
-322.4999999999841
 31
0.0
  0
LINE
  5
B7F
330
1F
100
AcDbEntity
  8
DETAIL
100
AcDbLine
 10
-1999.999999999998
 20
322.5000000000182
 30
0.0
 11
-1789.999999999994
 21
322.5000000000163
 31
0.0
  0
LINE
  5
B80
330
1F
100
AcDbEntity
  8
DETAIL
100
AcDbLine
 10
-1978.999999999997
 20
342.5000000000181
 30
0.0
 11
-1810.999999999993
 21
342.5000000000163
 31
0.0
  0
LINE
  5
B81
330
1F
100
AcDbEntity
  8
DETAIL
100
AcDbLine
 10
-1978.999999999997
 20
342.5000000000181
 30
0.0
 11
-1978.999999999997
 21
322.5000000000182
 31
0.0
  0
LINE
  5
B82
330
1F
100
AcDbEntity
  8
DETAIL
100
AcDbLine
 10
-1810.999999999993
 20
342.5000000000163
 30
0.0
 11
-1810.99999999999
 21
322.5000000000163
 31
0.0
  0
LINE
  5
B83
330
1F
100
AcDbEntity
  8
DETAIL
100
AcDbLine
 10
-1815.999999999995
 20
222.5000000000127
 30
0.0
 11
-1789.999999999994
 21
222.5000000000163
 31
0.0
  0
LINE
  5
B84
330
1F
100
AcDbEntity
  8
DETAIL
100
AcDbLine
 10
-1815.999999999993
 20
322.5000000000163
 30
0.0
 11
-1816.0
 21
54.0517093181752
 31
0.0
  0
LINE
  5
B85
330
1F
100
AcDbEntity
  8
DETAIL
100
AcDbLine
 10
-1999.999999999998
 20
282.5000000000181
 30
0.0
 11
-1815.999999999994
 21
282.5000000000163
 31
0.0
  0
LINE
  5
B86
330
1F
100
AcDbEntity
  8
DETAIL
100
AcDbLine
 10
-1942.999999999998
 20
280.5000000000177
 30
0.0
 11
-1942.999999999998
 21
230.5000000000177
 31
0.0
  0
LINE
  5
B87
330
1F
100
AcDbEntity
  8
DETAIL
100
AcDbLine
 10
-1942.999999999998
 20
280.5000000000177
 30
0.0
 11
-1921.499999999998
 21
280.5000000000177
 31
0.0
  0
LINE
  5
B88
330
1F
100
AcDbEntity
  8
DETAIL
100
AcDbLine
 10
-1921.499999999998
 20
280.5000000000177
 30
0.0
 11
-1921.499999999998
 21
230.5000000000177
 31
0.0
  0
LINE
  5
B89
330
1F
100
AcDbEntity
  8
DETAIL
100
AcDbLine
 10
-1942.999999999998
 20
230.5000000000177
 30
0.0
 11
-1921.499999999998
 21
230.5000000000177
 31
0.0
  0
LINE
  5
B8A
330
1F
100
AcDbEntity
  8
DETAIL
100
AcDbLine
 10
-1940.999999999998
 20
280.5000000000177
 30
0.0
 11
-1940.999999999994
 21
273.0000000002141
 31
0.0
  0
ARC
  5
B8B
330
1F
100
AcDbEntity
  8
DETAIL
100
AcDbCircle
 10
-1936.999999999601
 20
271.0000000003086
 30
0.0
 40
1.999999999899999
100
AcDbArc
 50
359.9999999999994
 51
89.99999999999943
  0
ARC
  5
B8C
330
1F
100
AcDbEntity
  8
DETAIL
100
AcDbCircle
 10
-1936.999999999601
 20
263.0000000000176
 30
0.0
 40
1.999999999899999
100
AcDbArc
 50
269.9999999999994
 51
359.9999999999994
  0
LINE
  5
B8D
330
1F
100
AcDbEntity
  8
DETAIL
100
AcDbLine
 10
-1934.9999999997
 20
271.0000000003087
 30
0.0
 11
-1934.9999999997
 21
263.0000000000177
 31
0.0
  0
LINE
  5
B8E
330
1F
100
AcDbEntity
  8
DETAIL
100
AcDbLine
 10
-1936.999999999601
 20
273.0000000002068
 30
0.0
 11
-1942.999999999998
 21
273.0000000002141
 31
0.0
  0
LINE
  5
B8F
330
1F
100
AcDbEntity
  8
DETAIL
100
AcDbLine
 10
-1942.999999999998
 20
261.0000000001087
 30
0.0
 11
-1936.999999999601
 21
261.0000000001159
 31
0.0
  0
ARC
  5
B90
330
1F
100
AcDbEntity
  8
DETAIL
100
AcDbCircle
 10
-1936.999999999601
 20
248.0000000000176
 30
0.0
 40
1.999999999899999
100
AcDbArc
 50
359.9999999999994
 51
89.99999999999943
  0
ARC
  5
B91
330
1F
100
AcDbEntity
  8
DETAIL
100
AcDbCircle
 10
-1936.999999999602
 20
239.9999999997266
 30
0.0
 40
1.999999999899999
100
AcDbArc
 50
269.9999999999994
 51
359.9999999999994
  0
LINE
  5
B92
330
1F
100
AcDbEntity
  8
DETAIL
100
AcDbLine
 10
-1934.9999999997
 20
248.0000000000177
 30
0.0
 11
-1934.9999999997
 21
239.9999999997266
 31
0.0
  0
LINE
  5
B93
330
1F
100
AcDbEntity
  8
DETAIL
100
AcDbLine
 10
-1936.999999999601
 20
249.9999999999158
 30
0.0
 11
-1942.999999999998
 21
249.9999999999231
 31
0.0
  0
LINE
  5
B94
330
1F
100
AcDbEntity
  8
DETAIL
100
AcDbLine
 10
-1942.999999999998
 20
237.9999999998176
 30
0.0
 11
-1936.999999999602
 21
237.9999999998249
 31
0.0
  0
LINE
  5
B95
330
1F
100
AcDbEntity
  8
DETAIL
100
AcDbLine
 10
-1940.999999999998
 20
237.9999999998212
 30
0.0
 11
-1940.999999999998
 21
230.5000000000177
 31
0.0
  0
LINE
  5
B96
330
1F
100
AcDbEntity
  8
DETAIL
100
AcDbLine
 10
-1940.999999999987
 20
261.0000000001123
 30
0.0
 11
-1940.999999999991
 21
249.9999999999231
 31
0.0
  0
LINE
  5
B97
330
1F
100
AcDbEntity
  8
DETAIL
100
AcDbLine
 10
-1870.000000000296
 20
232.8100000002218
 30
0.0
 11
-1870.000000000296
 21
240.1899999996153
 31
0.0
  0
LINE
  5
B98
330
1F
100
AcDbEntity
  8
DETAIL
100
AcDbLine
 10
-1865.8000000003
 20
229.4999999999185
 30
0.0
 11
-1870.800000000394
 21
229.4999999999185
 31
0.0
  0
LINE
  5
B99
330
1F
100
AcDbEntity
  8
DETAIL
100
AcDbLine
 10
-1870.000000000296
 20
240.1899999996153
 30
0.0
 11
-1868.000000000391
 21
240.1899999996153
 31
0.0
  0
LINE
  5
B9A
330
1F
100
AcDbEntity
  8
DETAIL
100
AcDbLine
 10
-1868.000000000391
 20
232.8100000002218
 30
0.0
 11
-1870.000000000296
 21
232.8100000002218
 31
0.0
  0
LINE
  5
B9B
330
1F
100
AcDbEntity
  8
DETAIL
100
AcDbLine
 10
-1870.000000000296
 20
270.8099999997198
 30
0.0
 11
-1870.000000000296
 21
278.1899999998263
 31
0.0
  0
LINE
  5
B9C
330
1F
100
AcDbEntity
  8
DETAIL
100
AcDbLine
 10
-1868.000000000391
 20
280.499999999824
 30
0.0
 11
-1868.000000000391
 21
230.5000000002096
 31
0.0
  0
LINE
  5
B9D
330
1F
100
AcDbEntity
  8
DETAIL
100
AcDbLine
 10
-1870.800000000394
 20
281.500000000115
 30
0.0
 11
-1865.800000000299
 21
281.500000000115
 31
0.0
  0
LINE
  5
B9E
330
1F
100
AcDbEntity
  8
DETAIL
100
AcDbLine
 10
-1870.000000000296
 20
278.1899999998263
 30
0.0
 11
-1868.000000000391
 21
278.1899999998263
 31
0.0
  0
LINE
  5
B9F
330
1F
100
AcDbEntity
  8
DETAIL
100
AcDbLine
 10
-1868.000000000391
 20
270.8099999997198
 30
0.0
 11
-1870.000000000296
 21
270.8099999997198
 31
0.0
  0
LINE
  5
BA0
330
1F
100
AcDbEntity
  8
DETAIL
100
AcDbLine
 10
-1865.800000000299
 20
281.500000000115
 30
0.0
 11
-1865.8000000003
 21
229.4999999999185
 31
0.0
  0
LINE
  5
BA1
330
1F
100
AcDbEntity
  8
DETAIL
100
AcDbLine
 10
-1870.800000000394
 20
229.4999999999185
 30
0.0
 11
-1870.800000000394
 21
281.500000000115
 31
0.0
  0
LINE
  5
BA2
330
1F
100
AcDbEntity
  8
DETAIL
100
AcDbLine
 10
-1865.800000000299
 20
280.499999999824
 30
0.0
 11
-1870.800000000394
 21
280.499999999824
 31
0.0
  0
LINE
  5
BA3
330
1F
100
AcDbEntity
  8
DETAIL
100
AcDbLine
 10
-1865.8000000003
 20
230.5000000002096
 30
0.0
 11
-1870.800000000394
 21
230.5000000002096
 31
0.0
  0
LINE
  5
BA4
330
1F
100
AcDbEntity
  8
DETAIL
100
AcDbLine
 10
-1943.000000000004
 20
-280.4999999999822
 30
0.0
 11
-1943.000000000003
 21
-230.4999999999822
 31
0.0
  0
LINE
  5
BA5
330
1F
100
AcDbEntity
  8
DETAIL
100
AcDbLine
 10
-1943.000000000004
 20
-280.4999999999822
 30
0.0
 11
-1921.500000000004
 21
-280.4999999999827
 31
0.0
  0
LINE
  5
BA6
330
1F
100
AcDbEntity
  8
DETAIL
100
AcDbLine
 10
-1921.500000000004
 20
-280.4999999999827
 30
0.0
 11
-1921.500000000003
 21
-230.4999999999827
 31
0.0
  0
LINE
  5
BA7
330
1F
100
AcDbEntity
  8
DETAIL
100
AcDbLine
 10
-1943.000000000003
 20
-230.4999999999822
 30
0.0
 11
-1921.500000000003
 21
-230.4999999999827
 31
0.0
  0
LINE
  5
BA8
330
1F
100
AcDbEntity
  8
DETAIL
100
AcDbLine
 10
-1941.000000000004
 20
-280.4999999999822
 30
0.0
 11
-1941.0
 21
-273.0000000001786
 31
0.0
  0
ARC
  5
BA9
330
1F
100
AcDbEntity
  8
DETAIL
100
AcDbCircle
 10
-1936.999999999607
 20
-271.0000000002734
 30
0.0
 40
1.999999999899999
100
AcDbArc
 50
269.9999999999994
 51
359.9999999999994
  0
ARC
  5
BAA
330
1F
100
AcDbEntity
  8
DETAIL
100
AcDbCircle
 10
-1936.999999999607
 20
-262.9999999999824
 30
0.0
 40
1.999999999899999
100
AcDbArc
 50
359.9999999999994
 51
89.99999999999943
  0
LINE
  5
BAB
330
1F
100
AcDbEntity
  8
DETAIL
100
AcDbLine
 10
-1934.999999999705
 20
-271.0000000002732
 30
0.0
 11
-1934.999999999705
 21
-262.9999999999822
 31
0.0
  0
LINE
  5
BAC
330
1F
100
AcDbEntity
  8
DETAIL
100
AcDbLine
 10
-1936.999999999607
 20
-273.0000000001751
 30
0.0
 11
-1943.000000000004
 21
-273.0000000001823
 31
0.0
  0
LINE
  5
BAD
330
1F
100
AcDbEntity
  8
DETAIL
100
AcDbLine
 10
-1943.000000000004
 20
-261.0000000000768
 30
0.0
 11
-1936.999999999607
 21
-261.0000000000841
 31
0.0
  0
ARC
  5
BAE
330
1F
100
AcDbEntity
  8
DETAIL
100
AcDbCircle
 10
-1936.999999999607
 20
-247.9999999999823
 30
0.0
 40
1.999999999899999
100
AcDbArc
 50
269.9999999999994
 51
359.9999999999994
  0
ARC
  5
BAF
330
1F
100
AcDbEntity
  8
DETAIL
100
AcDbCircle
 10
-1936.999999999607
 20
-239.9999999996913
 30
0.0
 40
1.999999999899999
100
AcDbArc
 50
359.9999999999994
 51
89.99999999999943
  0
LINE
  5
BB0
330
1F
100
AcDbEntity
  8
DETAIL
100
AcDbLine
 10
-1934.999999999705
 20
-247.9999999999822
 30
0.0
 11
-1934.999999999705
 21
-239.9999999996912
 31
0.0
  0
LINE
  5
BB1
330
1F
100
AcDbEntity
  8
DETAIL
100
AcDbLine
 10
-1936.999999999607
 20
-249.999999999884
 30
0.0
 11
-1943.000000000004
 21
-249.9999999998913
 31
0.0
  0
LINE
  5
BB2
330
1F
100
AcDbEntity
  8
DETAIL
100
AcDbLine
 10
-1943.000000000003
 20
-237.9999999997858
 30
0.0
 11
-1936.999999999607
 21
-237.999999999793
 31
0.0
  0
LINE
  5
BB3
330
1F
100
AcDbEntity
  8
DETAIL
100
AcDbLine
 10
-1941.000000000003
 20
-237.9999999997858
 30
0.0
 11
-1941.000000000003
 21
-230.4999999999822
 31
0.0
  0
LINE
  5
BB4
330
1F
100
AcDbEntity
  8
DETAIL
100
AcDbLine
 10
-1940.999999999992
 20
-261.0000000000768
 30
0.0
 11
-1940.999999999996
 21
-249.9999999998876
 31
0.0
  0
LINE
  5
BB5
330
1F
100
AcDbEntity
  8
DETAIL
100
AcDbLine
 10
-1870.000000000302
 20
-232.8100000001882
 30
0.0
 11
-1870.000000000302
 21
-240.1899999995817
 31
0.0
  0
LINE
  5
BB6
330
1F
100
AcDbEntity
  8
DETAIL
100
AcDbLine
 10
-1865.800000000304
 20
-229.4999999998849
 30
0.0
 11
-1870.800000000399
 21
-229.4999999998849
 31
0.0
  0
LINE
  5
BB7
330
1F
100
AcDbEntity
  8
DETAIL
100
AcDbLine
 10
-1870.000000000302
 20
-240.1899999995817
 30
0.0
 11
-1868.000000000396
 21
-240.1899999995817
 31
0.0
  0
LINE
  5
BB8
330
1F
100
AcDbEntity
  8
DETAIL
100
AcDbLine
 10
-1868.000000000396
 20
-232.8100000001882
 30
0.0
 11
-1870.000000000302
 21
-232.8100000001882
 31
0.0
  0
LINE
  5
BB9
330
1F
100
AcDbEntity
  8
DETAIL
100
AcDbLine
 10
-1870.000000000302
 20
-270.8099999996861
 30
0.0
 11
-1870.000000000302
 21
-278.1899999997926
 31
0.0
  0
LINE
  5
BBA
330
1F
100
AcDbEntity
  8
DETAIL
100
AcDbLine
 10
-1868.000000000397
 20
-280.4999999997903
 30
0.0
 11
-1868.000000000396
 21
-230.500000000176
 31
0.0
  0
LINE
  5
BBB
330
1F
100
AcDbEntity
  8
DETAIL
100
AcDbLine
 10
-1870.800000000399
 20
-281.5000000000813
 30
0.0
 11
-1865.800000000305
 21
-281.5000000000813
 31
0.0
  0
LINE
  5
BBC
330
1F
100
AcDbEntity
  8
DETAIL
100
AcDbLine
 10
-1870.000000000302
 20
-278.1899999997926
 30
0.0
 11
-1868.000000000397
 21
-278.1899999997926
 31
0.0
  0
LINE
  5
BBD
330
1F
100
AcDbEntity
  8
DETAIL
100
AcDbLine
 10
-1868.000000000397
 20
-270.8099999996861
 30
0.0
 11
-1870.000000000302
 21
-270.8099999996861
 31
0.0
  0
LINE
  5
BBE
330
1F
100
AcDbEntity
  8
DETAIL
100
AcDbLine
 10
-1865.800000000305
 20
-281.5000000000813
 30
0.0
 11
-1865.800000000304
 21
-229.4999999998849
 31
0.0
  0
LINE
  5
BBF
330
1F
100
AcDbEntity
  8
DETAIL
100
AcDbLine
 10
-1870.800000000399
 20
-229.4999999998849
 30
0.0
 11
-1870.800000000399
 21
-281.5000000000813
 31
0.0
  0
LINE
  5
BC0
330
1F
100
AcDbEntity
  8
DETAIL
100
AcDbLine
 10
-1865.800000000305
 20
-280.4999999997903
 30
0.0
 11
-1870.800000000399
 21
-280.4999999997903
 31
0.0
  0
LINE
  5
BC1
330
1F
100
AcDbEntity
  8
DETAIL
100
AcDbLine
 10
-1865.800000000304
 20
-230.500000000176
 30
0.0
 11
-1870.800000000399
 21
-230.500000000176
 31
0.0
  0
LINE
  5
BC2
330
1F
100
AcDbEntity
  8
BASIS
100
AcDbLine
 10
-1848.374999999545
 20
36.50000000001682
 30
0.0
 11
-1793.625000000448
 21
36.50000000001591
 31
0.0
  0
LINE
  5
BC3
330
1F
100
AcDbEntity
  8
BASIS
100
AcDbLine
 10
-1820.999999999992
 20
63.87499999956526
 30
0.0
 11
-1820.999999999993
 21
9.12500000046748
 31
0.0
  0
CIRCLE
  5
BC4
330
1F
100
AcDbEntity
  8
DETAIL
100
AcDbCircle
 10
-1820.999999999997
 20
36.50000000001625
 30
0.0
 40
5.0000000001
  0
CIRCLE
  5
BC5
330
1F
100
AcDbEntity
  8
DETAIL
100
AcDbCircle
 10
-1820.999999999997
 20
36.50000000001625
 30
0.0
 40
18.24999999969999
  0
LINE
  5
BC6
330
1F
100
AcDbEntity
  8
DETAIL
100
AcDbLine
 10
-1800.548571428401
 20
-16.90000000008353
 30
0.0
 11
-1789.999999999993
 21
-16.90000000008376
 31
0.0
  0
LINE
  5
BC7
330
1F
100
AcDbEntity
  8
DETAIL
100
AcDbLine
 10
-1800.548571428401
 20
-16.90000000008353
 30
0.0
 11
-1815.999999999997
 21
0.0000000000161435
 31
0.0
  0
LINE
  5
BC8
330
1F
100
AcDbEntity
  8
DETAIL
100
AcDbLine
 10
-1815.999999999997
 20
18.94829068186095
 30
0.0
 11
-1815.999999999997
 21
0.0000000000161435
 31
0.0
  0
CIRCLE
  5
BC9
330
1F
100
AcDbEntity
  8
FIX
100
AcDbCircle
 10
-1942.999999999994
 20
255.5000000000176
 30
0.0
 40
20.0
  0
LINE
  5
BCA
330
1F
100
AcDbEntity
  8
BASIS
100
AcDbLine
 10
-1906.999999999998
 20
255.5000000000172
 30
0.0
 11
-1978.999999999998
 21
255.5000000000181
 31
0.0
  0
CIRCLE
  5
BCB
330
1F
100
AcDbEntity
  8
FIX
100
AcDbCircle
 10
-1943.0
 20
-255.4999999999823
 30
0.0
 40
20.0
  0
LINE
  5
BCC
330
1F
100
AcDbEntity
  8
BASIS
100
AcDbLine
 10
-1907.000000000003
 20
-255.4999999999827
 30
0.0
 11
-1979.000000000003
 21
-255.4999999999818
 31
0.0
  0
LINE
  5
BCD
330
1F
100
AcDbEntity
  8
DETAIL
100
AcDbLine
 10
-1999.999999999998
 20
172.5000000000168
 30
0.0
 11
-1815.999999999996
 21
172.500000000015
 31
0.0
  0
LINE
  5
BCE
330
1F
100
AcDbEntity
  8
BASIS
100
AcDbLine
 10
-1928.999999999995
 20
-178.4999999999913
 30
0.0
 11
-1928.999999999996
 21
-186.4999999999913
 31
0.0
  0
LINE
  5
BCF
330
1F
100
AcDbEntity
  8
BASIS
100
AcDbLine
 10
-1932.999999999996
 20
-182.4999999999913
 30
0.0
 11
-1924.999999999996
 21
-182.4999999999913
 31
0.0
  0
CIRCLE
  5
BD0
330
1F
100
AcDbEntity
  8
DETAIL
100
AcDbCircle
 10
-1888.999999999994
 20
-142.4999999999919
 30
0.0
 40
46.0
  0
CIRCLE
  5
BD1
330
1F
100
AcDbEntity
  8
DETAIL
100
AcDbCircle
 10
-1928.999999999994
 20
-182.4999999999937
 30
0.0
 40
2.0
  0
LINE
  5
BD2
330
1F
100
AcDbEntity
  8
BASIS
100
AcDbLine
 10
-1928.999999999997
 20
-98.49999999999136
 30
0.0
 11
-1928.999999999997
 21
-106.4999999999913
 31
0.0
  0
LINE
  5
BD3
330
1F
100
AcDbEntity
  8
BASIS
100
AcDbLine
 10
-1932.999999999997
 20
-102.4999999999913
 30
0.0
 11
-1924.999999999997
 21
-102.4999999999913
 31
0.0
  0
CIRCLE
  5
BD4
330
1F
100
AcDbEntity
  8
DETAIL
100
AcDbCircle
 10
-1928.999999999996
 20
-102.4999999999937
 30
0.0
 40
2.0
  0
LINE
  5
BD5
330
1F
100
AcDbEntity
  8
BASIS
100
AcDbLine
 10
-1848.999999999992
 20
-178.4999999999931
 30
0.0
 11
-1848.999999999992
 21
-186.4999999999931
 31
0.0
  0
LINE
  5
BD6
330
1F
100
AcDbEntity
  8
BASIS
100
AcDbLine
 10
-1852.999999999991
 20
-182.4999999999931
 30
0.0
 11
-1844.999999999991
 21
-182.4999999999931
 31
0.0
  0
CIRCLE
  5
BD7
330
1F
100
AcDbEntity
  8
DETAIL
100
AcDbCircle
 10
-1848.999999999991
 20
-182.4999999999937
 30
0.0
 40
2.0
  0
LINE
  5
BD8
330
1F
100
AcDbEntity
  8
BASIS
100
AcDbLine
 10
-1848.999999999993
 20
-98.49999999999319
 30
0.0
 11
-1848.999999999993
 21
-106.4999999999931
 31
0.0
  0
LINE
  5
BD9
330
1F
100
AcDbEntity
  8
BASIS
100
AcDbLine
 10
-1852.999999999993
 20
-102.4999999999931
 30
0.0
 11
-1844.999999999993
 21
-102.4999999999931
 31
0.0
  0
CIRCLE
  5
BDA
330
1F
100
AcDbEntity
  8
DETAIL
100
AcDbCircle
 10
-1848.999999999992
 20
-102.4999999999937
 30
0.0
 40
2.0
  0
LINE
  5
BDB
330
1F
100
AcDbEntity
  8
NOTE
100
AcDbLine
 10
-2128.833238273144
 20
49.94738286201254
 30
0.0
 11
-1932.555545674512
 21
-130.292517947727
 31
0.0
  0
LINE
  5
BDC
330
1F
100
AcDbEntity
  8
NOTE
100
AcDbLine
 10
-1940.885409248675
 20
-117.1865023163181
 30
0.0
 11
-1932.555545674512
 21
-130.292517947727
 31
0.0
  0
LINE
  5
BDD
330
1F
100
AcDbEntity
  8
NOTE
100
AcDbLine
 10
-1932.555545674512
 20
-130.292517947727
 30
0.0
 11
-1946.322426922902
 21
-123.1073071931596
 31
0.0
  0
LINE
  5
BDE
330
1F
100
AcDbEntity
  8
NOTE
100
AcDbLine
 10
-2128.833238273144
 20
49.94738286201254
 30
0.0
 11
-2128.833238273144
 21
371.1624505151094
 31
0.0
  0
TEXT
  5
BDF
330
1F
100
AcDbEntity
  8
NOTE
100
AcDbText
 10
-2121.236807645554
 20
331.747866307884
 30
0.0
 40
30.0
  1
Fresh air inlet
 50
270.0
  7
ARIAL
100
AcDbText
  0
LINE
  5
BE0
330
1F
100
AcDbEntity
  8
NOTE
100
AcDbLine
 10
-1728.66237474686
 20
-244.5296927819958
 30
0.0
 11
-1848.118877080013
 21
-182.182954618554
 31
0.0
  0
LINE
  5
BE1
330
1F
100
AcDbEntity
  8
NOTE
100
AcDbLine
 10
-1836.680760273445
 20
-192.6864662605812
 30
0.0
 11
-1848.118877080013
 21
-182.182954618554
 31
0.0
  0
LINE
  5
BE2
330
1F
100
AcDbEntity
  8
NOTE
100
AcDbLine
 10
-1848.118877080013
 20
-182.182954618554
 30
0.0
 11
-1832.961421548382
 21
-185.5602041949719
 31
0.0
  0
LINE
  5
BE3
330
1F
100
AcDbEntity
  8
NOTE
100
AcDbLine
 10
-1728.66237474686
 20
-355.1346807490758
 30
0.0
 11
-1728.66237474686
 21
-244.5296927819958
 31
0.0
  0
TEXT
  5
BE4
330
1F
100
AcDbEntity
  8
NOTE
100
AcDbText
 10
-1721.267867636293
 20
-249.6135459716539
 30
0.0
 40
30.0
  1
4-   4
 50
270.0
  7
ARIAL
100
AcDbText
  0
TEXT
  5
BE5
330
1F
100
AcDbEntity
  8
NOTE
100
AcDbText
 10
-2162.623810012736
 20
364.2849580428741
 30
0.0
 40
30.0
  1
(Knock-out hole) 
 50
270.0
  7
ARIAL
100
AcDbText
  0
CIRCLE
  5
BE6
330
1F
100
AcDbEntity
  8
NOTE
100
AcDbCircle
 10
-1704.278362311187
 20
-304.832450054375
 30
0.0
 40
12.97562245034943
  0
LINE
  5
BE7
330
1F
100
AcDbEntity
  8
NOTE
100
AcDbLine
 10
-1728.819961958975
 20
-299.4500636104348
 30
0.0
 11
-1682.525175108482
 21
-309.805167600698
 31
0.0
  0
TEXT
  5
BE8
330
1F
100
AcDbEntity
  8
SIZE
100
AcDbText
 10
-1885.822409580662
 20
-136.9099091359604
 30
0.0
 40
20.0
  1
92
 50
288.9260059314747
  7
KAIGAI
100
AcDbText
  0
LINE
  5
BE9
330
1F
100
AcDbEntity
  8
SIZE
100
AcDbLine
 10
-1874.846577758474
 20
-165.1274873824572
 30
0.0
 11
-1873.428909402374
 21
-185.7844214192587
 31
0.0
  0
LINE
  5
BEA
330
1F
100
AcDbEntity
  8
SIZE
100
AcDbLine
 10
-1873.428909402374
 20
-185.7844214192587
 30
0.0
 11
-1884.985113153359
 21
-168.6038259047149
 31
0.0
  0
LINE
  5
BEB
330
1F
100
AcDbEntity
  8
SIZE
100
AcDbLine
 10
-1901.84778848489
 20
-119.4248320850501
 30
0.0
 11
-1903.265456840991
 21
-98.76789804824831
 31
0.0
  0
LINE
  5
BEC
330
1F
100
AcDbEntity
  8
SIZE
100
AcDbLine
 10
-1903.265456840991
 20
-98.76789804824831
 30
0.0
 11
-1891.709253090006
 21
-115.9484935627924
 31
0.0
  0
LINE
  5
BED
330
1F
100
AcDbEntity
  8
SIZE
 48
40.0
100
AcDbLine
 10
-1873.428909402374
 20
-185.7844214192587
 30
0.0
 11
-1903.265456840991
 21
-98.76789804824831
 31
0.0
  0
CIRCLE
  5
BEE
330
1F
100
AcDbEntity
  8
SIZE
100
AcDbCircle
 10
-1881.800758058817
 20
-125.8938289577873
 30
0.0
 40
6.0
  0
LINE
  5
BEF
330
1F
100
AcDbEntity
  8
SIZE
100
AcDbLine
 10
-1892.946241719451
 20
-124.6743642197284
 30
0.0
 11
-1869.902090618639
 21
-126.1099600759453
 31
0.0
  0
LINE
  5
BF0
330
1F
100
AcDbEntity
  8
SIZE
 48
40.0
100
AcDbLine
 10
-1848.999999999992
 20
-196.4999999999932
 30
0.0
 11
-1848.999999999992
 21
-410.8630917376076
 31
0.0
  0
LINE
  5
BF1
330
1F
100
AcDbEntity
  8
SIZE
 48
40.0
100
AcDbLine
 10
-1789.999999999997
 20
-332.499999999984
 30
0.0
 11
-1789.999999999997
 21
-410.8630917376076
 31
0.0
  0
LINE
  5
BF2
330
1F
100
AcDbEntity
  8
SIZE
 48
40.0
100
AcDbLine
 10
-1928.999999999996
 20
-196.4999999999913
 30
0.0
 11
-1928.999999999996
 21
-410.8630917376076
 31
0.0
  0
LINE
  5
BF3
330
1F
100
AcDbEntity
  8
SIZE
 48
40.0
100
AcDbLine
 10
-1848.999999999992
 20
-196.4999999999932
 30
0.0
 11
-1848.999999999992
 21
-410.8630917376076
 31
0.0
  0
TEXT
  5
BF4
330
1F
100
AcDbEntity
  8
SIZE
100
AcDbText
 10
-1912.154843110498
 20
-395.3514955575259
 30
0.0
 40
30.0
  1
80
  7
KAIGAI
100
AcDbText
  0
LINE
  5
BF5
330
1F
100
AcDbEntity
  8
SIZE
100
AcDbLine
 10
-1868.999999999991
 20
-395.5041079376078
 30
0.0
 11
-1848.999999999992
 21
-400.8630917376076
 31
0.0
  0
LINE
  5
BF6
330
1F
100
AcDbEntity
  8
SIZE
100
AcDbLine
 10
-1848.999999999992
 20
-400.8630917376076
 30
0.0
 11
-1868.999999999991
 21
-406.2220755376077
 31
0.0
  0
LINE
  5
BF7
330
1F
100
AcDbEntity
  8
SIZE
100
AcDbLine
 10
-1908.999999999996
 20
-406.2220755376077
 30
0.0
 11
-1928.999999999996
 21
-400.8630917376076
 31
0.0
  0
LINE
  5
BF8
330
1F
100
AcDbEntity
  8
SIZE
100
AcDbLine
 10
-1928.999999999996
 20
-400.8630917376076
 30
0.0
 11
-1908.999999999996
 21
-395.5041079376078
 31
0.0
  0
TEXT
  5
BF9
330
1F
100
AcDbEntity
  8
SIZE
100
AcDbText
 10
-1842.757162346515
 20
-395.3514955575259
 30
0.0
 40
30.0
  1
59
  7
KAIGAI
100
AcDbText
  0
LINE
  5
BFA
330
1F
100
AcDbEntity
  8
SIZE
100
AcDbLine
 10
-1809.999999999997
 20
-395.5041079376078
 30
0.0
 11
-1789.999999999997
 21
-400.8630917376076
 31
0.0
  0
LINE
  5
BFB
330
1F
100
AcDbEntity
  8
SIZE
100
AcDbLine
 10
-1789.999999999997
 20
-400.8630917376076
 30
0.0
 11
-1809.999999999997
 21
-406.2220755376077
 31
0.0
  0
LINE
  5
BFC
330
1F
100
AcDbEntity
  8
SIZE
100
AcDbLine
 10
-1828.999999999992
 20
-406.2220755376077
 30
0.0
 11
-1848.999999999992
 21
-400.8630917376076
 31
0.0
  0
LINE
  5
BFD
330
1F
100
AcDbEntity
  8
SIZE
100
AcDbLine
 10
-1848.999999999992
 20
-400.8630917376076
 30
0.0
 11
-1828.999999999992
 21
-395.5041079376078
 31
0.0
  0
LINE
  5
BFE
330
1F
100
AcDbEntity
  8
SIZE
 48
40.0
100
AcDbLine
 10
-1928.999999999996
 20
-400.8630917376076
 30
0.0
 11
-1848.999999999992
 21
-400.8630917376076
 31
0.0
  0
LINE
  5
BFF
330
1F
100
AcDbEntity
  8
SIZE
 48
40.0
100
AcDbLine
 10
-1848.999999999992
 20
-400.8630917376076
 30
0.0
 11
-1789.999999999997
 21
-400.8630917376076
 31
0.0
  0
LINE
  5
C00
330
1F
100
AcDbEntity
  8
SIZE
 48
40.0
100
AcDbLine
 10
-1942.999999999997
 20
-102.4999999999913
 30
0.0
 11
-2064.092298517314
 21
-102.4999999999913
 31
0.0
  0
LINE
  5
C01
330
1F
100
AcDbEntity
  8
SIZE
 48
40.0
100
AcDbLine
 10
-1942.999999999996
 20
-182.4999999999913
 30
0.0
 11
-2064.092298517314
 21
-182.4999999999913
 31
0.0
  0
TEXT
  5
C02
330
1F
100
AcDbEntity
  8
SIZE
100
AcDbText
 10
-2048.580702337232
 20
-119.3451568894866
 30
0.0
 40
30.0
  1
80
 50
270.0
  7
KAIGAI
100
AcDbText
  0
LINE
  5
C03
330
1F
100
AcDbEntity
  8
SIZE
100
AcDbLine
 10
-2048.733314717315
 20
-162.4999999999913
 30
0.0
 11
-2054.092298517314
 21
-182.4999999999913
 31
0.0
  0
LINE
  5
C04
330
1F
100
AcDbEntity
  8
SIZE
100
AcDbLine
 10
-2054.092298517314
 20
-182.4999999999913
 30
0.0
 11
-2059.451282317315
 21
-162.4999999999913
 31
0.0
  0
LINE
  5
C05
330
1F
100
AcDbEntity
  8
SIZE
100
AcDbLine
 10
-2059.451282317315
 20
-122.4999999999913
 30
0.0
 11
-2054.092298517314
 21
-102.4999999999913
 31
0.0
  0
LINE
  5
C06
330
1F
100
AcDbEntity
  8
SIZE
100
AcDbLine
 10
-2054.092298517314
 20
-102.4999999999913
 30
0.0
 11
-2048.733314717315
 21
-122.4999999999913
 31
0.0
  0
LINE
  5
C07
330
1F
100
AcDbEntity
  8
SIZE
 48
40.0
100
AcDbLine
 10
-2054.092298517314
 20
-102.4999999999913
 30
0.0
 11
-2054.092298517314
 21
-182.4999999999913
 31
0.0
  0
LINE
  5
D07
330
1F
100
AcDbEntity
  8
OUTLINE
100
AcDbLine
 10
2000.000000000004
 20
322.500000000002
 30
0.0
 11
1999.999999999996
 21
-322.4999999999979
 31
0.0
  0
LINE
  5
D08
330
1F
100
AcDbEntity
  8
OUTLINE
100
AcDbLine
 10
1790.0
 20
322.500000000002
 30
0.0
 11
1789.999999999997
 21
-322.4999999999979
 31
0.0
  0
LINE
  5
D09
330
1F
100
AcDbEntity
  8
OUTLINE
100
AcDbLine
 10
1999.999999999996
 20
-322.4999999999979
 30
0.0
 11
1789.999999999997
 21
-322.4999999999979
 31
0.0
  0
LINE
  5
D0A
330
1F
100
AcDbEntity
  8
OUTLINE
100
AcDbLine
 10
2000.000000000004
 20
322.500000000002
 30
0.0
 11
1790.0
 21
322.500000000002
 31
0.0
  0
LINE
  5
D0B
330
1F
100
AcDbEntity
  8
OUTLINE
100
AcDbLine
 10
1979.000000000004
 20
342.5000000000021
 30
0.0
 11
1811.0
 21
342.5000000000021
 31
0.0
  0
LINE
  5
D0C
330
1F
100
AcDbEntity
  8
OUTLINE
100
AcDbLine
 10
1979.000000000004
 20
342.5000000000021
 30
0.0
 11
1979.000000000004
 21
322.500000000002
 31
0.0
  0
LINE
  5
D0D
330
1F
100
AcDbEntity
  8
OUTLINE
100
AcDbLine
 10
1811.0
 20
342.5000000000021
 30
0.0
 11
1810.999999999996
 21
322.500000000002
 31
0.0
  0
TEXT
  5
D0E
330
1F
100
AcDbEntity
  8
NOTE
100
AcDbText
 10
1926.797951172256
 20
435.1631727605963
 30
0.0
 40
30.0
  1
connecting port    6.4
 50
90.0
  7
ARIAL
100
AcDbText
  0
TEXT
  5
D0F
330
1F
100
AcDbEntity
  8
NOTE
100
AcDbText
 10
1987.945489118135
 20
435.1631727605963
 30
0.0
 40
30.0
  1
(Liquid side)
 50
90.0
  7
ARIAL
100
AcDbText
  0
TEXT
  5
D10
330
1F
100
AcDbEntity
  8
NOTE
100
AcDbText
 10
1875.808025199852
 20
433.662641049199
 30
0.0
 40
30.0
  1
Refrigerant pipe
 50
90.0
  7
ARIAL
100
AcDbText
  0
TEXT
  5
D11
330
1F
100
AcDbEntity
  8
NOTE
100
AcDbText
 10
2136.762304409963
 20
279.3640732086596
 30
0.0
 40
30.0
  1
connecting port    12.7
 50
90.0
  7
ARIAL
100
AcDbText
  0
TEXT
  5
D12
330
1F
100
AcDbEntity
  8
NOTE
100
AcDbText
 10
2187.401736928702
 20
279.3640732086596
 30
0.0
 40
30.0
  1
(Gas side)
 50
90.0
  7
ARIAL
100
AcDbText
  0
TEXT
  5
D13
330
1F
100
AcDbEntity
  8
NOTE
100
AcDbText
 10
2096.958323653434
 20
277.8635414972622
 30
0.0
 40
30.0
  1
Refrigerant pipe
 50
90.0
  7
ARIAL
100
AcDbText
  0
TEXT
  5
D14
330
1F
100
AcDbEntity
  8
NOTE
100
AcDbText
 10
2082.350054047666
 20
-723.7425661849465
 30
0.0
 40
30.0
  1
Drain-up port
 50
90.0
  7
ARIAL
100
AcDbText
  0
LINE
  5
D15
330
1F
100
AcDbEntity
  8
BASIS
100
AcDbLine
 10
2000.000000000004
 20
0.0000000000021032
 30
0.0
 11
1789.999999999997
 21
0.0000000000021032
 31
0.0
  0
CIRCLE
  5
D16
330
1F
100
AcDbEntity
  8
ARRANGE
100
AcDbCircle
 10
1999.999999999999
 20
0.0
 30
0.0
 40
20.0
  0
POINT
  5
D17
330
1F
100
AcDbEntity
  8
ARRANGE
100
AcDbPoint
 10
2000.0
 20
0.0000000000021032
 30
0.0
  0
LINE
  5
D18
330
1F
100
AcDbEntity
  8
DETAIL
100
AcDbLine
 10
2000.000000000004
 20
322.500000000002
 30
0.0
 11
1999.999999999996
 21
-322.4999999999979
 31
0.0
  0
LINE
  5
D19
330
1F
100
AcDbEntity
  8
DETAIL
100
AcDbLine
 10
1790.0
 20
322.500000000002
 30
0.0
 11
1789.999999999997
 21
-322.4999999999979
 31
0.0
  0
LINE
  5
D1A
330
1F
100
AcDbEntity
  8
DETAIL
100
AcDbLine
 10
1999.999999999996
 20
-322.4999999999979
 30
0.0
 11
1789.999999999997
 21
-322.4999999999979
 31
0.0
  0
LINE
  5
D1B
330
1F
100
AcDbEntity
  8
DETAIL
100
AcDbLine
 10
2000.000000000004
 20
322.500000000002
 30
0.0
 11
1790.0
 21
322.500000000002
 31
0.0
  0
LINE
  5
D1C
330
1F
100
AcDbEntity
  8
DETAIL
100
AcDbLine
 10
1979.000000000004
 20
342.5000000000021
 30
0.0
 11
1811.0
 21
342.5000000000021
 31
0.0
  0
LINE
  5
D1D
330
1F
100
AcDbEntity
  8
DETAIL
100
AcDbLine
 10
1979.000000000004
 20
342.5000000000021
 30
0.0
 11
1979.000000000004
 21
322.500000000002
 31
0.0
  0
LINE
  5
D1E
330
1F
100
AcDbEntity
  8
DETAIL
100
AcDbLine
 10
1811.0
 20
342.5000000000021
 30
0.0
 11
1810.999999999996
 21
322.500000000002
 31
0.0
  0
LINE
  5
D1F
330
1F
100
AcDbEntity
  8
DETAIL
100
AcDbLine
 10
1816.0
 20
222.4999999999984
 30
0.0
 11
1790.0
 21
222.500000000002
 31
0.0
  0
LINE
  5
D20
330
1F
100
AcDbEntity
  8
DETAIL
100
AcDbLine
 10
1816.0
 20
322.500000000002
 30
0.0
 11
1816.000000000004
 21
54.05170931816093
 31
0.0
  0
LINE
  5
D21
330
1F
100
AcDbEntity
  8
DETAIL
100
AcDbLine
 10
2000.000000000004
 20
282.500000000002
 30
0.0
 11
1816.0
 21
282.500000000002
 31
0.0
  0
LINE
  5
D22
330
1F
100
AcDbEntity
  8
DETAIL
100
AcDbLine
 10
1943.000000000004
 20
280.5000000000021
 30
0.0
 11
1943.000000000004
 21
230.5000000000021
 31
0.0
  0
LINE
  5
D23
330
1F
100
AcDbEntity
  8
DETAIL
100
AcDbLine
 10
1943.000000000004
 20
280.5000000000021
 30
0.0
 11
1921.500000000004
 21
280.5000000000021
 31
0.0
  0
LINE
  5
D24
330
1F
100
AcDbEntity
  8
DETAIL
100
AcDbLine
 10
1921.500000000004
 20
280.5000000000021
 30
0.0
 11
1921.500000000004
 21
230.5000000000021
 31
0.0
  0
LINE
  5
D25
330
1F
100
AcDbEntity
  8
DETAIL
100
AcDbLine
 10
1943.000000000004
 20
230.5000000000021
 30
0.0
 11
1921.500000000004
 21
230.5000000000021
 31
0.0
  0
LINE
  5
D26
330
1F
100
AcDbEntity
  8
DETAIL
100
AcDbLine
 10
1941.000000000004
 20
280.5000000000021
 30
0.0
 11
1941.0
 21
273.0000000001985
 31
0.0
  0
ARC
  5
D27
330
1F
100
AcDbEntity
  8
DETAIL
100
AcDbCircle
 10
1936.999999999607
 20
271.0000000002928
 30
0.0
 40
1.999999999899999
100
AcDbArc
 50
90.0
 51
180.0
  0
ARC
  5
D28
330
1F
100
AcDbEntity
  8
DETAIL
100
AcDbCircle
 10
1936.999999999607
 20
263.0000000000018
 30
0.0
 40
1.999999999899999
100
AcDbArc
 50
180.0
 51
270.0
  0
LINE
  5
D29
330
1F
100
AcDbEntity
  8
DETAIL
100
AcDbLine
 10
1934.999999999705
 20
271.0000000002931
 30
0.0
 11
1934.999999999705
 21
263.0000000000021
 31
0.0
  0
LINE
  5
D2A
330
1F
100
AcDbEntity
  8
DETAIL
100
AcDbLine
 10
1936.999999999607
 20
273.0000000001912
 30
0.0
 11
1943.000000000004
 21
273.0000000001985
 31
0.0
  0
LINE
  5
D2B
330
1F
100
AcDbEntity
  8
DETAIL
100
AcDbLine
 10
1943.000000000004
 20
261.000000000093
 30
0.0
 11
1936.999999999607
 21
261.0000000001003
 31
0.0
  0
ARC
  5
D2C
330
1F
100
AcDbEntity
  8
DETAIL
100
AcDbCircle
 10
1936.999999999607
 20
248.0000000000018
 30
0.0
 40
1.999999999899999
100
AcDbArc
 50
90.0
 51
180.0
  0
ARC
  5
D2D
330
1F
100
AcDbEntity
  8
DETAIL
100
AcDbCircle
 10
1936.999999999607
 20
239.9999999997108
 30
0.0
 40
1.999999999899999
100
AcDbArc
 50
180.0
 51
270.0
  0
LINE
  5
D2E
330
1F
100
AcDbEntity
  8
DETAIL
100
AcDbLine
 10
1934.999999999705
 20
248.0000000000021
 30
0.0
 11
1934.999999999705
 21
239.999999999711
 31
0.0
  0
LINE
  5
D2F
330
1F
100
AcDbEntity
  8
DETAIL
100
AcDbLine
 10
1936.999999999607
 20
249.9999999999002
 30
0.0
 11
1943.000000000004
 21
249.9999999999075
 31
0.0
  0
LINE
  5
D30
330
1F
100
AcDbEntity
  8
DETAIL
100
AcDbLine
 10
1943.000000000004
 20
237.999999999802
 30
0.0
 11
1936.999999999607
 21
237.9999999998092
 31
0.0
  0
LINE
  5
D31
330
1F
100
AcDbEntity
  8
DETAIL
100
AcDbLine
 10
1941.000000000004
 20
237.9999999998056
 30
0.0
 11
1941.000000000004
 21
230.5000000000021
 31
0.0
  0
LINE
  5
D32
330
1F
100
AcDbEntity
  8
DETAIL
100
AcDbLine
 10
1940.999999999993
 20
261.0000000000967
 30
0.0
 11
1940.999999999996
 21
249.9999999999075
 31
0.0
  0
LINE
  5
D33
330
1F
100
AcDbEntity
  8
DETAIL
100
AcDbLine
 10
1870.000000000302
 20
232.8100000002071
 30
0.0
 11
1870.000000000302
 21
240.1899999996006
 31
0.0
  0
LINE
  5
D34
330
1F
100
AcDbEntity
  8
DETAIL
100
AcDbLine
 10
1865.800000000305
 20
229.4999999999038
 30
0.0
 11
1870.800000000399
 21
229.4999999999038
 31
0.0
  0
LINE
  5
D35
330
1F
100
AcDbEntity
  8
DETAIL
100
AcDbLine
 10
1870.000000000302
 20
240.1899999996006
 30
0.0
 11
1868.000000000397
 21
240.1899999996006
 31
0.0
  0
LINE
  5
D36
330
1F
100
AcDbEntity
  8
DETAIL
100
AcDbLine
 10
1868.000000000397
 20
232.8100000002071
 30
0.0
 11
1870.000000000302
 21
232.8100000002071
 31
0.0
  0
LINE
  5
D37
330
1F
100
AcDbEntity
  8
DETAIL
100
AcDbLine
 10
1870.000000000302
 20
270.8099999997051
 30
0.0
 11
1870.000000000302
 21
278.1899999998116
 31
0.0
  0
LINE
  5
D38
330
1F
100
AcDbEntity
  8
DETAIL
100
AcDbLine
 10
1868.000000000397
 20
280.4999999998092
 30
0.0
 11
1868.000000000397
 21
230.5000000001949
 31
0.0
  0
LINE
  5
D39
330
1F
100
AcDbEntity
  8
DETAIL
100
AcDbLine
 10
1870.800000000399
 20
281.5000000001003
 30
0.0
 11
1865.800000000305
 21
281.5000000001003
 31
0.0
  0
LINE
  5
D3A
330
1F
100
AcDbEntity
  8
DETAIL
100
AcDbLine
 10
1870.000000000302
 20
278.1899999998116
 30
0.0
 11
1868.000000000397
 21
278.1899999998116
 31
0.0
  0
LINE
  5
D3B
330
1F
100
AcDbEntity
  8
DETAIL
100
AcDbLine
 10
1868.000000000397
 20
270.8099999997051
 30
0.0
 11
1870.000000000302
 21
270.8099999997051
 31
0.0
  0
LINE
  5
D3C
330
1F
100
AcDbEntity
  8
DETAIL
100
AcDbLine
 10
1865.800000000305
 20
281.5000000001003
 30
0.0
 11
1865.800000000305
 21
229.4999999999038
 31
0.0
  0
LINE
  5
D3D
330
1F
100
AcDbEntity
  8
DETAIL
100
AcDbLine
 10
1870.800000000399
 20
229.4999999999038
 30
0.0
 11
1870.800000000399
 21
281.5000000001003
 31
0.0
  0
LINE
  5
D3E
330
1F
100
AcDbEntity
  8
DETAIL
100
AcDbLine
 10
1865.800000000305
 20
280.4999999998092
 30
0.0
 11
1870.800000000399
 21
280.4999999998092
 31
0.0
  0
LINE
  5
D3F
330
1F
100
AcDbEntity
  8
DETAIL
100
AcDbLine
 10
1865.800000000305
 20
230.5000000001949
 30
0.0
 11
1870.800000000399
 21
230.5000000001949
 31
0.0
  0
LINE
  5
D40
330
1F
100
AcDbEntity
  8
DETAIL
100
AcDbLine
 10
1943.000000000004
 20
-280.4999999999978
 30
0.0
 11
1943.000000000004
 21
-230.4999999999978
 31
0.0
  0
LINE
  5
D41
330
1F
100
AcDbEntity
  8
DETAIL
100
AcDbLine
 10
1943.000000000004
 20
-280.4999999999978
 30
0.0
 11
1921.500000000004
 21
-280.4999999999978
 31
0.0
  0
LINE
  5
D42
330
1F
100
AcDbEntity
  8
DETAIL
100
AcDbLine
 10
1921.500000000004
 20
-280.4999999999978
 30
0.0
 11
1921.500000000004
 21
-230.4999999999978
 31
0.0
  0
LINE
  5
D43
330
1F
100
AcDbEntity
  8
DETAIL
100
AcDbLine
 10
1943.000000000004
 20
-230.4999999999978
 30
0.0
 11
1921.500000000004
 21
-230.4999999999978
 31
0.0
  0
LINE
  5
D44
330
1F
100
AcDbEntity
  8
DETAIL
100
AcDbLine
 10
1941.000000000004
 20
-280.4999999999978
 30
0.0
 11
1941.0
 21
-273.0000000001943
 31
0.0
  0
ARC
  5
D45
330
1F
100
AcDbEntity
  8
DETAIL
100
AcDbCircle
 10
1936.999999999606
 20
-271.0000000002892
 30
0.0
 40
1.999999999899999
100
AcDbArc
 50
180.0
 51
270.0
  0
ARC
  5
D46
330
1F
100
AcDbEntity
  8
DETAIL
100
AcDbCircle
 10
1936.999999999606
 20
-262.9999999999981
 30
0.0
 40
1.999999999899999
100
AcDbArc
 50
90.0
 51
180.0
  0
LINE
  5
D47
330
1F
100
AcDbEntity
  8
DETAIL
100
AcDbLine
 10
1934.999999999705
 20
-271.0000000002889
 30
0.0
 11
1934.999999999705
 21
-262.9999999999979
 31
0.0
  0
LINE
  5
D48
330
1F
100
AcDbEntity
  8
DETAIL
100
AcDbLine
 10
1936.999999999607
 20
-273.0000000001907
 30
0.0
 11
1943.000000000004
 21
-273.0000000001979
 31
0.0
  0
LINE
  5
D49
330
1F
100
AcDbEntity
  8
DETAIL
100
AcDbLine
 10
1943.000000000004
 20
-261.0000000000924
 30
0.0
 11
1936.999999999607
 21
-261.0000000000997
 31
0.0
  0
ARC
  5
D4A
330
1F
100
AcDbEntity
  8
DETAIL
100
AcDbCircle
 10
1936.999999999606
 20
-247.9999999999981
 30
0.0
 40
1.999999999899999
100
AcDbArc
 50
180.0
 51
270.0
  0
ARC
  5
D4B
330
1F
100
AcDbEntity
  8
DETAIL
100
AcDbCircle
 10
1936.999999999606
 20
-239.9999999997071
 30
0.0
 40
1.999999999899999
100
AcDbArc
 50
90.0
 51
180.0
  0
LINE
  5
D4C
330
1F
100
AcDbEntity
  8
DETAIL
100
AcDbLine
 10
1934.999999999705
 20
-247.9999999999979
 30
0.0
 11
1934.999999999705
 21
-239.9999999997068
 31
0.0
  0
LINE
  5
D4D
330
1F
100
AcDbEntity
  8
DETAIL
100
AcDbLine
 10
1936.999999999607
 20
-249.9999999998996
 30
0.0
 11
1943.000000000004
 21
-249.9999999999069
 31
0.0
  0
LINE
  5
D4E
330
1F
100
AcDbEntity
  8
DETAIL
100
AcDbLine
 10
1943.000000000004
 20
-237.9999999998014
 30
0.0
 11
1936.999999999607
 21
-237.9999999998087
 31
0.0
  0
LINE
  5
D4F
330
1F
100
AcDbEntity
  8
DETAIL
100
AcDbLine
 10
1941.000000000004
 20
-237.9999999998014
 30
0.0
 11
1941.000000000004
 21
-230.4999999999978
 31
0.0
  0
LINE
  5
D50
330
1F
100
AcDbEntity
  8
DETAIL
100
AcDbLine
 10
1940.999999999993
 20
-261.0000000000924
 30
0.0
 11
1940.999999999996
 21
-249.9999999999033
 31
0.0
  0
LINE
  5
D51
330
1F
100
AcDbEntity
  8
DETAIL
100
AcDbLine
 10
1870.000000000302
 20
-232.8100000002029
 30
0.0
 11
1870.000000000302
 21
-240.1899999995964
 31
0.0
  0
LINE
  5
D52
330
1F
100
AcDbEntity
  8
DETAIL
100
AcDbLine
 10
1865.800000000305
 20
-229.4999999998996
 30
0.0
 11
1870.800000000399
 21
-229.4999999998996
 31
0.0
  0
LINE
  5
D53
330
1F
100
AcDbEntity
  8
DETAIL
100
AcDbLine
 10
1870.000000000302
 20
-240.1899999995964
 30
0.0
 11
1868.000000000397
 21
-240.1899999995964
 31
0.0
  0
LINE
  5
D54
330
1F
100
AcDbEntity
  8
DETAIL
100
AcDbLine
 10
1868.000000000397
 20
-232.8100000002029
 30
0.0
 11
1870.000000000302
 21
-232.8100000002029
 31
0.0
  0
LINE
  5
D55
330
1F
100
AcDbEntity
  8
DETAIL
100
AcDbLine
 10
1870.000000000302
 20
-270.8099999997009
 30
0.0
 11
1870.000000000302
 21
-278.1899999998074
 31
0.0
  0
LINE
  5
D56
330
1F
100
AcDbEntity
  8
DETAIL
100
AcDbLine
 10
1868.000000000397
 20
-280.4999999998051
 30
0.0
 11
1868.000000000397
 21
-230.5000000001907
 31
0.0
  0
LINE
  5
D57
330
1F
100
AcDbEntity
  8
DETAIL
100
AcDbLine
 10
1870.800000000399
 20
-281.5000000000961
 30
0.0
 11
1865.800000000305
 21
-281.5000000000961
 31
0.0
  0
LINE
  5
D58
330
1F
100
AcDbEntity
  8
DETAIL
100
AcDbLine
 10
1870.000000000302
 20
-278.1899999998074
 30
0.0
 11
1868.000000000397
 21
-278.1899999998074
 31
0.0
  0
LINE
  5
D59
330
1F
100
AcDbEntity
  8
DETAIL
100
AcDbLine
 10
1868.000000000397
 20
-270.8099999997009
 30
0.0
 11
1870.000000000302
 21
-270.8099999997009
 31
0.0
  0
LINE
  5
D5A
330
1F
100
AcDbEntity
  8
DETAIL
100
AcDbLine
 10
1865.800000000305
 20
-281.5000000000961
 30
0.0
 11
1865.800000000305
 21
-229.4999999998996
 31
0.0
  0
LINE
  5
D5B
330
1F
100
AcDbEntity
  8
DETAIL
100
AcDbLine
 10
1870.800000000399
 20
-229.4999999998996
 30
0.0
 11
1870.800000000399
 21
-281.5000000000961
 31
0.0
  0
LINE
  5
D5C
330
1F
100
AcDbEntity
  8
DETAIL
100
AcDbLine
 10
1865.800000000305
 20
-280.4999999998051
 30
0.0
 11
1870.800000000399
 21
-280.4999999998051
 31
0.0
  0
LINE
  5
D5D
330
1F
100
AcDbEntity
  8
DETAIL
100
AcDbLine
 10
1865.800000000305
 20
-230.5000000001907
 30
0.0
 11
1870.800000000399
 21
-230.5000000001907
 31
0.0
  0
LINE
  5
D5E
330
1F
100
AcDbEntity
  8
BASIS
100
AcDbLine
 10
1862.000000000149
 20
-282.4999999999978
 30
0.0
 11
1783.999999999847
 21
-282.4999999999978
 31
0.0
  0
LINE
  5
D5F
330
1F
100
AcDbEntity
  8
BASIS
100
AcDbLine
 10
1822.999999999996
 20
-243.4999999998451
 30
0.0
 11
1822.999999999996
 21
-321.500000000147
 31
0.0
  0
CIRCLE
  5
D60
330
1F
100
AcDbEntity
  8
DETAIL
100
AcDbCircle
 10
1822.999999999995
 20
-282.4999999999981
 30
0.0
 40
26.0000000001
  0
CIRCLE
  5
D61
330
1F
100
AcDbEntity
  8
DETAIL
100
AcDbCircle
 10
1822.999999999995
 20
-282.4999999999981
 30
0.0
 40
19.99999999969999
  0
CIRCLE
  5
D62
330
1F
100
AcDbEntity
  8
DETAIL
100
AcDbCircle
 10
1822.999999999995
 20
-282.4999999999981
 30
0.0
 40
26.0000000001
  0
LINE
  5
D63
330
1F
100
AcDbEntity
  8
BASIS
100
AcDbLine
 10
1952.999999999996
 20
71.999999999551
 30
0.0
 11
1952.999999999996
 21
27.00000000044957
 31
0.0
  0
LINE
  5
D64
330
1F
100
AcDbEntity
  8
BASIS
100
AcDbLine
 10
1975.499999999552
 20
49.5000000000021
 30
0.0
 11
1930.500000000451
 21
49.5000000000021
 31
0.0
  0
CIRCLE
  5
D65
330
1F
100
AcDbEntity
  8
DETAIL
100
AcDbCircle
 10
1952.999999999999
 20
49.5
 30
0.0
 40
12.9999999997
  0
CIRCLE
  5
D66
330
1F
100
AcDbEntity
  8
DETAIL
100
AcDbCircle
 10
1952.999999999999
 20
49.5
 30
0.0
 40
14.9999999997
  0
ARC
  5
D67
330
1F
100
AcDbEntity
  8
DETAIL
100
AcDbCircle
 10
1965.499999999901
 20
64.69140565319321
 30
0.0
 40
15.0000000003
100
AcDbArc
 50
0.0
 51
109.99999999998
  0
ARC
  5
D68
330
1F
100
AcDbEntity
  8
DETAIL
100
AcDbCircle
 10
1930.499999999901
 20
62.59422517829261
 30
0.0
 40
5.0000000001
100
AcDbArc
 50
109.99999999998
 51
180.0
  0
LINE
  5
D69
330
1F
100
AcDbEntity
  8
DETAIL
100
AcDbLine
 10
1977.2101007169
 20
31.70731171739891
 30
0.0
 11
1945.630302149799
 21
20.21320503529415
 31
0.0
  0
ARC
  5
D6A
330
1F
100
AcDbEntity
  8
DETAIL
100
AcDbCircle
 10
1940.500000000097
 20
34.30859434679405
 30
0.0
 40
15.0000000003
100
AcDbArc
 50
180.0
 51
289.99999999998
  0
LINE
  5
D6B
330
1F
100
AcDbEntity
  8
DETAIL
100
AcDbLine
 10
1925.4999999998
 20
34.30859434679433
 30
0.0
 11
1925.4999999998
 21
62.5942251782929
 31
0.0
  0
LINE
  5
D6C
330
1F
100
AcDbEntity
  8
DETAIL
100
AcDbLine
 10
1980.500000000196
 20
64.69140565319531
 30
0.0
 11
1980.500000000196
 21
36.40577482169675
 31
0.0
  0
ARC
  5
D6D
330
1F
100
AcDbEntity
  8
DETAIL
100
AcDbCircle
 10
1975.500000000097
 20
36.40577482169465
 30
0.0
 40
5.0000000001
100
AcDbArc
 50
289.99999999998
 51
0.0
  0
LINE
  5
D6E
330
1F
100
AcDbEntity
  8
DETAIL
100
AcDbLine
 10
1928.789899283798
 20
67.29268828260166
 30
0.0
 11
1960.369697850201
 21
78.7867949646955
 31
0.0
  0
LINE
  5
D6F
330
1F
100
AcDbEntity
  8
BASIS
100
AcDbLine
 10
1848.374999999549
 20
36.5000000000021
 30
0.0
 11
1793.625000000451
 21
36.5000000000021
 31
0.0
  0
LINE
  5
D70
330
1F
100
AcDbEntity
  8
BASIS
100
AcDbLine
 10
1820.999999999997
 20
63.874999999551
 30
0.0
 11
1820.999999999997
 21
9.125000000453212
 31
0.0
  0
CIRCLE
  5
D71
330
1F
100
AcDbEntity
  8
DETAIL
100
AcDbCircle
 10
1820.999999999999
 20
36.50000000000181
 30
0.0
 40
5.0000000001
  0
CIRCLE
  5
D72
330
1F
100
AcDbEntity
  8
DETAIL
100
AcDbCircle
 10
1820.999999999999
 20
36.50000000000181
 30
0.0
 40
18.24999999969999
  0
LINE
  5
D73
330
1F
100
AcDbEntity
  8
DETAIL
100
AcDbLine
 10
1800.548571428404
 20
-16.90000000009757
 30
0.0
 11
1789.999999999997
 21
-16.90000000009757
 31
0.0
  0
LINE
  5
D74
330
1F
100
AcDbEntity
  8
DETAIL
100
AcDbLine
 10
1800.548571428404
 20
-16.90000000009757
 30
0.0
 11
1816.0
 21
0.0000000000021032
 31
0.0
  0
LINE
  5
D75
330
1F
100
AcDbEntity
  8
DETAIL
100
AcDbLine
 10
1816.0
 20
18.94829068184691
 30
0.0
 11
1816.0
 21
0.0000000000021032
 31
0.0
  0
LINE
  5
D76
330
1F
100
AcDbEntity
  8
BASIS
100
AcDbLine
 10
1914.0
 20
99.5000000000021
 30
0.0
 11
1872.0
 21
99.5000000000021
 31
0.0
  0
LINE
  5
D77
330
1F
100
AcDbEntity
  8
BASIS
100
AcDbLine
 10
1905.375000000302
 20
179.5000000000021
 30
0.0
 11
1880.624999999698
 21
179.5000000000021
 31
0.0
  0
LINE
  5
D78
330
1F
100
AcDbEntity
  8
BASIS
100
AcDbLine
 10
1893.0
 20
191.8750000003004
 30
0.0
 11
1893.0
 21
167.1251491251262
 31
0.0
  0
CIRCLE
  5
D79
330
1F
100
AcDbEntity
  8
DETAIL
100
AcDbCircle
 10
1892.999999999999
 20
99.50000000000182
 30
0.0
 40
6.349999999999999
  0
CIRCLE
  5
D7A
330
1F
100
AcDbEntity
  8
DETAIL
100
AcDbCircle
 10
1892.999999999999
 20
99.50000000000182
 30
0.0
 40
14.0
  0
CIRCLE
  5
D7B
330
1F
100
AcDbEntity
  8
DETAIL
100
AcDbCircle
 10
1892.999999999999
 20
99.50000000000182
 30
0.0
 40
12.49999999989999
  0
CIRCLE
  5
D7C
330
1F
100
AcDbEntity
  8
DETAIL
100
AcDbCircle
 10
1892.999999999999
 20
99.50000000000182
 30
0.0
 40
12.49999999989999
  0
CIRCLE
  5
D7D
330
1F
100
AcDbEntity
  8
DETAIL
100
AcDbCircle
 10
1892.999999999999
 20
179.5000000000018
 30
0.0
 40
8.2500000002
  0
CIRCLE
  5
D7E
330
1F
100
AcDbEntity
  8
DETAIL
100
AcDbCircle
 10
1892.999999999999
 20
179.5000000000018
 30
0.0
 40
3.2
  0
CIRCLE
  5
D7F
330
1F
100
AcDbEntity
  8
DETAIL
100
AcDbCircle
 10
1892.999999999999
 20
179.5000000000018
 30
0.0
 40
8.2500000002
  0
LINE
  5
D80
330
1F
100
AcDbEntity
  8
BASIS
100
AcDbLine
 10
1893.0
 20
120.5000000000021
 30
0.0
 11
1893.0
 21
78.50000000000211
 31
0.0
  0
CIRCLE
  5
D81
330
1F
100
AcDbEntity
  8
DETAIL
100
AcDbCircle
 10
1892.999999999999
 20
179.5000000000018
 30
0.0
 40
6.7500000002
  0
LINE
  5
D82
330
1F
100
AcDbEntity
  8
DETAIL
100
AcDbLine
 10
1888.0
 20
69.5000000000021
 30
0.0
 11
1816.000000000004
 21
66.5000000000021
 31
0.0
  0
LINE
  5
D83
330
1F
100
AcDbEntity
  8
DETAIL
100
AcDbLine
 10
1888.0
 20
86.4233031693787
 30
0.0
 11
1888.0
 21
69.5000000000021
 31
0.0
  0
LINE
  5
D84
330
1F
100
AcDbEntity
  8
DETAIL
100
AcDbLine
 10
1893.0
 20
113.5000000000021
 30
0.0
 11
1893.0
 21
171.249999999802
 31
0.0
  0
LINE
  5
D85
330
1F
100
AcDbEntity
  8
DETAIL
100
AcDbLine
 10
1888.0
 20
204.5000000000021
 30
0.0
 11
1816.000000000004
 21
207.5000000000021
 31
0.0
  0
LINE
  5
D86
330
1F
100
AcDbEntity
  8
DETAIL
100
AcDbLine
 10
1888.0
 20
186.0622023744566
 30
0.0
 11
1888.0
 21
204.5000000000021
 31
0.0
  0
CIRCLE
  5
D87
330
1F
100
AcDbEntity
  8
FIX
100
AcDbCircle
 10
1943.0
 20
255.5000000000018
 30
0.0
 40
20.0
  0
LINE
  5
D88
330
1F
100
AcDbEntity
  8
BASIS
100
AcDbLine
 10
1907.000000000004
 20
255.5000000000021
 30
0.0
 11
1979.000000000004
 21
255.5000000000021
 31
0.0
  0
CIRCLE
  5
D89
330
1F
100
AcDbEntity
  8
FIX
100
AcDbCircle
 10
1942.999999999999
 20
-255.4999999999981
 30
0.0
 40
20.0
  0
LINE
  5
D8A
330
1F
100
AcDbEntity
  8
BASIS
100
AcDbLine
 10
1907.000000000004
 20
-255.4999999999978
 30
0.0
 11
1979.000000000004
 21
-255.4999999999978
 31
0.0
  0
CIRCLE
  5
D8B
330
1F
100
AcDbEntity
  8
NOTE
100
AcDbCircle
 10
2121.239900127248
 20
591.7586649992927
 30
0.0
 40
12.97562245034943
  0
LINE
  5
D8C
330
1F
100
AcDbEntity
  8
NOTE
100
AcDbLine
 10
2145.781499775036
 20
586.3762785553529
 30
0.0
 11
2099.486712924543
 21
596.731382545616
 31
0.0
  0
CIRCLE
  5
D8D
330
1F
100
AcDbEntity
  8
NOTE
100
AcDbCircle
 10
1911.243907581066
 20
749.6184035275246
 30
0.0
 40
12.97562245034943
  0
LINE
  5
D8E
330
1F
100
AcDbEntity
  8
NOTE
100
AcDbLine
 10
1935.785507228854
 20
744.2360170835847
 30
0.0
 11
1889.490720378361
 21
754.5911210738479
 31
0.0
  0
LINE
  5
D8F
330
1F
100
AcDbEntity
  8
SIZE
 48
40.0
100
AcDbLine
 10
1789.999999999997
 20
-332.4999999999978
 30
0.0
 11
1789.999999999997
 21
-397.1825824215972
 31
0.0
  0
LINE
  5
D90
330
1F
100
AcDbEntity
  8
SIZE
 48
40.0
100
AcDbLine
 10
1822.999999999996
 20
-331.500000000147
 30
0.0
 11
1822.999999999996
 21
-397.1825824215972
 31
0.0
  0
LINE
  5
D91
330
1F
100
AcDbEntity
  8
SIZE
 48
40.0
100
AcDbLine
 10
1789.999999999997
 20
-387.1825824215972
 30
0.0
 11
1749.999999999996
 21
-387.1825824215972
 31
0.0
  0
LINE
  5
D92
330
1F
100
AcDbEntity
  8
SIZE
 48
40.0
100
AcDbLine
 10
1822.999999999996
 20
-387.1825824215972
 30
0.0
 11
1915.953615279669
 21
-387.1825824215972
 31
0.0
  0
LINE
  5
D93
330
1F
100
AcDbEntity
  8
SIZE
 48
40.0
100
AcDbLine
 10
1789.999999999997
 20
-387.1825824215972
 30
0.0
 11
1822.999999999996
 21
-387.1825824215972
 31
0.0
  0
LINE
  5
D94
330
1F
100
AcDbEntity
  8
SIZE
 48
40.0
100
AcDbLine
 10
2010.000000000004
 20
-322.4999999999979
 30
0.0
 11
2310.646121428471
 21
-322.4999999999979
 31
0.0
  0
LINE
  5
D95
330
1F
100
AcDbEntity
  8
SIZE
 48
40.0
100
AcDbLine
 10
1915.375000000302
 20
179.5000000000021
 30
0.0
 11
2310.646121428471
 21
179.5000000000021
 31
0.0
  0
LINE
  5
D96
330
1F
100
AcDbEntity
  8
SIZE
 48
40.0
100
AcDbLine
 10
2010.000000000004
 20
-322.4999999999979
 30
0.0
 11
2259.390452397586
 21
-322.4999999999979
 31
0.0
  0
LINE
  5
D97
330
1F
100
AcDbEntity
  8
SIZE
 48
40.0
100
AcDbLine
 10
1924.0
 20
99.5000000000021
 30
0.0
 11
2259.390452397586
 21
99.5000000000021
 31
0.0
  0
LINE
  5
D98
330
1F
100
AcDbEntity
  8
SIZE
 48
40.0
100
AcDbLine
 10
2010.000000000004
 20
-322.4999999999979
 30
0.0
 11
2210.226437618293
 21
-322.4999999999979
 31
0.0
  0
LINE
  5
D99
330
1F
100
AcDbEntity
  8
SIZE
 48
40.0
100
AcDbLine
 10
1985.499999999553
 20
49.5000000000021
 30
0.0
 11
2210.226437618293
 21
49.5000000000021
 31
0.0
  0
LINE
  5
D9A
330
1F
100
AcDbEntity
  8
SIZE
 48
40.0
100
AcDbLine
 10
2010.000000000004
 20
-322.4999999999979
 30
0.0
 11
2163.960745453579
 21
-322.4999999999979
 31
0.0
  0
LINE
  5
D9B
330
1F
100
AcDbEntity
  8
SIZE
 48
40.0
100
AcDbLine
 10
1858.374999999549
 20
36.5000000000021
 30
0.0
 11
2163.960745453579
 21
36.5000000000021
 31
0.0
  0
LINE
  5
D9C
330
1F
100
AcDbEntity
  8
SIZE
 48
40.0
100
AcDbLine
 10
2010.000000000004
 20
-322.4999999999979
 30
0.0
 11
2116.117274602104
 21
-322.4999999999979
 31
0.0
  0
LINE
  5
D9D
330
1F
100
AcDbEntity
  8
SIZE
 48
40.0
100
AcDbLine
 10
1872.000000000149
 20
-282.4999999999978
 30
0.0
 11
2116.117274602104
 21
-282.4999999999978
 31
0.0
  0
LINE
  5
D9E
330
1F
100
AcDbEntity
  8
SIZE
 48
40.0
100
AcDbLine
 10
2106.117274602104
 20
-322.4999999999979
 30
0.0
 11
2106.117274602104
 21
-362.4999999999979
 31
0.0
  0
LINE
  5
D9F
330
1F
100
AcDbEntity
  8
SIZE
 48
40.0
100
AcDbLine
 10
2106.117274602104
 20
-282.4999999999978
 30
0.0
 11
2106.117274602104
 21
-188.4208731241457
 31
0.0
  0
LINE
  5
DA0
330
1F
100
AcDbEntity
  8
SIZE
 48
40.0
100
AcDbLine
 10
2106.117274602104
 20
-322.4999999999979
 30
0.0
 11
2106.117274602104
 21
-282.4999999999978
 31
0.0
  0
LINE
  5
DA1
330
1F
100
AcDbEntity
  8
SIZE
 48
40.0
100
AcDbLine
 10
1790.0
 20
332.5000000000021
 30
0.0
 11
1790.0
 21
395.2132952309305
 31
0.0
  0
LINE
  5
DA2
330
1F
100
AcDbEntity
  8
SIZE
 48
40.0
100
AcDbLine
 10
1893.0
 20
201.8750000003004
 30
0.0
 11
1893.0
 21
395.2132952309305
 31
0.0
  0
LINE
  5
DA3
330
1F
100
AcDbEntity
  8
SIZE
 48
40.0
100
AcDbLine
 10
1820.999999999997
 20
-0.8749999995467874
 30
0.0
 11
1820.999999999997
 21
-106.9101985227486
 31
0.0
  0
LINE
  5
DA4
330
1F
100
AcDbEntity
  8
SIZE
 48
40.0
100
AcDbLine
 10
1789.999999999998
 20
-9.999999999997896
 30
0.0
 11
1789.999999999998
 21
-106.9101985227486
 31
0.0
  0
LINE
  5
DA5
330
1F
100
AcDbEntity
  8
SIZE
 48
40.0
100
AcDbLine
 10
1820.999999999997
 20
-96.91019852274866
 30
0.0
 11
1860.999999999996
 21
-96.91019852274866
 31
0.0
  0
LINE
  5
DA6
330
1F
100
AcDbEntity
  8
SIZE
 48
40.0
100
AcDbLine
 10
1789.999999999998
 20
-96.91019852274866
 30
0.0
 11
1722.837653478852
 21
-96.91019852274866
 31
0.0
  0
LINE
  5
DA7
330
1F
100
AcDbEntity
  8
SIZE
 48
40.0
100
AcDbLine
 10
1820.999999999997
 20
-96.91019852274866
 30
0.0
 11
1789.999999999998
 21
-96.91019852274866
 31
0.0
  0
TEXT
  5
DA8
330
1F
100
AcDbEntity
  8
SIZE
100
AcDbText
 10
1898.683981769013
 20
-393.2620580671164
 30
0.0
 40
30.0
  1
33
 50
180.0
  7
KAIGAI
100
AcDbText
  0
LINE
  5
DA9
330
1F
100
AcDbEntity
  8
SIZE
100
AcDbLine
 10
1842.999999999996
 20
-392.541566221597
 30
0.0
 11
1822.999999999996
 21
-387.1825824215972
 31
0.0
  0
LINE
  5
DAA
330
1F
100
AcDbEntity
  8
SIZE
100
AcDbLine
 10
1822.999999999996
 20
-387.1825824215972
 30
0.0
 11
1842.999999999996
 21
-381.8235986215974
 31
0.0
  0
LINE
  5
DAB
330
1F
100
AcDbEntity
  8
SIZE
100
AcDbLine
 10
1769.999999999996
 20
-381.8235986215974
 30
0.0
 11
1789.999999999997
 21
-387.1825824215972
 31
0.0
  0
LINE
  5
DAC
330
1F
100
AcDbEntity
  8
SIZE
100
AcDbLine
 10
1789.999999999997
 20
-387.1825824215972
 30
0.0
 11
1769.999999999996
 21
-392.541566221597
 31
0.0
  0
LINE
  5
DAD
330
1F
100
AcDbEntity
  8
SIZE
 48
40.0
100
AcDbLine
 10
1952.999999999996
 20
17.00000000044957
 30
0.0
 11
1952.999999999996
 21
-442.0043829850789
 31
0.0
  0
LINE
  5
DAE
330
1F
100
AcDbEntity
  8
SIZE
 48
40.0
100
AcDbLine
 10
1789.999999999997
 20
-332.4999999999978
 30
0.0
 11
1789.999999999997
 21
-442.0043829850789
 31
0.0
  0
TEXT
  5
DAF
330
1F
100
AcDbEntity
  8
SIZE
100
AcDbText
 10
1908.153944861306
 20
-443.8064965825615
 30
0.0
 40
30.0
  1
163
 50
180.0
  7
KAIGAI
100
AcDbText
  0
LINE
  5
DB0
330
1F
100
AcDbEntity
  8
SIZE
100
AcDbLine
 10
1809.999999999996
 20
-437.3633667850787
 30
0.0
 11
1789.999999999997
 21
-432.0043829850789
 31
0.0
  0
LINE
  5
DB1
330
1F
100
AcDbEntity
  8
SIZE
100
AcDbLine
 10
1789.999999999997
 20
-432.0043829850789
 30
0.0
 11
1809.999999999996
 21
-426.6453991850791
 31
0.0
  0
LINE
  5
DB2
330
1F
100
AcDbEntity
  8
SIZE
100
AcDbLine
 10
1932.999999999997
 20
-426.6453991850791
 30
0.0
 11
1952.999999999996
 21
-432.0043829850789
 31
0.0
  0
LINE
  5
DB3
330
1F
100
AcDbEntity
  8
SIZE
100
AcDbLine
 10
1952.999999999996
 20
-432.0043829850789
 30
0.0
 11
1932.999999999997
 21
-437.3633667850787
 31
0.0
  0
TEXT
  5
DB4
330
1F
100
AcDbEntity
  8
SIZE
100
AcDbText
 10
1766.19491323063
 20
-104.4594239796833
 30
0.0
 40
30.0
  1
31
 50
180.0
  7
KAIGAI
100
AcDbText
  0
LINE
  5
DB5
330
1F
100
AcDbEntity
  8
SIZE
100
AcDbLine
 10
1769.999999999998
 20
-91.55121472274794
 30
0.0
 11
1789.999999999998
 21
-96.91019852274866
 31
0.0
  0
LINE
  5
DB6
330
1F
100
AcDbEntity
  8
SIZE
100
AcDbLine
 10
1789.999999999998
 20
-96.91019852274866
 30
0.0
 11
1769.999999999998
 21
-102.2691823227484
 31
0.0
  0
LINE
  5
DB7
330
1F
100
AcDbEntity
  8
SIZE
100
AcDbLine
 10
1840.999999999996
 20
-102.2691823227484
 30
0.0
 11
1820.999999999997
 21
-96.91019852274866
 31
0.0
  0
LINE
  5
DB8
330
1F
100
AcDbEntity
  8
SIZE
100
AcDbLine
 10
1820.999999999997
 20
-96.91019852274866
 30
0.0
 11
1840.999999999996
 21
-91.55121472274885
 31
0.0
  0
TEXT
  5
DB9
330
1F
100
AcDbEntity
  8
SIZE
100
AcDbText
 10
1882.515813132427
 20
375.5259024337856
 30
0.0
 40
30.0
  1
103
 50
180.0
  7
KAIGAI
100
AcDbText
  0
LINE
  5
DBA
330
1F
100
AcDbEntity
  8
SIZE
100
AcDbLine
 10
1873.0
 20
390.5722790309303
 30
0.0
 11
1893.0
 21
385.2132952309305
 31
0.0
  0
LINE
  5
DBB
330
1F
100
AcDbEntity
  8
SIZE
100
AcDbLine
 10
1893.0
 20
385.2132952309305
 30
0.0
 11
1873.0
 21
379.8543114309307
 31
0.0
  0
LINE
  5
DBC
330
1F
100
AcDbEntity
  8
SIZE
100
AcDbLine
 10
1810.0
 20
379.8543114309307
 30
0.0
 11
1790.0
 21
385.2132952309305
 31
0.0
  0
LINE
  5
DBD
330
1F
100
AcDbEntity
  8
SIZE
100
AcDbLine
 10
1790.0
 20
385.2132952309305
 30
0.0
 11
1810.0
 21
390.5722790309303
 31
0.0
  0
TEXT
  5
DBE
330
1F
100
AcDbEntity
  8
SIZE
100
AcDbText
 10
2100.605678422021
 20
-238.0320600272834
 30
0.0
 40
30.0
  1
40
 50
90.0
  7
KAIGAI
100
AcDbText
  0
LINE
  5
DBF
330
1F
100
AcDbEntity
  8
SIZE
100
AcDbLine
 10
2111.476258402104
 20
-262.4999999999979
 30
0.0
 11
2106.117274602104
 21
-282.4999999999978
 31
0.0
  0
LINE
  5
DC0
330
1F
100
AcDbEntity
  8
SIZE
100
AcDbLine
 10
2106.117274602104
 20
-282.4999999999978
 30
0.0
 11
2100.758290802104
 21
-262.4999999999979
 31
0.0
  0
LINE
  5
DC1
330
1F
100
AcDbEntity
  8
SIZE
100
AcDbLine
 10
2100.758290802104
 20
-342.4999999999978
 30
0.0
 11
2106.117274602104
 21
-322.4999999999979
 31
0.0
  0
LINE
  5
DC2
330
1F
100
AcDbEntity
  8
SIZE
100
AcDbLine
 10
2106.117274602104
 20
-322.4999999999979
 30
0.0
 11
2111.476258402104
 21
-342.4999999999978
 31
0.0
  0
TEXT
  5
DC3
330
1F
100
AcDbEntity
  8
SIZE
100
AcDbText
 10
2148.428685426293
 20
-177.9215552523855
 30
0.0
 40
30.0
  1
359
 50
90.0
  7
KAIGAI
100
AcDbText
  0
LINE
  5
DC4
330
1F
100
AcDbEntity
  8
SIZE
100
AcDbLine
 10
2148.601761653579
 20
16.5000000000021
 30
0.0
 11
2153.960745453579
 21
36.5000000000021
 31
0.0
  0
LINE
  5
DC5
330
1F
100
AcDbEntity
  8
SIZE
100
AcDbLine
 10
2153.960745453579
 20
36.5000000000021
 30
0.0
 11
2159.319729253579
 21
16.5000000000021
 31
0.0
  0
LINE
  5
DC6
330
1F
100
AcDbEntity
  8
SIZE
100
AcDbLine
 10
2159.319729253579
 20
-302.4999999999979
 30
0.0
 11
2153.960745453579
 21
-322.4999999999979
 31
0.0
  0
LINE
  5
DC7
330
1F
100
AcDbEntity
  8
SIZE
100
AcDbLine
 10
2153.960745453579
 20
-322.4999999999979
 30
0.0
 11
2148.601761653579
 21
-302.4999999999979
 31
0.0
  0
TEXT
  5
DC8
330
1F
100
AcDbEntity
  8
SIZE
100
AcDbText
 10
2194.694377591007
 20
-171.2373806275563
 30
0.0
 40
30.0
  1
372
 50
90.0
  7
KAIGAI
100
AcDbText
  0
LINE
  5
DC9
330
1F
100
AcDbEntity
  8
SIZE
100
AcDbLine
 10
2194.867453818293
 20
29.5000000000021
 30
0.0
 11
2200.226437618293
 21
49.5000000000021
 31
0.0
  0
LINE
  5
DCA
330
1F
100
AcDbEntity
  8
SIZE
100
AcDbLine
 10
2200.226437618293
 20
49.5000000000021
 30
0.0
 11
2205.585421418293
 21
29.5000000000021
 31
0.0
  0
LINE
  5
DCB
330
1F
100
AcDbEntity
  8
SIZE
100
AcDbLine
 10
2205.585421418293
 20
-302.4999999999979
 30
0.0
 11
2200.226437618293
 21
-322.4999999999979
 31
0.0
  0
LINE
  5
DCC
330
1F
100
AcDbEntity
  8
SIZE
100
AcDbLine
 10
2200.226437618293
 20
-322.4999999999979
 30
0.0
 11
2194.867453818293
 21
-302.4999999999979
 31
0.0
  0
TEXT
  5
DCD
330
1F
100
AcDbEntity
  8
SIZE
100
AcDbText
 10
2244.390452397586
 20
-145.6234652114581
 30
0.0
 40
30.0
  1
422
 50
90.0
  7
KAIGAI
100
AcDbText
  0
LINE
  5
DCE
330
1F
100
AcDbEntity
  8
SIZE
100
AcDbLine
 10
2244.031468597586
 20
79.5000000000021
 30
0.0
 11
2249.390452397586
 21
99.5000000000021
 31
0.0
  0
LINE
  5
DCF
330
1F
100
AcDbEntity
  8
SIZE
100
AcDbLine
 10
2249.390452397586
 20
99.5000000000021
 30
0.0
 11
2254.749436197586
 21
79.5000000000021
 31
0.0
  0
LINE
  5
DD0
330
1F
100
AcDbEntity
  8
SIZE
100
AcDbLine
 10
2254.749436197586
 20
-302.4999999999979
 30
0.0
 11
2249.390452397586
 21
-322.4999999999979
 31
0.0
  0
LINE
  5
DD1
330
1F
100
AcDbEntity
  8
SIZE
100
AcDbLine
 10
2249.390452397586
 20
-322.4999999999979
 30
0.0
 11
2244.031468597586
 21
-302.4999999999979
 31
0.0
  0
TEXT
  5
DD2
330
1F
100
AcDbEntity
  8
SIZE
100
AcDbText
 10
2295.134525248389
 20
-106.2271487039543
 30
0.0
 40
30.0
  1
502
 50
90.0
  7
KAIGAI
100
AcDbText
  0
LINE
  5
DD3
330
1F
100
AcDbEntity
  8
SIZE
100
AcDbLine
 10
2295.287137628471
 20
159.5000000000021
 30
0.0
 11
2300.646121428471
 21
179.5000000000021
 31
0.0
  0
LINE
  5
DD4
330
1F
100
AcDbEntity
  8
SIZE
100
AcDbLine
 10
2300.646121428471
 20
179.5000000000021
 30
0.0
 11
2306.005105228471
 21
159.5000000000021
 31
0.0
  0
LINE
  5
DD5
330
1F
100
AcDbEntity
  8
SIZE
100
AcDbLine
 10
2306.005105228471
 20
-302.4999999999979
 30
0.0
 11
2300.646121428471
 21
-322.4999999999979
 31
0.0
  0
LINE
  5
DD6
330
1F
100
AcDbEntity
  8
SIZE
100
AcDbLine
 10
2300.646121428471
 20
-322.4999999999979
 30
0.0
 11
2295.287137628471
 21
-302.4999999999979
 31
0.0
  0
LINE
  5
DD7
330
1F
100
AcDbEntity
  8
SIZE
 48
40.0
100
AcDbLine
 10
1952.999999999996
 20
-432.0043829850789
 30
0.0
 11
1789.999999999997
 21
-432.0043829850789
 31
0.0
  0
LINE
  5
DD8
330
1F
100
AcDbEntity
  8
SIZE
 48
40.0
100
AcDbLine
 10
1893.0
 20
385.2132952309305
 30
0.0
 11
1790.0
 21
385.2132952309305
 31
0.0
  0
LINE
  5
DD9
330
1F
100
AcDbEntity
  8
SIZE
 48
40.0
100
AcDbLine
 10
2300.646121428471
 20
179.5000000000021
 30
0.0
 11
2300.646121428471
 21
-322.4999999999979
 31
0.0
  0
LINE
  5
DDA
330
1F
100
AcDbEntity
  8
SIZE
 48
40.0
100
AcDbLine
 10
2249.390452397586
 20
-322.4999999999979
 30
0.0
 11
2249.390452397586
 21
99.5000000000021
 31
0.0
  0
LINE
  5
DDB
330
1F
100
AcDbEntity
  8
SIZE
 48
40.0
100
AcDbLine
 10
2200.226437618293
 20
49.5000000000021
 30
0.0
 11
2200.226437618293
 21
-322.4999999999979
 31
0.0
  0
LINE
  5
DDC
330
1F
100
AcDbEntity
  8
SIZE
 48
40.0
100
AcDbLine
 10
2153.960745453579
 20
-322.4999999999979
 30
0.0
 11
2153.960745453579
 21
36.5000000000021
 31
0.0
  0
LINE
  5
DDD
330
1F
100
AcDbEntity
  8
NOTE
100
AcDbLine
 10
1953.348583428465
 20
13.79741086362292
 30
0.0
 11
1952.999999999995
 21
34.50000000030041
 31
0.0
  0
LINE
  5
DDE
330
1F
100
AcDbEntity
  8
NOTE
100
AcDbLine
 10
1952.999999999995
 20
34.50000000030041
 30
0.0
 11
1963.653176592182
 21
16.74532354973172
 31
0.0
  0
LINE
  5
DDF
330
1F
100
AcDbEntity
  8
NOTE
100
AcDbLine
 10
1902.493488694408
 20
206.1508798644311
 30
0.0
 11
1893.0
 21
187.7500000002021
 31
0.0
  0
LINE
  5
DE0
330
1F
100
AcDbEntity
  8
NOTE
100
AcDbLine
 10
1893.0
 20
187.7500000002021
 30
0.0
 11
1892.02116254161
 21
208.4323737662546
 31
0.0
  0
LINE
  5
DE1
330
1F
100
AcDbEntity
  8
NOTE
100
AcDbLine
 10
1926.363535412863
 20
106.8329532716027
 30
0.0
 11
1907.0
 21
99.5000000000021
 31
0.0
  0
LINE
  5
DE2
330
1F
100
AcDbEntity
  8
NOTE
100
AcDbLine
 10
1907.0
 20
99.5000000000021
 30
0.0
 11
1920.102837011549
 21
115.5322914649626
 31
0.0
  0
LINE
  5
DE3
330
1F
100
AcDbEntity
  8
NOTE
 48
40.0
100
AcDbLine
 10
1952.999999999996
 20
34.50000000027313
 30
0.0
 11
2094.875132821158
 21
-461.4324374356971
 31
0.0
1001
ACAD
1000
DSTYLE
1002
{
1070
   147
1040
5.0
1070
    77
1070
     0
1002
}
  0
LINE
  5
DE4
330
1F
100
AcDbEntity
  8
NOTE
 48
40.0
100
AcDbLine
 10
2094.875132821158
 20
-461.4324374356971
 30
0.0
 11
2094.875132821158
 21
-731.3770389752924
 31
0.0
1001
ACAD
1000
DSTYLE
1002
{
1070
   147
1040
5.0
1070
    77
1070
     0
1002
}
  0
LINE
  5
DE5
330
1F
100
AcDbEntity
  8
NOTE
 48
40.0
100
AcDbLine
 10
1893.0
 20
187.7500000002021
 30
0.0
 11
1945.892978213283
 21
430.5350096816122
 31
0.0
1001
ACAD
1000
DSTYLE
1002
{
1070
   147
1040
5.0
1070
    77
1070
     0
1002
}
  0
LINE
  5
DE6
330
1F
100
AcDbEntity
  8
NOTE
 48
40.0
100
AcDbLine
 10
1945.892978213283
 20
430.5350096816122
 30
0.0
 11
1945.892978213283
 21
837.9860379278481
 31
0.0
1001
ACAD
1000
DSTYLE
1002
{
1070
   147
1040
5.0
1070
    77
1070
     0
1002
}
  0
LINE
  5
DE7
330
1F
100
AcDbEntity
  8
NOTE
 48
40.0
100
AcDbLine
 10
1907.0
 20
99.5000000000021
 30
0.0
 11
2147.388904299528
 21
272.5019451353594
 31
0.0
1001
ACAD
1000
DSTYLE
1002
{
1070
   147
1040
5.0
1070
    77
1070
     0
1002
}
  0
LINE
  5
DE8
330
1F
100
AcDbEntity
  8
NOTE
 48
40.0
100
AcDbLine
 10
2147.388904299528
 20
272.5019451353594
 30
0.0
 11
2147.388904299528
 21
682.4194319409518
 31
0.0
1001
ACAD
1000
DSTYLE
1002
{
1070
   147
1040
5.0
1070
    77
1070
     0
1002
}
  0
VIEWPORT
  5
6B
330
50
100
AcDbEntity
 67
     1
  8
0
100
AcDbViewport
 10
133.3499908447265
 20
101.5999970436096
 30
0.0
 40
381.3957395593834
 41
218.2856291881582
 68
     1
 69
     1
1001
ACAD
1000
MVIEW
1002
{
1070
    16
1010
0.0
1020
0.0
1030
0.0
1010
0.0
1020
0.0
1030
1.0
1040
0.0
1040
218.2856291881582
1040
133.3499908447265
1040
101.5999970436096
1040
50.0
1040
0.0
1040
0.0
1070
     0
1070
   100
1070
     1
1070
     1
1070
     0
1070
     0
1070
     0
1070
     0
1040
0.0
1040
0.0
1040
0.0
1040
10.0
1040
10.0
1040
10.0
1040
10.0
1070
     0
1002
{
1002
}
1002
}
  0
VIEWPORT
  5
6D
330
50
100
AcDbEntity
 67
     1
  8
0
100
AcDbViewport
 10
133.349993944168
 20
101.599993944168
 30
0.0
 40
213.3599903106689
 41
162.5599903106689
 68
    -1
 69
     2
1001
ACAD
1000
MVIEW
1002
{
1070
    16
1010
0.0
1020
0.0
1030
0.0
1010
0.0
1020
0.0
1030
1.0
1040
0.0
1040
324.0677920111345
1040
210.0
1040
148.5
1040
50.0
1040
0.0
1040
0.0
1070
     0
1070
   100
1070
     1
1070
     3
1070
     0
1070
     0
1070
     0
1070
     0
1040
0.0
1040
0.0
1040
0.0
1040
10.0
1040
10.0
1040
10.0
1040
10.0
1070
     0
1002
{
1002
}
1002
}
  0
ENDSEC
  0
SECTION
  2
OBJECTS
  0
DICTIONARY
  5
C
330
0
100
AcDbDictionary
  3
ACAD_GROUP
350
D
  3
ACAD_LAYOUT
350
1A
  3
ACAD_MLINESTYLE
350
17
  3
ACAD_PLOTSETTINGS
350
19
1001
ACAD
1000
TREAT_AS_HARD
1070
     0
  0
DICTIONARY
  5
8A
330
2
100
AcDbDictionary
  3
ACAD_LAYERFILTERS
350
8B
  3
ACAD_LAYERSTATES
350
A1
1001
ACAD
1000
TREAT_AS_HARD
1070
     1
  0
DICTIONARY
  5
C08
330
1F
100
AcDbDictionary
  3
ACAD_LAYOUTSELFREF
350
E0F
  3
ACAD_SORTENTS
350
C09
1001
ACAD
1000
TREAT_AS_HARD
1070
     1
  0
DICTIONARY
  5
E10
330
50
100
AcDbDictionary
  3
ACAD_LAYOUTSELFREF
350
E11
  0
DICTIONARY
  5
D
102
{ACAD_REACTORS
330
C
102
}
330
C
100
AcDbDictionary
1001
ACAD
1000
TREAT_AS_HARD
1070
     0
  0
DICTIONARY
  5
1A
102
{ACAD_REACTORS
330
C
102
}
330
C
100
AcDbDictionary
1001
ACAD
1000
TREAT_AS_HARD
1070
     0
  0
DICTIONARY
  5
17
102
{ACAD_REACTORS
330
C
102
}
330
C
100
AcDbDictionary
  3
STANDARD
350
18
1001
ACAD
1000
TREAT_AS_HARD
1070
     0
  0
DICTIONARY
  5
19
102
{ACAD_REACTORS
330
C
102
}
330
C
100
AcDbDictionary
1001
ACAD
1000
TREAT_AS_HARD
1070
     0
  0
DICTIONARY
  5
8B
102
{ACAD_REACTORS
330
8A
102
}
330
8A
100
AcDbDictionary
  3
MOTO
350
8C
  3
元図
350
8D
1001
ACAD
1000
TREAT_AS_HARD
1070
     1
  0
DICTIONARY
  5
A1
102
{ACAD_REACTORS
330
8A
102
}
330
8A
100
AcDbDictionary
1001
ACAD
1000
TREAT_AS_HARD
1070
     0
  0
XRECORD
  5
E0F
102
{ACAD_REACTORS
330
C08
102
}
330
C08
100
AcDbXrecord
340
1F
  0
SORTENTSTABLE
  5
C09
102
{ACAD_REACTORS
330
C08
102
}
330
C08
100
AcDbSortentsTable
330
1F
331
808
  5
829
331
7B3
  5
7AC
331
794
  5
78D
331
756
  5
750
331
720
  5
71A
331
6E2
  5
6E3
331
6AC
  5
6AD
331
66E
  5
66F
331
68D
  5
68E
331
6CB
  5
6CC
331
701
  5
6FB
331
73F
  5
739
331
775
  5
76E
331
7CA
  5
7C3
331
DE5
  5
DE5
331
DC6
  5
DC6
331
828
  5
849
331
809
  5
82A
331
7CB
  5
7C4
331
795
  5
78E
331
776
  5
76F
331
740
  5
73A
331
721
  5
71B
331
6CC
  5
6CD
331
66F
  5
670
331
68E
  5
68F
331
6AD
  5
6AE
331
6E3
  5
6E4
331
702
  5
6FC
331
757
  5
751
331
7B4
  5
7AD
331
DE6
  5
DE6
331
DC7
  5
DC7
331
840
  5
861
331
829
  5
84A
331
80A
  5
82B
331
7EB
  5
80C
331
7B5
  5
7AE
331
796
  5
78F
331
758
  5
752
331
722
  5
71C
331
703
  5
6FD
331
6CD
  5
6CE
331
6AE
  5
6AF
331
670
  5
671
331
68F
  5
690
331
6E4
  5
6E5
331
741
  5
73B
331
777
  5
770
331
7CC
  5
7C5
331
DE7
  5
DE7
331
860
  5
881
331
841
  5
862
331
82A
  5
84B
331
80B
  5
82C
331
7CD
  5
7C6
331
7B6
  5
7AF
331
778
  5
771
331
742
  5
73C
331
723
  5
71D
331
6CE
  5
6CF
331
671
  5
672
331
690
  5
691
331
6AF
  5
6B0
331
6E5
  5
6E6
331
704
  5
6FE
331
759
  5
753
331
797
  5
790
331
7EC
  5
80D
331
880
  5
8A1
331
861
  5
882
331
842
  5
863
331
82B
  5
84C
331
80C
  5
82D
331
7ED
  5
80E
331
7B7
  5
7B0
331
798
  5
791
331
75A
  5
754
331
724
  5
71E
331
705
  5
6FF
331
6CF
  5
6D0
331
691
  5
692
331
672
  5
673
331
6B0
  5
6B1
331
6E6
  5
6E7
331
743
  5
73D
331
779
  5
772
331
7CE
  5
7C7
331
8A0
  5
8C1
331
881
  5
8A2
331
862
  5
883
331
843
  5
864
331
82C
  5
84D
331
80D
  5
82E
331
7CF
  5
7C8
331
7B8
  5
7B1
331
77A
  5
773
331
744
  5
73E
331
725
  5
71F
331
6D0
  5
6D1
331
673
  5
674
331
692
  5
693
331
6B1
  5
6B2
331
6E7
  5
6E8
331
706
  5
700
331
75B
  5
755
331
799
  5
792
331
7EE
  5
80F
331
8A1
  5
8C2
331
882
  5
8A3
331
844
  5
865
331
82D
  5
84E
331
80E
  5
82F
331
7EF
  5
810
331
7D0
  5
7C9
331
79A
  5
793
331
75C
  5
756
331
726
  5
720
331
707
  5
701
331
6D1
  5
6D2
331
693
  5
694
331
674
  5
675
331
6B2
  5
6B3
331
6E8
  5
6E9
331
745
  5
73F
331
77B
  5
774
331
7B9
  5
7B2
331
863
  5
884
331
920
  5
941
331
8A2
  5
8C3
331
883
  5
8A4
331
864
  5
885
331
845
  5
866
331
82E
  5
84F
331
80F
  5
830
331
7D1
  5
7CA
331
7BA
  5
7B3
331
77C
  5
775
331
746
  5
740
331
727
  5
721
331
6B3
  5
6B4
331
675
  5
676
331
694
  5
695
331
6D2
  5
6D3
331
6E9
  5
6EA
331
708
  5
702
331
75D
  5
757
331
79B
  5
794
331
7F0
  5
811
331
921
  5
942
331
940
  5
961
331
960
  5
981
331
884
  5
8A5
331
82F
  5
850
331
810
  5
831
331
7F1
  5
812
331
7D2
  5
7CB
331
79C
  5
795
331
75E
  5
758
331
747
  5
741
331
709
  5
703
331
6D3
  5
6D4
331
695
  5
696
331
676
  5
677
331
6B4
  5
6B5
331
6EA
  5
6EB
331
728
  5
722
331
77D
  5
776
331
7BB
  5
7B4
331
846
  5
867
331
865
  5
886
331
8A3
  5
8C4
331
922
  5
943
331
941
  5
962
331
980
  5
9A1
331
885
  5
8A6
331
830
  5
851
331
811
  5
832
331
7F2
  5
813
331
7BC
  5
7B5
331
79D
  5
796
331
77E
  5
777
331
748
  5
742
331
729
  5
723
331
6B5
  5
6B6
331
677
  5
678
331
696
  5
697
331
6D4
  5
6D5
331
70A
  5
704
331
75F
  5
759
331
7D3
  5
7CC
331
847
  5
868
331
866
  5
887
331
923
  5
944
331
942
  5
963
331
961
  5
982
331
998
  5
9B9
331
962
  5
983
331
886
  5
8A7
331
831
  5
852
331
812
  5
833
331
7F3
  5
814
331
7D4
  5
7CD
331
79E
  5
797
331
760
  5
75A
331
749
  5
743
331
70B
  5
705
331
697
  5
698
331
678
  5
679
331
6B6
  5
6B7
331
6D5
  5
6D6
331
72A
  5
724
331
77F
  5
778
331
7BD
  5
7B6
331
848
  5
869
331
867
  5
888
331
924
  5
945
331
943
  5
964
331
981
  5
9A2
331
999
  5
9BA
331
982
  5
9A3
331
887
  5
8A8
331
832
  5
853
331
813
  5
834
331
7F4
  5
815
331
7BE
  5
7B7
331
79F
  5
798
331
761
  5
75B
331
72B
  5
725
331
6B7
  5
6B8
331
679
  5
67A
331
698
  5
699
331
6D6
  5
6D7
331
70C
  5
706
331
74A
  5
744
331
780
  5
779
331
7D5
  5
7CE
331
849
  5
86A
331
868
  5
889
331
925
  5
946
331
944
  5
965
331
963
  5
984
331
9B8
  5
9D9
331
9D8
  5
9F9
331
99A
  5
9BB
331
983
  5
9A4
331
964
  5
985
331
888
  5
8A9
331
869
  5
88A
331
833
  5
854
331
814
  5
835
331
7D6
  5
7CF
331
7A0
  5
799
331
762
  5
75C
331
74B
  5
745
331
70D
  5
707
331
699
  5
69A
331
67A
  5
67B
331
6B8
  5
6B9
331
6D7
  5
6D8
331
72C
  5
726
331
781
  5
77A
331
7BF
  5
7B8
331
7F5
  5
816
331
84A
  5
86B
331
926
  5
947
331
945
  5
966
331
9B9
  5
9DA
331
9F8
  5
A19
331
9D9
  5
9FA
331
9BA
  5
9DB
331
984
  5
9A5
331
946
  5
967
331
889
  5
8AA
331
834
  5
855
331
815
  5
836
331
7F6
  5
817
331
7C0
  5
7B9
331
7A1
  5
79A
331
763
  5
75D
331
72D
  5
727
331
6B9
  5
6BA
331
67B
  5
67C
331
69A
  5
69B
331
70E
  5
708
331
74C
  5
746
331
782
  5
77B
331
7D7
  5
7D0
331
84B
  5
86C
331
86A
  5
88B
331
927
  5
948
331
965
  5
986
331
99B
  5
9BC
331
9F9
  5
A1A
331
9DA
  5
9FB
331
9BB
  5
9DC
331
985
  5
9A6
331
966
  5
987
331
947
  5
968
331
88A
  5
8AB
331
86B
  5
88C
331
835
  5
856
331
816
  5
837
331
7D8
  5
7D1
331
7A2
  5
79B
331
783
  5
77C
331
74D
  5
747
331
72E
  5
728
331
70F
  5
709
331
69B
  5
69C
331
67C
  5
67D
331
6BA
  5
6BB
331
764
  5
75E
331
7C1
  5
7BA
331
7F7
  5
818
331
84C
  5
86D
331
928
  5
949
331
99C
  5
9BD
331
A10
  5
A31
331
A30
  5
A51
331
9FA
  5
A1B
331
9DB
  5
9FC
331
9BC
  5
9DD
331
986
  5
9A7
331
948
  5
969
331
88B
  5
8AC
331
836
  5
857
331
817
  5
838
331
7F8
  5
819
331
7C2
  5
7BB
331
7A3
  5
79C
331
765
  5
75F
331
72F
  5
729
331
6BB
  5
6BC
331
67D
  5
67E
331
69C
  5
69D
331
710
  5
70A
331
74E
  5
748
331
784
  5
77D
331
7D9
  5
7D2
331
84D
  5
86E
331
86C
  5
88D
331
929
  5
94A
331
967
  5
988
331
99D
  5
9BE
331
A11
  5
A32
331
A50
  5
A71
331
A31
  5
A52
331
9FB
  5
A1C
331
9DC
  5
9FD
331
9BD
  5
9DE
331
987
  5
9A8
331
949
  5
96A
331
88C
  5
8AD
331
86D
  5
88E
331
837
  5
858
331
818
  5
839
331
7DA
  5
7D3
331
7A4
  5
79D
331
785
  5
77E
331
74F
  5
749
331
730
  5
72A
331
6F2
  5
6EC
331
69D
  5
69E
331
67E
  5
67F
331
6BC
  5
6BD
331
711
  5
70B
331
766
  5
760
331
7C3
  5
7BC
331
7F9
  5
81A
331
84E
  5
86F
331
92A
  5
94B
331
968
  5
989
331
99E
  5
9BF
331
A12
  5
A33
331
A51
  5
A72
331
A32
  5
A53
331
9FC
  5
A1D
331
9DD
  5
9FE
331
9BE
  5
9DF
331
988
  5
9A9
331
969
  5
98A
331
94A
  5
96B
331
88D
  5
8AE
331
838
  5
859
331
819
  5
83A
331
7FA
  5
81B
331
7C4
  5
7BD
331
7A5
  5
79E
331
767
  5
761
331
712
  5
70C
331
6BD
  5
6BE
331
67F
  5
680
331
69E
  5
69F
331
6F3
  5
6ED
331
731
  5
72B
331
786
  5
77F
331
7DB
  5
7D4
331
84F
  5
870
331
86E
  5
88F
331
92B
  5
94C
331
99F
  5
9C0
331
A13
  5
A34
331
A70
  5
7E6
331
A88
  5
A96
331
A52
  5
A73
331
A33
  5
A54
331
9FD
  5
A1E
331
9DE
  5
9FF
331
9BF
  5
9E0
331
989
  5
9AA
331
94B
  5
96C
331
86F
  5
890
331
839
  5
85A
331
81A
  5
83B
331
7DC
  5
7D5
331
7A6
  5
79F
331
787
  5
780
331
732
  5
72C
331
6F4
  5
6EE
331
69F
  5
6A0
331
6BE
  5
6BF
331
713
  5
70D
331
768
  5
762
331
7C5
  5
7BE
331
7FB
  5
81C
331
850
  5
871
331
88E
  5
8AF
331
92C
  5
94D
331
96A
  5
98B
331
9A0
  5
9C1
331
A14
  5
A35
331
A71
  5
7E7
331
A89
  5
A97
331
A53
  5
A74
331
A34
  5
A55
331
9FE
  5
A1F
331
9DF
  5
A00
331
9C0
  5
9E1
331
96B
  5
98C
331
94C
  5
96D
331
916
  5
937
331
88F
  5
8B0
331
83A
  5
85B
331
81B
  5
83C
331
7FC
  5
81D
331
7C6
  5
7BF
331
7A7
  5
7A0
331
769
  5
763
331
714
  5
70E
331
6BF
  5
6C0
331
6F5
  5
6EF
331
733
  5
72D
331
788
  5
781
331
7DD
  5
7D6
331
851
  5
872
331
870
  5
891
331
92D
  5
94E
331
98A
  5
9AB
331
9A1
  5
9C2
331
A15
  5
A36
331
A72
  5
7E8
331
AA8
  5
AB6
331
A8A
  5
A98
331
A54
  5
A75
331
A35
  5
A56
331
9FF
  5
A20
331
9E0
  5
A01
331
9C1
  5
9E2
331
98B
  5
9AC
331
94D
  5
96E
331
917
  5
938
331
871
  5
892
331
83B
  5
85C
331
81C
  5
83D
331
7DE
  5
7D7
331
7C7
  5
7C0
331
789
  5
782
331
734
  5
72E
331
6F6
  5
6F0
331
715
  5
70F
331
76A
  5
764
331
7A8
  5
7A1
331
7FD
  5
81E
331
852
  5
873
331
890
  5
8B1
331
92E
  5
94F
331
96C
  5
98D
331
9A2
  5
9C3
331
A16
  5
A37
331
A73
  5
7E9
331
AA9
  5
AB7
331
AC8
  5
AD6
331
B38
  5
B46
331
AC9
  5
AD7
331
A8B
  5
A99
331
A55
  5
A76
331
A17
  5
A38
331
A00
  5
A21
331
9A3
  5
9C4
331
96D
  5
98E
331
92F
  5
950
331
918
  5
939
331
891
  5
8B2
331
83C
  5
85D
331
81D
  5
83E
331
7FE
  5
81F
331
7A9
  5
7A2
331
76B
  5
765
331
716
  5
710
331
6F7
  5
6F1
331
735
  5
72F
331
78A
  5
783
331
7DF
  5
7D8
331
853
  5
874
331
872
  5
893
331
94E
  5
96F
331
98C
  5
9AD
331
9C2
  5
9E3
331
9E1
  5
A02
331
A36
  5
A57
331
A74
  5
7EA
331
AAA
  5
AB8
331
B50
  5
B5E
331
B39
  5
B47
331
ACA
  5
AD8
331
A8C
  5
A9A
331
A56
  5
A77
331
A18
  5
A39
331
A01
  5
A22
331
9E2
  5
A03
331
9A4
  5
9C5
331
98D
  5
9AE
331
94F
  5
970
331
930
  5
951
331
919
  5
93A
331
873
  5
894
331
83D
  5
85E
331
81E
  5
83F
331
7E0
  5
7D9
331
7AA
  5
7A3
331
78B
  5
784
331
736
  5
730
331
717
  5
711
331
76C
  5
658
331
7FF
  5
820
331
854
  5
875
331
892
  5
8B3
331
96E
  5
98F
331
9C3
  5
9E4
331
A37
  5
A58
331
A75
  5
7EB
331
AAB
  5
AB9
331
B70
  5
B7E
331
B51
  5
B5F
331
B3A
  5
B48
331
ACB
  5
AD9
331
AAC
  5
ABA
331
A57
  5
A78
331
A19
  5
A3A
331
A02
  5
A23
331
9E3
  5
A04
331
9A5
  5
9C6
331
98E
  5
9AF
331
96F
  5
990
331
950
  5
971
331
931
  5
952
331
91A
  5
93B
331
893
  5
8B4
331
83E
  5
85F
331
81F
  5
840
331
800
  5
821
331
7E1
  5
7DA
331
78C
  5
785
331
76D
  5
766
331
737
  5
731
331
7AB
  5
7A4
331
855
  5
876
331
874
  5
895
331
9C4
  5
9E5
331
A38
  5
A59
331
A76
  5
7EC
331
B71
  5
B7F
331
B52
  5
B60
331
B3B
  5
B49
331
AAD
  5
ABB
331
A58
  5
A79
331
A1A
  5
A3B
331
A03
  5
A24
331
9E4
  5
A05
331
9A6
  5
9C7
331
98F
  5
9B0
331
970
  5
991
331
951
  5
972
331
91B
  5
93C
331
894
  5
8B5
331
875
  5
896
331
83F
  5
860
331
820
  5
841
331
7E2
  5
7DB
331
7AC
  5
7A5
331
78D
  5
786
331
76E
  5
767
331
801
  5
822
331
856
  5
877
331
932
  5
953
331
9C5
  5
9E6
331
A39
  5
A5A
331
A77
  5
7ED
331
B90
  5
B97
331
BB0
  5
BB7
331
B53
  5
B61
331
B3C
  5
B4A
331
AAE
  5
ABC
331
A59
  5
A7A
331
A1B
  5
A3C
331
A04
  5
A25
331
9E5
  5
A06
331
9A7
  5
9C8
331
990
  5
9B1
331
971
  5
992
331
933
  5
954
331
91C
  5
93D
331
895
  5
8B6
331
821
  5
842
331
802
  5
823
331
7E3
  5
804
331
78E
  5
787
331
76F
  5
768
331
7AD
  5
7A6
331
857
  5
878
331
876
  5
897
331
952
  5
973
331
9C6
  5
9E7
331
A3A
  5
A5B
331
A78
  5
7EE
331
B72
  5
7EF
331
B91
  5
B98
331
BC8
  5
BCF
331
B54
  5
B62
331
B3D
  5
B4B
331
AAF
  5
ABD
331
A79
  5
A87
331
A5A
  5
A7B
331
A1C
  5
A3D
331
A05
  5
A26
331
9E6
  5
A07
331
9C7
  5
9E8
331
9A8
  5
9C9
331
991
  5
9B2
331
972
  5
993
331
953
  5
974
331
91D
  5
93E
331
896
  5
8B7
331
822
  5
843
331
803
  5
824
331
7AE
  5
7A7
331
78F
  5
788
331
858
  5
879
331
877
  5
898
331
934
  5
955
331
A3B
  5
A5C
331
B73
  5
7F0
331
B92
  5
B99
331
BB1
  5
BB8
331
BE8
  5
BEF
331
BC9
  5
BD0
331
BB2
  5
BB9
331
B55
  5
B63
331
B3E
  5
B4C
331
A91
  5
A9F
331
A7A
  5
A88
331
A5B
  5
A7C
331
A1D
  5
A3E
331
A06
  5
A27
331
9E7
  5
A08
331
9C8
  5
9E9
331
9A9
  5
9CA
331
973
  5
994
331
91E
  5
93F
331
897
  5
8B8
331
823
  5
844
331
804
  5
825
331
7AF
  5
7A8
331
859
  5
87A
331
878
  5
899
331
954
  5
975
331
992
  5
9B3
331
A3C
  5
A5D
331
AB0
  5
ABE
331
B74
  5
7F1
331
B93
  5
B9A
331
BE9
  5
BF0
331
BCA
  5
BD1
331
B56
  5
B64
331
B3F
  5
B4D
331
A92
  5
AA0
331
A7B
  5
A89
331
A5C
  5
A7D
331
A1E
  5
A3F
331
A07
  5
A28
331
9E8
  5
A09
331
9C9
  5
9EA
331
993
  5
9B4
331
974
  5
995
331
955
  5
976
331
91F
  5
940
331
898
  5
8B9
331
824
  5
845
331
805
  5
826
331
85A
  5
87B
331
879
  5
89A
331
9AA
  5
9CB
331
A3D
  5
A5E
331
AB1
  5
ABF
331
B75
  5
7F2
331
B94
  5
B9B
331
BB3
  5
BBA
331
D18
  5
D18
331
BEA
  5
BF1
331
BCB
  5
BD2
331
BB4
  5
BBB
331
B57
  5
B65
331
B40
  5
B4E
331
A93
  5
AA1
331
A7C
  5
A8A
331
A5D
  5
A7E
331
A1F
  5
A40
331
A08
  5
A29
331
9E9
  5
A0A
331
9CA
  5
9EB
331
9AB
  5
9CC
331
975
  5
996
331
956
  5
977
331
87A
  5
89B
331
825
  5
846
331
806
  5
827
331
85B
  5
87C
331
899
  5
8BA
331
994
  5
9B5
331
A3E
  5
A5F
331
AB2
  5
AC0
331
B76
  5
7F3
331
B95
  5
B9C
331
D19
  5
D19
331
D30
  5
D30
331
BEB
  5
BF2
331
BCC
  5
BD3
331
B58
  5
B66
331
B41
  5
B4F
331
A94
  5
AA2
331
A7D
  5
A8B
331
A5E
  5
A7F
331
A20
  5
A41
331
A09
  5
A2A
331
9EA
  5
A0B
331
9CB
  5
9EC
331
995
  5
9B6
331
976
  5
997
331
957
  5
978
331
89A
  5
8BB
331
826
  5
847
331
807
  5
828
331
85C
  5
87D
331
87B
  5
89C
331
9AC
  5
9CD
331
A3F
  5
A60
331
AB3
  5
AC1
331
B77
  5
7F4
331
B96
  5
B9D
331
BB5
  5
BBC
331
D50
  5
D50
331
D1A
  5
D1A
331
D31
  5
D31
331
BEC
  5
BF3
331
BCD
  5
BD4
331
B59
  5
B67
331
B23
  5
B31
331
A95
  5
AA3
331
A40
  5
A61
331
A21
  5
A42
331
A0A
  5
A2B
331
9EB
  5
A0C
331
9CC
  5
9ED
331
9AD
  5
9CE
331
977
  5
998
331
958
  5
979
331
939
  5
95A
331
87C
  5
89D
331
827
  5
848
331
85D
  5
87E
331
89B
  5
8BC
331
996
  5
9B7
331
A5F
  5
A80
331
A7E
  5
A8C
331
AB4
  5
AC2
331
B42
  5
B50
331
B78
  5
7F5
331
B97
  5
B9E
331
BB6
  5
BBD
331
D70
  5
D70
331
D51
  5
D51
331
D1B
  5
D1B
331
D32
  5
D32
331
BED
  5
BF4
331
BCE
  5
BD5
331
B5A
  5
B68
331
B43
  5
B51
331
B24
  5
B32
331
A96
  5
AA4
331
A60
  5
A81
331
A41
  5
A62
331
A22
  5
A43
331
A0B
  5
A2C
331
9EC
  5
A0D
331
9CD
  5
9EE
331
997
  5
9B8
331
978
  5
999
331
89C
  5
8BD
331
85E
  5
87F
331
87D
  5
89E
331
93A
  5
95B
331
959
  5
97A
331
9AE
  5
9CF
331
A7F
  5
A8D
331
AB5
  5
AC3
331
B79
  5
B80
331
B98
  5
B9F
331
BB7
  5
BBE
331
D90
  5
D90
331
D71
  5
D71
331
D52
  5
D52
331
D1C
  5
D1C
331
D33
  5
D33
331
BEE
  5
BF5
331
BCF
  5
BD6
331
B7A
  5
B81
331
B5B
  5
B69
331
B25
  5
B33
331
A97
  5
AA5
331
A80
  5
A8E
331
A61
  5
A82
331
A42
  5
A63
331
A23
  5
A44
331
A0C
  5
A2D
331
9ED
  5
A0E
331
9CE
  5
9EF
331
9AF
  5
9D0
331
979
  5
99A
331
95A
  5
97B
331
87E
  5
89F
331
85F
  5
880
331
89D
  5
8BE
331
93B
  5
95C
331
AB6
  5
AC4
331
B44
  5
B52
331
B99
  5
BA0
331
BB8
  5
BBF
331
DA8
  5
DA8
331
D91
  5
D91
331
D72
  5
D72
331
D53
  5
D53
331
D1D
  5
D1D
331
D34
  5
D34
331
BEF
  5
BF6
331
BD0
  5
BD7
331
BB9
  5
BC0
331
B5C
  5
B6A
331
B45
  5
B53
331
B26
  5
B34
331
A98
  5
AA6
331
A81
  5
A8F
331
A43
  5
A64
331
A24
  5
A45
331
A0D
  5
A2E
331
9EE
  5
A0F
331
9CF
  5
9F0
331
97A
  5
99B
331
89E
  5
8BF
331
87F
  5
8A0
331
93C
  5
95D
331
95B
  5
97C
331
9B0
  5
9D1
331
A62
  5
A83
331
AB7
  5
AC5
331
B7B
  5
B82
331
B9A
  5
BA1
331
DC8
  5
DC8
331
DA9
  5
DA9
331
D92
  5
D92
331
D73
  5
D73
331
D54
  5
D54
331
D1E
  5
D1E
331
D35
  5
D35
331
BF0
  5
BF7
331
BD1
  5
BD8
331
B7C
  5
B83
331
B5D
  5
B6B
331
AB8
  5
AC6
331
A99
  5
AA7
331
A82
  5
A90
331
A63
  5
A84
331
A44
  5
A65
331
A25
  5
A46
331
A0E
  5
A2F
331
9EF
  5
A10
331
9D0
  5
9F1
331
9B1
  5
9D2
331
97B
  5
99C
331
95C
  5
97D
331
89F
  5
8C0
331
93D
  5
95E
331
B27
  5
B35
331
B46
  5
B54
331
B9B
  5
BA2
331
BBA
  5
BC1
331
DE8
  5
DE8
331
DC9
  5
DC9
331
DAA
  5
DAA
331
D93
  5
D93
331
D74
  5
D74
331
D55
  5
D55
331
D1F
  5
D1F
331
D36
  5
D36
331
BF1
  5
BF8
331
BD2
  5
BD9
331
BBB
  5
BC2
331
B7D
  5
B84
331
B5E
  5
B6C
331
AB9
  5
AC7
331
A9A
  5
AA8
331
A83
  5
A91
331
A64
  5
A85
331
A45
  5
A66
331
A26
  5
A47
331
A0F
  5
A30
331
9F0
  5
A11
331
9D1
  5
9F2
331
97C
  5
99D
331
93E
  5
95F
331
95D
  5
97E
331
9B2
  5
9D3
331
B28
  5
B36
331
B47
  5
B55
331
B9C
  5
BA3
331
DCA
  5
DCA
331
DAB
  5
DAB
331
D94
  5
D94
331
D75
  5
D75
331
D56
  5
D56
331
D20
  5
D20
331
D37
  5
D37
331
BF2
  5
BF9
331
BD3
  5
BDA
331
B7E
  5
B85
331
B5F
  5
B6D
331
ABA
  5
AC8
331
A9B
  5
AA9
331
A84
  5
A92
331
A65
  5
A86
331
A46
  5
A67
331
A27
  5
A48
331
9F1
  5
A12
331
9D2
  5
9F3
331
9B3
  5
9D4
331
95E
  5
97F
331
93F
  5
960
331
97D
  5
99E
331
B29
  5
B37
331
B48
  5
B56
331
B9D
  5
BA4
331
BBC
  5
BC3
331
DCB
  5
DCB
331
DAC
  5
DAC
331
D95
  5
D95
331
D76
  5
D76
331
D38
  5
D38
331
D21
  5
D21
331
D57
  5
D57
331
BF3
  5
BFA
331
BD4
  5
BDB
331
BBD
  5
BC4
331
B7F
  5
B86
331
B60
  5
B6E
331
ABB
  5
AC9
331
A9C
  5
AAA
331
A85
  5
A93
331
A47
  5
A68
331
A28
  5
A49
331
9F2
  5
A13
331
9D3
  5
9F4
331
97E
  5
99F
331
95F
  5
980
331
9B4
  5
9D5
331
A66
  5
7DC
331
B2A
  5
B38
331
B49
  5
B57
331
B9E
  5
BA5
331
DCC
  5
DCC
331
DAD
  5
DAD
331
D96
  5
D96
331
D58
  5
D58
331
D39
  5
D39
331
D22
  5
D22
331
D77
  5
D77
331
BF4
  5
BFB
331
BD5
  5
BDC
331
B61
  5
B6F
331
B4A
  5
B58
331
ABC
  5
ACA
331
A9D
  5
AAB
331
A86
  5
A94
331
A48
  5
A69
331
A29
  5
A4A
331
9F3
  5
A14
331
9D4
  5
9F5
331
9B5
  5
9D6
331
97F
  5
9A0
331
A67
  5
7DD
331
B2B
  5
B39
331
B80
  5
B87
331
B9F
  5
BA6
331
BBE
  5
BC5
331
DCD
  5
DCD
331
DAE
  5
DAE
331
D97
  5
D97
331
D59
  5
D59
331
D3A
  5
D3A
331
D23
  5
D23
331
D78
  5
D78
331
BF5
  5
BFC
331
BD6
  5
BDD
331
BBF
  5
BC6
331
B81
  5
B88
331
B62
  5
B70
331
ABD
  5
ACB
331
A9E
  5
AAC
331
A87
  5
A95
331
A49
  5
A6A
331
A2A
  5
A4B
331
9F4
  5
A15
331
9D5
  5
9F6
331
9B6
  5
9D7
331
A68
  5
7DE
331
B2C
  5
B3A
331
B4B
  5
B59
331
BA0
  5
BA7
331
DCE
  5
DCE
331
DAF
  5
DAF
331
D98
  5
D98
331
D5A
  5
D5A
331
D3B
  5
D3B
331
D24
  5
D24
331
D79
  5
D79
331
BF6
  5
BFD
331
BD7
  5
BDE
331
B63
  5
B71
331
B4C
  5
B5A
331
ABE
  5
ACC
331
A9F
  5
AAD
331
A4A
  5
A6B
331
A2B
  5
A4C
331
9F5
  5
A16
331
9B7
  5
9D8
331
9D6
  5
9F7
331
A69
  5
7DF
331
B2D
  5
B3B
331
B82
  5
B89
331
BA1
  5
BA8
331
BC0
  5
BC7
331
658
  5
659
331
DB0
  5
DB0
331
D99
  5
D99
331
D5B
  5
D5B
331
D3C
  5
D3C
331
D25
  5
D25
331
D7A
  5
D7A
331
DCF
  5
DCF
331
BF7
  5
BFE
331
BD8
  5
BDF
331
BC1
  5
BC8
331
B83
  5
B8A
331
B64
  5
B72
331
ABF
  5
ACD
331
AA0
  5
AAE
331
A4B
  5
A6C
331
A2C
  5
A4D
331
9F6
  5
A17
331
9D7
  5
9F8
331
A6A
  5
7E0
331
B2E
  5
B3C
331
B4D
  5
B5B
331
BA2
  5
BA9
331
659
  5
65A
331
DD0
  5
DD0
331
DB1
  5
DB1
331
D9A
  5
D9A
331
D5C
  5
D5C
331
D3D
  5
D3D
331
D07
  5
7F6
331
D26
  5
D26
331
D7B
  5
D7B
331
BF8
  5
BFF
331
BD9
  5
BE0
331
B65
  5
B73
331
B4E
  5
B5C
331
AC0
  5
ACE
331
AA1
  5
AAF
331
A4C
  5
A6D
331
A2D
  5
A4E
331
9F7
  5
A18
331
A6B
  5
7E1
331
B2F
  5
B3D
331
B84
  5
B8B
331
BA3
  5
BAA
331
BC2
  5
BC9
331
65A
  5
65B
331
DD1
  5
DD1
331
DB2
  5
DB2
331
D9B
  5
D9B
331
D5D
  5
D5D
331
D3E
  5
D3E
331
D08
  5
7F7
331
D27
  5
D27
331
D7C
  5
D7C
331
BF9
  5
C00
331
BDA
  5
BE1
331
BC3
  5
BCA
331
B85
  5
B8C
331
B66
  5
B74
331
B30
  5
B3E
331
AC1
  5
ACF
331
AA2
  5
AB0
331
A4D
  5
A6E
331
A2E
  5
A4F
331
A6C
  5
7E2
331
B4F
  5
B5D
331
BA4
  5
BAB
331
65B
  5
65C
331
DD2
  5
DD2
331
DB3
  5
DB3
331
D9C
  5
D9C
331
D5E
  5
D5E
331
D3F
  5
D3F
331
D7D
  5
D7D
331
D09
  5
7F8
331
BFA
  5
C01
331
BDB
  5
BE2
331
BC4
  5
BCB
331
B31
  5
B3F
331
AC2
  5
AD0
331
AA3
  5
AB1
331
A4E
  5
A6F
331
A2F
  5
A50
331
A6D
  5
7E3
331
B67
  5
B75
331
B86
  5
B8D
331
BA5
  5
BAC
331
D28
  5
D28
331
65C
  5
65D
331
DD3
  5
DD3
331
DB4
  5
DB4
331
D9D
  5
D9D
331
D5F
  5
D5F
331
D40
  5
D40
331
D7E
  5
D7E
331
D0A
  5
7F9
331
BFB
  5
C02
331
BDC
  5
BE3
331
BC5
  5
BCC
331
B87
  5
B8E
331
B32
  5
B40
331
AC3
  5
AD1
331
AA4
  5
AB2
331
A4F
  5
A70
331
A6E
  5
7E4
331
B68
  5
B76
331
BA6
  5
BAD
331
D29
  5
D29
331
65D
  5
65E
331
DD4
  5
DD4
331
DB5
  5
DB5
331
D9E
  5
D9E
331
D60
  5
D60
331
D41
  5
D41
331
D7F
  5
D7F
331
D0B
  5
7FA
331
BFC
  5
C03
331
BDD
  5
BE4
331
BC6
  5
BCD
331
B88
  5
B8F
331
B33
  5
B41
331
AC4
  5
AD2
331
AA5
  5
AB3
331
A6F
  5
7E5
331
B69
  5
B77
331
BA7
  5
BAE
331
D2A
  5
D2A
331
65E
  5
65F
331
DD5
  5
DD5
331
D9F
  5
D9F
331
D61
  5
D61
331
D42
  5
D42
331
D80
  5
D80
331
DB6
  5
DB6
331
D0C
  5
7FB
331
BFD
  5
C04
331
BDE
  5
BE5
331
BA8
  5
BAF
331
B89
  5
B90
331
B34
  5
B42
331
AC5
  5
AD3
331
AA6
  5
AB4
331
B6A
  5
B78
331
BC7
  5
BCE
331
D2B
  5
D2B
331
65F
  5
660
331
DD6
  5
DD6
331
DB7
  5
DB7
331
D62
  5
D62
331
D43
  5
D43
331
D81
  5
D81
331
DA0
  5
DA0
331
D0D
  5
7FC
331
BFE
  5
C05
331
BA9
  5
BB0
331
B8A
  5
B91
331
B35
  5
B43
331
AC6
  5
AD4
331
AA7
  5
AB5
331
B6B
  5
B79
331
BDF
  5
BE6
331
D2C
  5
D2C
331
660
  5
661
331
DD7
  5
DD7
331
DB8
  5
DB8
331
D63
  5
D63
331
D44
  5
D44
331
D82
  5
D82
331
DA1
  5
DA1
331
D0E
  5
D0E
331
BFF
  5
C06
331
BAA
  5
BB1
331
B8B
  5
B92
331
B36
  5
B44
331
AC7
  5
AD5
331
B6C
  5
B7A
331
BE0
  5
BE7
331
D2D
  5
D2D
331
680
  5
681
331
661
  5
662
331
DD8
  5
DD8
331
DB9
  5
DB9
331
D64
  5
D64
331
D45
  5
D45
331
D83
  5
D83
331
DA2
  5
DA2
331
D0F
  5
D0F
331
C00
  5
C07
331
B8C
  5
B93
331
B37
  5
B45
331
B6D
  5
B7B
331
BAB
  5
BB2
331
BE1
  5
BE8
331
D2E
  5
D2E
331
662
  5
663
331
681
  5
682
331
6A0
  5
6A1
331
DD9
  5
DD9
331
DBA
  5
DBA
331
D65
  5
D65
331
D46
  5
D46
331
D84
  5
D84
331
DA3
  5
DA3
331
D2F
  5
D2F
331
C01
  5
C18
331
BAC
  5
BB3
331
B8D
  5
B94
331
B6E
  5
B7C
331
BE2
  5
BE9
331
D10
  5
D10
331
6C0
  5
6C1
331
682
  5
683
331
663
  5
664
331
6A1
  5
6A2
331
DDA
  5
DDA
331
DBB
  5
DBB
331
D66
  5
D66
331
D47
  5
D47
331
D85
  5
D85
331
DA4
  5
DA4
331
C02
  5
D07
331
B8E
  5
B95
331
B6F
  5
B7D
331
BAD
  5
BB4
331
BE3
  5
BEA
331
D11
  5
D11
331
6A2
  5
6A3
331
664
  5
665
331
683
  5
684
331
6C1
  5
6C2
331
6D8
  5
6D9
331
DDB
  5
DDB
331
DBC
  5
DBC
331
D67
  5
D67
331
D86
  5
D86
331
DA5
  5
DA5
331
D48
  5
D48
331
C03
  5
D08
331
BAE
  5
BB5
331
B8F
  5
B96
331
BE4
  5
BEB
331
D12
  5
D12
331
6F8
  5
6F2
331
6C2
  5
6C3
331
684
  5
685
331
665
  5
666
331
6A3
  5
6A4
331
6D9
  5
6DA
331
DDC
  5
DDC
331
DBD
  5
DBD
331
D87
  5
D87
331
DA6
  5
DA6
331
D68
  5
D68
331
D49
  5
D49
331
C04
  5
D09
331
BAF
  5
BB6
331
BE5
  5
BEC
331
D13
  5
D13
331
718
  5
712
331
6F9
  5
6F3
331
6A4
  5
6A5
331
666
  5
667
331
685
  5
686
331
6C3
  5
6C4
331
6DA
  5
6DB
331
DDD
  5
DDD
331
DA7
  5
DA7
331
D69
  5
D69
331
D4A
  5
D4A
331
C05
  5
D0A
331
BE6
  5
BED
331
D14
  5
D14
331
D88
  5
D88
331
DBE
  5
DBE
331
738
  5
732
331
719
  5
713
331
6FA
  5
6F4
331
6C4
  5
6C5
331
686
  5
687
331
667
  5
668
331
6A5
  5
6A6
331
6DB
  5
6DC
331
DDE
  5
DDE
331
D6A
  5
D6A
331
D4B
  5
D4B
331
C06
  5
D0B
331
BE7
  5
BEE
331
D15
  5
D15
331
D89
  5
D89
331
DBF
  5
DBF
331
750
  5
74A
331
739
  5
733
331
71A
  5
714
331
6A6
  5
6A7
331
668
  5
669
331
687
  5
688
331
6C5
  5
6C6
331
6DC
  5
6DD
331
6FB
  5
6F5
331
DC0
  5
DC0
331
D6B
  5
D6B
331
D4C
  5
D4C
331
C07
  5
D0C
331
D16
  5
D16
331
D8A
  5
D8A
331
DDF
  5
DDF
331
770
  5
769
331
751
  5
74B
331
73A
  5
734
331
6FC
  5
6F6
331
6C6
  5
6C7
331
688
  5
689
331
669
  5
66A
331
6A7
  5
6A8
331
6DD
  5
6DE
331
71B
  5
715
331
DE0
  5
DE0
331
DC1
  5
DC1
331
D6C
  5
D6C
331
D4D
  5
D4D
331
D17
  5
D17
331
D8B
  5
D8B
331
790
  5
789
331
771
  5
76A
331
752
  5
74C
331
71C
  5
716
331
6DE
  5
6DF
331
6A8
  5
6A9
331
66A
  5
66B
331
689
  5
68A
331
6C7
  5
6C8
331
6FD
  5
6F7
331
73B
  5
735
331
DE1
  5
DE1
331
DC2
  5
DC2
331
D6D
  5
D6D
331
D4E
  5
D4E
331
D8C
  5
D8C
331
7B0
  5
7A9
331
791
  5
78A
331
772
  5
76B
331
73C
  5
736
331
71D
  5
717
331
6FE
  5
6F8
331
6C8
  5
6C9
331
68A
  5
68B
331
66B
  5
66C
331
6A9
  5
6AA
331
6DF
  5
6E0
331
753
  5
74D
331
DE2
  5
DE2
331
DC3
  5
DC3
331
D6E
  5
D6E
331
D4F
  5
D4F
331
D8D
  5
D8D
331
7C8
  5
7C1
331
7B1
  5
7AA
331
792
  5
78B
331
754
  5
74E
331
71E
  5
718
331
6E0
  5
6E1
331
6AA
  5
6AB
331
66C
  5
66D
331
68B
  5
68C
331
6C9
  5
6CA
331
6FF
  5
6F9
331
73D
  5
737
331
773
  5
76C
331
DE3
  5
DE3
331
DC4
  5
DC4
331
D6F
  5
D6F
331
D8E
  5
D8E
331
7C9
  5
7C2
331
793
  5
78C
331
774
  5
76D
331
73E
  5
738
331
71F
  5
719
331
6CA
  5
6CB
331
68C
  5
68D
331
66D
  5
66E
331
6AB
  5
6AC
331
6E1
  5
6E2
331
700
  5
6FA
331
755
  5
74F
331
7B2
  5
7AB
331
DE4
  5
DE4
331
DC5
  5
DC5
331
D8F
  5
D8F
  0
XRECORD
  5
E11
102
{ACAD_REACTORS
330
E10
102
}
330
E10
100
AcDbXrecord
340
50
  0
MLINESTYLE
  5
18
102
{ACAD_REACTORS
330
17
102
}
330
17
100
AcDbMlineStyle
  2
STANDARD
 70
     0
  3

 62
   256
 51
90.0
 52
90.0
 71
     2
 49
0.5
 62
   256
  6
BYLAYER
 49
-0.5
 62
   256
  6
BYLAYER
  0
XRECORD
  5
8C
102
{ACAD_REACTORS
330
8B
102
}
330
8B
100
AcDbXrecord
  1
MOTO
  1
*
  1
*
  1
*
 70
     0
  1
*
  1
*
  0
XRECORD
  5
8D
102
{ACAD_REACTORS
330
8B
102
}
330
8B
100
AcDbXrecord
  1
元図
  1
*
  1
*
  1
*
 70
     0
  1
*
  1
*
  0
ENDSEC
  0
EOF
