  0
SECTION
  2
HEADER
  9
$ACADVER
  1
AC1012
  9
$DWGCODEPAGE
  3
dos932
  9
$INSBASE
 10
0.0
 20
0.0
 30
0.0
  9
$EXTMIN
 10
-2160.636337021448
 20
-2260.636337021448
 30
0.0
  9
$EXTMAX
 10
2294.906432443585
 20
1731.920000000002
 30
0.0
  9
$LIMMIN
 10
0.0
 20
0.0
  9
$LIMMAX
 10
420.0
 20
297.0
  9
$ORTHOMODE
 70
     0
  9
$REGENMODE
 70
     1
  9
$FILLMODE
 70
     1
  9
$QTEXTMODE
 70
     0
  9
$MIRRTEXT
 70
     1
  9
$DRAGMODE
 70
     2
  9
$LTSCALE
 40
1.0
  9
$OSMODE
 70
    37
  9
$ATTMODE
 70
     1
  9
$TEXTSIZE
 40
2.5
  9
$TRACEWID
 40
1.0
  9
$TEXTSTYLE
  7
STANDARD
  9
$CLAYER
  8
0
  9
$CELTYPE
  6
BYLAYER
  9
$CECOLOR
 62
   256
  9
$CELTSCALE
 40
1.0
  9
$DELOBJ
 70
     1
  9
$DISPSILH
 70
     0
  9
$DIMSCALE
 40
1.0
  9
$DIMASZ
 40
2.5
  9
$DIMEXO
 40
0.625
  9
$DIMDLI
 40
3.75
  9
$DIMRND
 40
0.0
  9
$DIMDLE
 40
0.0
  9
$DIMEXE
 40
1.25
  9
$DIMTP
 40
0.0
  9
$DIMTM
 40
0.0
  9
$DIMTXT
 40
2.5
  9
$DIMCEN
 40
2.5
  9
$DIMTSZ
 40
0.0
  9
$DIMTOL
 70
     0
  9
$DIMLIM
 70
     0
  9
$DIMTIH
 70
     0
  9
$DIMTOH
 70
     0
  9
$DIMSE1
 70
     0
  9
$DIMSE2
 70
     0
  9
$DIMTAD
 70
     1
  9
$DIMZIN
 70
     8
  9
$DIMBLK
  1

  9
$DIMASO
 70
     1
  9
$DIMSHO
 70
     1
  9
$DIMPOST
  1

  9
$DIMAPOST
  1

  9
$DIMALT
 70
     0
  9
$DIMALTD
 70
     3
  9
$DIMALTF
 40
0.03937007874016
  9
$DIMLFAC
 40
1.0
  9
$DIMTOFL
 70
     1
  9
$DIMTVP
 40
0.0
  9
$DIMTIX
 70
     0
  9
$DIMSOXD
 70
     0
  9
$DIMSAH
 70
     0
  9
$DIMBLK1
  1

  9
$DIMBLK2
  1

  9
$DIMSTYLE
  2
ISO-25
  9
$DIMCLRD
 70
     0
  9
$DIMCLRE
 70
     0
  9
$DIMCLRT
 70
     0
  9
$DIMTFAC
 40
1.0
  9
$DIMGAP
 40
0.625
  9
$DIMJUST
 70
     0
  9
$DIMSD1
 70
     0
  9
$DIMSD2
 70
     0
  9
$DIMTOLJ
 70
     0
  9
$DIMTZIN
 70
     8
  9
$DIMALTZ
 70
     0
  9
$DIMALTTZ
 70
     0
  9
$DIMFIT
 70
     3
  9
$DIMUPT
 70
     0
  9
$DIMUNIT
 70
     2
  9
$DIMDEC
 70
     2
  9
$DIMTDEC
 70
     2
  9
$DIMALTU
 70
     2
  9
$DIMALTTD
 70
     3
  9
$DIMTXSTY
  7
STANDARD
  9
$DIMAUNIT
 70
     0
  9
$LUNITS
 70
     2
  9
$LUPREC
 70
     4
  9
$SKETCHINC
 40
1.0
  9
$FILLETRAD
 40
10.0
  9
$AUNITS
 70
     0
  9
$AUPREC
 70
     0
  9
$MENU
  1
.
  9
$ELEVATION
 40
0.0
  9
$PELEVATION
 40
0.0
  9
$THICKNESS
 40
0.0
  9
$LIMCHECK
 70
     0
  9
$BLIPMODE
 70
     0
  9
$CHAMFERA
 40
10.0
  9
$CHAMFERB
 40
10.0
  9
$CHAMFERC
 40
20.0
  9
$CHAMFERD
 40
0.0
  9
$SKPOLY
 70
     0
  9
$TDCREATE
 40
2456272.610417141
  9
$TDUPDATE
 40
2456546.391166250
  9
$TDINDWG
 40
0.0120505208
  9
$TDUSRTIMER
 40
0.0120505208
  9
$USRTIMER
 70
     1
  9
$ANGBASE
 50
0.0
  9
$ANGDIR
 70
     0
  9
$PDMODE
 70
     3
  9
$PDSIZE
 40
15.0
  9
$PLINEWID
 40
0.0
  9
$COORDS
 70
     0
  9
$SPLFRAME
 70
     0
  9
$SPLINETYPE
 70
     6
  9
$SPLINESEGS
 70
     8
  9
$ATTDIA
 70
     0
  9
$ATTREQ
 70
     1
  9
$HANDLING
 70
 22529
  9
$HANDSEED
  5
A8E
  9
$SURFTAB1
 70
     6
  9
$SURFTAB2
 70
     6
  9
$SURFTYPE
 70
     6
  9
$SURFU
 70
     6
  9
$SURFV
 70
     6
  9
$UCSNAME
  2

  9
$UCSORG
 10
0.0
 20
0.0
 30
0.0
  9
$UCSXDIR
 10
1.0
 20
0.0
 30
0.0
  9
$UCSYDIR
 10
0.0
 20
1.0
 30
0.0
  9
$PUCSNAME
  2

  9
$PUCSORG
 10
0.0
 20
0.0
 30
0.0
  9
$PUCSXDIR
 10
1.0
 20
0.0
 30
0.0
  9
$PUCSYDIR
 10
0.0
 20
1.0
 30
0.0
  9
$USERI1
 70
     0
  9
$USERI2
 70
     0
  9
$USERI3
 70
     0
  9
$USERI4
 70
     0
  9
$USERI5
 70
     0
  9
$USERR1
 40
0.0
  9
$USERR2
 40
0.0
  9
$USERR3
 40
0.0
  9
$USERR4
 40
0.0
  9
$USERR5
 40
0.0
  9
$WORLDVIEW
 70
     1
  9
$SHADEDGE
 70
     3
  9
$SHADEDIF
 70
    70
  9
$TILEMODE
 70
     1
  9
$MAXACTVP
 70
    64
  9
$PINSBASE
 10
0.0
 20
0.0
 30
0.0
  9
$PLIMCHECK
 70
     0
  9
$PEXTMIN
 10
26.66076962115562
 20
20.31135699206657
 30
-0.0015258207003583
  9
$PEXTMAX
 10
240.039213369355
 20
182.8886381005154
 30
0.0000000349246037
  9
$PLIMMIN
 10
-6.350006103515625
 20
-6.349999904632568
  9
$PLIMMAX
 10
273.0499877929687
 20
209.5499939918517
  9
$UNITMODE
 70
     0
  9
$VISRETAIN
 70
     1
  9
$PLINEGEN
 70
     0
  9
$PSLTSCALE
 70
     1
  9
$TREEDEPTH
 70
  3020
  9
$PICKSTYLE
 70
     1
  9
$CMLSTYLE
  2
STANDARD
  9
$CMLJUST
 70
     0
  9
$CMLSCALE
 40
20.0
  9
$SAVEIMAGES
 70
     1
  0
ENDSEC
  0
SECTION
  2
CLASSES
  0
CLASS
  1
ACDBDICTIONARYWDFLT
  2
AcDbDictionaryWithDefault
  3
AutoCAD 2000
 90
    32768
280
     0
281
     0
  0
CLASS
  1
ACDBPLACEHOLDER
  2
AcDbPlaceHolder
  3
AutoCAD 2000
 90
    32768
280
     0
281
     0
  0
CLASS
  1
LAYOUT
  2
AcDbLayout
  3
AutoCAD 2000
 90
    32768
280
     0
281
     0
  0
CLASS
  1
DICTIONARYVAR
  2
AcDbDictionaryVar
  3
AutoCAD 2000
 90
    32768
280
     0
281
     0
  0
CLASS
  1
LONG_TRANSACTION
  2
AcDbLongTransaction
  3
AutoCAD 2000
 90
    32768
280
     0
281
     0
  0
CLASS
  1
LWPOLYLINE
  2
AcDbPolyline
  3
AutoCAD 2000
 90
    32768
280
     0
281
     1
  0
CLASS
  1
HATCH
  2
AcDbHatch
  3
AutoCAD 2000
 90
    32768
280
     0
281
     1
  0
CLASS
  1
XRECORD
  2
AcDbXrecord
  3
AutoCAD 2000
 90
    32768
280
     0
281
     0
  0
ENDSEC
  0
SECTION
  2
TABLES
  0
TABLE
  2
VPORT
  5
8
330
0
100
AcDbSymbolTable
 70
     5
  0
VPORT
  5
A89
330
8
100
AcDbSymbolTableRecord
100
AcDbViewportTableRecord
  2
*ACTIVE
 70
     0
 10
0.0
 20
0.0
 11
1.0
 21
1.0
 12
355.4046397277488
 22
-218.4046445229605
 13
0.0
 23
0.0
 14
10.0
 24
10.0
 15
10.0
 25
10.0
 16
0.0
 26
0.0
 36
1.0
 17
0.0
 27
0.0
 37
0.0
 40
4050.206674588348
 41
1.571056062581486
 42
50.0
 43
0.0
 44
0.0
 50
0.0
 51
0.0
 71
     0
 72
   100
 73
     1
 74
     3
 75
     0
 76
     0
 77
     0
 78
     0
  0
ENDTAB
  0
TABLE
  2
LTYPE
  5
5
330
0
100
AcDbSymbolTable
 70
     3
  0
LTYPE
  5
14
330
5
100
AcDbSymbolTableRecord
100
AcDbLinetypeTableRecord
  2
BYBLOCK
 70
     0
  3

 72
    65
 73
     0
 40
0.0
  0
LTYPE
  5
15
330
5
100
AcDbSymbolTableRecord
100
AcDbLinetypeTableRecord
  2
BYLAYER
 70
     0
  3

 72
    65
 73
     0
 40
0.0
  0
LTYPE
  5
16
330
5
100
AcDbSymbolTableRecord
100
AcDbLinetypeTableRecord
  2
CONTINUOUS
 70
     0
  3
Solid line
 72
    65
 73
     0
 40
0.0
  0
LTYPE
  5
90
330
5
100
AcDbSymbolTableRecord
100
AcDbLinetypeTableRecord
  2
HIDDEN
 70
     0
  3
Hidden __ __ __ __ __ __ __ __ __ __ __ __ __ _
 72
    65
 73
     2
 40
9.524999999999998
 49
6.349999999999999
 74
     0
 49
-3.174999999999999
 74
     0
  0
LTYPE
  5
91
330
5
100
AcDbSymbolTableRecord
100
AcDbLinetypeTableRecord
  2
CENTER2
 70
     0
  3
Center (.5x) ___ _ ___ _ ___ _ ___ _ ___ _ ___
 72
    65
 73
     4
 40
1.125
 49
0.75
 74
     0
 49
-0.125
 74
     0
 49
0.125
 74
     0
 49
-0.125
 74
     0
  0
ENDTAB
  0
TABLE
  2
LAYER
  5
2
102
{ACAD_XDICTIONARY
360
86
102
}
330
0
100
AcDbSymbolTable
 70
     8
  0
LAYER
  5
10
330
2
100
AcDbSymbolTableRecord
100
AcDbLayerTableRecord
  2
0
 70
     0
 62
     7
  6
CONTINUOUS
  0
LAYER
  5
92
330
2
100
AcDbSymbolTableRecord
100
AcDbLayerTableRecord
  2
ARRANGE
 70
     0
 62
     1
  6
CONTINUOUS
  0
LAYER
  5
93
330
2
100
AcDbSymbolTableRecord
100
AcDbLayerTableRecord
  2
BASIS
 70
     0
 62
     6
  6
CENTER2
  0
LAYER
  5
94
330
2
100
AcDbSymbolTableRecord
100
AcDbLayerTableRecord
  2
OUTLINE
 70
     0
 62
     3
  6
CONTINUOUS
  0
LAYER
  5
95
330
2
100
AcDbSymbolTableRecord
100
AcDbLayerTableRecord
  2
DETAIL
 70
     0
 62
     5
  6
CONTINUOUS
  0
LAYER
  5
96
330
2
100
AcDbSymbolTableRecord
100
AcDbLayerTableRecord
  2
SIZE
 70
     0
 62
    30
  6
CONTINUOUS
  0
LAYER
  5
97
330
2
100
AcDbSymbolTableRecord
100
AcDbLayerTableRecord
  2
NOTE
 70
     0
 62
     4
  6
CONTINUOUS
  0
LAYER
  5
98
330
2
100
AcDbSymbolTableRecord
100
AcDbLayerTableRecord
  2
FIX
 70
     0
 62
    11
  6
CONTINUOUS
  0
ENDTAB
  0
TABLE
  2
STYLE
  5
3
330
0
100
AcDbSymbolTable
 70
     3
  0
STYLE
  5
11
330
3
100
AcDbSymbolTableRecord
100
AcDbTextStyleTableRecord
  2
STANDARD
 70
     0
 40
0.0
 41
1.0
 50
0.0
 71
     0
 42
2.5
  3
txt.shx
  4
bigfont.shx
  0
STYLE
  5
99
330
3
100
AcDbSymbolTableRecord
100
AcDbTextStyleTableRecord
  2
ARIAL
 70
     0
 40
0.0
 41
1.0
 50
0.0
 71
     0
 42
4.0
  3
ARIAL.TTF
  4

1001
ACAD
1000
Arial
1071
       34
  0
ENDTAB
  0
TABLE
  2
VIEW
  5
6
330
0
100
AcDbSymbolTable
 70
     0
  0
ENDTAB
  0
TABLE
  2
UCS
  5
7
330
0
100
AcDbSymbolTable
 70
     0
  0
ENDTAB
  0
TABLE
  2
APPID
  5
9
330
0
100
AcDbSymbolTable
 70
     1
  0
APPID
  5
12
330
9
100
AcDbSymbolTableRecord
100
AcDbRegAppTableRecord
  2
ACAD
 70
     0
  0
ENDTAB
  0
TABLE
  2
DIMSTYLE
  5
A
330
0
100
AcDbSymbolTable
 70
     3
  0
DIMSTYLE
105
27
330
A
100
AcDbSymbolTableRecord
100
AcDbDimStyleTableRecord
  2
ISO-25
 70
     0
  3

  4

  5

  6

  7

 40
1.0
 41
2.5
 42
0.625
 43
3.75
 44
1.25
 45
0.0
 46
0.0
 47
0.0
 48
0.0
140
2.5
141
2.5
142
0.0
143
0.03937007874016
144
1.0
145
0.0
146
1.0
147
0.625
 71
     0
 72
     0
 73
     0
 74
     0
 75
     0
 76
     0
 77
     1
 78
     8
170
     0
171
     3
172
     1
173
     0
174
     0
175
     0
176
     0
177
     0
178
     0
270
     2
271
     2
272
     2
273
     2
274
     3
340
11
275
     0
280
     0
281
     0
282
     0
283
     0
284
     8
285
     0
286
     0
287
     3
288
     0
  0
DIMSTYLE
105
9B
330
A
100
AcDbSymbolTableRecord
100
AcDbDimStyleTableRecord
  2
STANDARD
 70
     0
  3

  4

  5

  6

  7

 40
1.0
 41
0.18
 42
0.0625
 43
0.38
 44
0.18
 45
0.0
 46
0.0
 47
0.0
 48
0.0
140
0.18
141
0.09
142
0.0
143
25.4
144
1.0
145
0.0
146
1.0
147
0.09
 71
     0
 72
     0
 73
     1
 74
     1
 75
     0
 76
     0
 77
     0
 78
     0
170
     0
171
     2
172
     0
173
     0
174
     0
175
     0
176
     0
177
     0
178
     0
270
     2
271
     4
272
     4
273
     2
274
     2
340
11
275
     0
280
     0
281
     0
282
     0
283
     1
284
     0
285
     0
286
     0
287
     3
288
     0
  0
ENDTAB
  0
TABLE
  2
BLOCK_RECORD
  5
1
330
0
100
AcDbSymbolTable
 70
     1
  0
BLOCK_RECORD
  5
1F
102
{ACAD_XDICTIONARY
360
A8A
102
}
330
1
100
AcDbSymbolTableRecord
100
AcDbBlockTableRecord
  2
*MODEL_SPACE
  0
BLOCK_RECORD
  5
50
102
{ACAD_XDICTIONARY
360
A8C
102
}
330
1
100
AcDbSymbolTableRecord
100
AcDbBlockTableRecord
  2
*PAPER_SPACE
  0
ENDTAB
  0
ENDSEC
  0
SECTION
  2
BLOCKS
  0
BLOCK
  5
20
330
1F
100
AcDbEntity
  8
0
100
AcDbBlockBegin
  2
*MODEL_SPACE
 70
     0
 10
0.0
 20
0.0
 30
0.0
  3
*MODEL_SPACE
  1

  0
ENDBLK
  5
21
330
1F
100
AcDbEntity
  8
0
100
AcDbBlockEnd
  0
BLOCK
  5
52
330
50
100
AcDbEntity
 67
     1
  8
0
100
AcDbBlockBegin
  2
*PAPER_SPACE
 70
     0
 10
0.0
 20
0.0
 30
0.0
  3
*PAPER_SPACE
  1

  0
ENDBLK
  5
53
330
50
100
AcDbEntity
 67
     1
  8
0
100
AcDbBlockEnd
  0
ENDSEC
  0
SECTION
  2
ENTITIES
  0
LINE
  5
589
330
1F
100
AcDbEntity
  8
OUTLINE
100
AcDbLine
 10
-2065.636337021448
 20
-144.9999999999981
 30
0.0
 11
-1536.636337021445
 21
-144.9999999999981
 31
0.0
  0
LINE
  5
58A
330
1F
100
AcDbEntity
  8
OUTLINE
100
AcDbLine
 10
-2065.636337021447
 20
145.0000000000027
 30
0.0
 11
-2065.636337021448
 21
-144.9999999999981
 31
0.0
  0
LINE
  5
58B
330
1F
100
AcDbEntity
  8
OUTLINE
100
AcDbLine
 10
-1536.636337021445
 20
145.0000000000022
 30
0.0
 11
-2065.636337021447
 21
145.0000000000027
 31
0.0
  0
ARC
  5
58C
330
1F
100
AcDbEntity
  8
OUTLINE
100
AcDbCircle
 10
-1536.636337021445
 20
139.0000000000025
 30
0.0
 40
6.0
100
AcDbArc
 50
0.0
 51
89.99999999999998
  0
ARC
  5
58D
330
1F
100
AcDbEntity
  8
OUTLINE
100
AcDbCircle
 10
-1536.636337021445
 20
-138.9999999999983
 30
0.0
 40
6.0
100
AcDbArc
 50
270.0
 51
0.0
  0
LINE
  5
58E
330
1F
100
AcDbEntity
  8
OUTLINE
100
AcDbLine
 10
-1530.636337021445
 20
-138.9999999999981
 30
0.0
 11
-1530.636337021445
 21
139.0000000000031
 31
0.0
  0
LINE
  5
58F
330
1F
100
AcDbEntity
  8
OUTLINE
100
AcDbLine
 10
-2065.636337021448
 20
-144.9999999999981
 30
0.0
 11
-1536.636337021445
 21
-144.9999999999981
 31
0.0
  0
LINE
  5
590
330
1F
100
AcDbEntity
  8
OUTLINE
100
AcDbLine
 10
-2065.636337021447
 20
145.0000000000027
 30
0.0
 11
-2065.636337021448
 21
-144.9999999999981
 31
0.0
  0
LINE
  5
591
330
1F
100
AcDbEntity
  8
OUTLINE
100
AcDbLine
 10
-1536.636337021445
 20
145.0000000000022
 30
0.0
 11
-2065.636337021447
 21
145.0000000000027
 31
0.0
  0
ARC
  5
592
330
1F
100
AcDbEntity
  8
OUTLINE
100
AcDbCircle
 10
-1536.636337021445
 20
139.0000000000025
 30
0.0
 40
6.0
100
AcDbArc
 50
0.0
 51
89.99999999999998
  0
ARC
  5
593
330
1F
100
AcDbEntity
  8
OUTLINE
100
AcDbCircle
 10
-1536.636337021445
 20
-138.9999999999983
 30
0.0
 40
6.0
100
AcDbArc
 50
270.0
 51
0.0
  0
LINE
  5
594
330
1F
100
AcDbEntity
  8
OUTLINE
100
AcDbLine
 10
-1530.636337021445
 20
-138.9999999999981
 30
0.0
 11
-1530.636337021445
 21
139.0000000000031
 31
0.0
  0
LINE
  5
595
330
1F
100
AcDbEntity
  8
OUTLINE
100
AcDbLine
 10
2065.636337021446
 20
-145.0000000000018
 30
0.0
 11
1536.636337021445
 21
-145.0000000000006
 31
0.0
  0
LINE
  5
596
330
1F
100
AcDbEntity
  8
OUTLINE
100
AcDbLine
 10
2065.636337021447
 20
144.9999999999981
 30
0.0
 11
2065.636337021446
 21
-145.0000000000018
 31
0.0
  0
LINE
  5
597
330
1F
100
AcDbEntity
  8
OUTLINE
100
AcDbLine
 10
1536.636337021445
 20
144.999999999999
 30
0.0
 11
2065.636337021447
 21
144.9999999999981
 31
0.0
  0
ARC
  5
598
330
1F
100
AcDbEntity
  8
OUTLINE
100
AcDbCircle
 10
1536.636337021446
 20
138.9999999999994
 30
0.0
 40
6.0
100
AcDbArc
 50
90.0
 51
180.0
  0
ARC
  5
599
330
1F
100
AcDbEntity
  8
OUTLINE
100
AcDbCircle
 10
1536.636337021446
 20
-139.0000000000005
 30
0.0
 40
6.0
100
AcDbArc
 50
180.0
 51
270.0
  0
LINE
  5
59A
330
1F
100
AcDbEntity
  8
OUTLINE
100
AcDbLine
 10
1530.636337021445
 20
-139.0000000000011
 30
0.0
 11
1530.636337021445
 21
139.0
 31
0.0
  0
LINE
  5
59B
330
1F
100
AcDbEntity
  8
OUTLINE
100
AcDbLine
 10
-389.9999999999981
 20
1688.410000000002
 30
0.0
 11
-389.9999999999987
 21
1165.410000000002
 31
0.0
  0
LINE
  5
59C
330
1F
100
AcDbEntity
  8
OUTLINE
100
AcDbLine
 10
390.0000000000023
 20
1688.410000000001
 30
0.0
 11
-389.9999999999981
 21
1688.410000000002
 31
0.0
  0
LINE
  5
59D
330
1F
100
AcDbEntity
  8
OUTLINE
100
AcDbLine
 10
390.0000000000012
 20
1165.410000000001
 30
0.0
 11
390.0000000000023
 21
1688.410000000001
 31
0.0
  0
ARC
  5
59E
330
1F
100
AcDbEntity
  8
OUTLINE
100
AcDbCircle
 10
378.0000000000021
 20
1165.410000000002
 30
0.0
 40
12.0
100
AcDbArc
 50
270.0
 51
0.0
  0
ARC
  5
59F
330
1F
100
AcDbEntity
  8
OUTLINE
100
AcDbCircle
 10
-377.9999999999982
 20
1165.410000000002
 30
0.0
 40
12.0
100
AcDbArc
 50
180.0
 51
270.0
  0
LINE
  5
5A0
330
1F
100
AcDbEntity
  8
OUTLINE
100
AcDbLine
 10
-377.999999999999
 20
1153.410000000002
 30
0.0
 11
378.0000000000007
 21
1153.410000000001
 31
0.0
  0
ARC
  5
5A1
330
1F
100
AcDbEntity
  8
OUTLINE
100
AcDbCircle
 10
375.0000000000004
 20
130.0000000000018
 30
0.0
 40
15.0
100
AcDbArc
 50
0.0
 51
90.0
  0
ARC
  5
5A2
330
1F
100
AcDbEntity
  8
OUTLINE
100
AcDbCircle
 10
375.0000000000004
 20
-129.9999999999995
 30
0.0
 40
15.0
100
AcDbArc
 50
270.0
 51
0.0
  0
LINE
  5
5A3
330
1F
100
AcDbEntity
  8
OUTLINE
100
AcDbLine
 10
390.0
 20
130.0000000000009
 30
0.0
 11
390.0
 21
-129.999999999999
 31
0.0
  0
ARC
  5
5A4
330
1F
100
AcDbEntity
  8
OUTLINE
100
AcDbCircle
 10
-374.9999999999993
 20
130.0000000000018
 30
0.0
 40
15.0
100
AcDbArc
 50
90.0
 51
180.0
  0
ARC
  5
5A5
330
1F
100
AcDbEntity
  8
OUTLINE
100
AcDbCircle
 10
-374.9999999999993
 20
-129.9999999999986
 30
0.0
 40
15.0
100
AcDbArc
 50
180.0
 51
270.0
  0
LINE
  5
5A6
330
1F
100
AcDbEntity
  8
OUTLINE
100
AcDbLine
 10
-390.0000000000004
 20
-129.999999999999
 30
0.0
 11
-390.0000000000004
 21
130.0000000000013
 31
0.0
  0
LINE
  5
5A7
330
1F
100
AcDbEntity
  8
OUTLINE
100
AcDbLine
 10
-375.0000000000004
 20
145.0000000000013
 30
0.0
 11
375.0
 21
145.0000000000009
 31
0.0
  0
LINE
  5
5A8
330
1F
100
AcDbEntity
  8
OUTLINE
100
AcDbLine
 10
375.0
 20
-144.999999999999
 30
0.0
 11
-375.0000000000004
 21
-144.999999999999
 31
0.0
  0
LINE
  5
5A9
330
1F
100
AcDbEntity
  8
OUTLINE
100
AcDbLine
 10
-390.0000000000023
 20
-1398.409999999999
 30
0.0
 11
-390.000000000002
 21
-875.409999999999
 31
0.0
  0
LINE
  5
5AA
330
1F
100
AcDbEntity
  8
OUTLINE
100
AcDbLine
 10
389.9999999999977
 20
-1398.409999999999
 30
0.0
 11
-390.0000000000023
 21
-1398.409999999999
 31
0.0
  0
LINE
  5
5AB
330
1F
100
AcDbEntity
  8
OUTLINE
100
AcDbLine
 10
389.9999999999991
 20
-875.4099999999993
 30
0.0
 11
389.9999999999977
 21
-1398.409999999999
 31
0.0
  0
ARC
  5
5AC
330
1F
100
AcDbEntity
  8
OUTLINE
100
AcDbCircle
 10
377.999999999999
 20
-875.4100000000002
 30
0.0
 40
12.0
100
AcDbArc
 50
0.0
 51
90.0
  0
ARC
  5
5AD
330
1F
100
AcDbEntity
  8
OUTLINE
100
AcDbCircle
 10
-378.0000000000015
 20
-875.4099999999985
 30
0.0
 40
12.0
100
AcDbArc
 50
90.0
 51
180.0
  0
LINE
  5
5AE
330
1F
100
AcDbEntity
  8
OUTLINE
100
AcDbLine
 10
-378.000000000002
 20
-863.4099999999989
 30
0.0
 11
377.999999999999
 21
-863.4099999999994
 31
0.0
  0
LINE
  5
5AF
330
1F
100
AcDbEntity
  8
OUTLINE
100
AcDbLine
 10
-375.0
 20
-1935.636337021447
 30
0.0
 11
375.0000000000004
 21
-1935.636337021447
 31
0.0
  0
LINE
  5
5B0
330
1F
100
AcDbEntity
  8
OUTLINE
100
AcDbLine
 10
375.0000000000004
 20
-2225.636337021447
 30
0.0
 11
-375.0
 21
-2225.636337021447
 31
0.0
  0
LINE
  5
5B1
330
1F
100
AcDbEntity
  8
OUTLINE
100
AcDbLine
 10
-390.0
 20
-2210.636337021447
 30
0.0
 11
-390.0
 21
-1950.636337021447
 31
0.0
  0
ARC
  5
5B2
330
1F
100
AcDbEntity
  8
OUTLINE
100
AcDbCircle
 10
-374.9999999999991
 20
-2210.636337021447
 30
0.0
 40
15.0
100
AcDbArc
 50
180.0
 51
270.0
  0
ARC
  5
5B3
330
1F
100
AcDbEntity
  8
OUTLINE
100
AcDbCircle
 10
-374.9999999999988
 20
-1950.636337021446
 30
0.0
 40
15.0
100
AcDbArc
 50
90.0
 51
180.0
  0
LINE
  5
5B4
330
1F
100
AcDbEntity
  8
OUTLINE
100
AcDbLine
 10
390.0000000000004
 20
-1950.636337021447
 30
0.0
 11
390.0000000000004
 21
-2210.636337021447
 31
0.0
  0
ARC
  5
5B5
330
1F
100
AcDbEntity
  8
OUTLINE
100
AcDbCircle
 10
375.0000000000009
 20
-2210.636337021448
 30
0.0
 40
15.0
100
AcDbArc
 50
270.0
 51
0.0
  0
ARC
  5
5B6
330
1F
100
AcDbEntity
  8
OUTLINE
100
AcDbCircle
 10
375.0000000000009
 20
-1950.636337021446
 30
0.0
 40
15.0
100
AcDbArc
 50
0.0
 51
90.0
  0
LINE
  5
5B7
330
1F
100
AcDbEntity
  8
BASIS
100
AcDbLine
 10
319.0
 20
161.0500000000001
 30
0.0
 11
319.0
 21
143.8000000000001
 31
0.0
  0
LINE
  5
5B8
330
1F
100
AcDbEntity
  8
BASIS
100
AcDbLine
 10
304.8200000000001
 20
153.0
 30
0.0
 11
334.0200000000004
 21
153.0
 31
0.0
  0
LINE
  5
5B9
330
1F
100
AcDbEntity
  8
BASIS
100
AcDbLine
 10
280.9999999999995
 20
161.0500000000001
 30
0.0
 11
280.9999999999995
 21
143.8000000000001
 31
0.0
  0
LINE
  5
5BA
330
1F
100
AcDbEntity
  8
BASIS
100
AcDbLine
 10
266.8200000000001
 20
153.0
 30
0.0
 11
296.02
 21
153.0
 31
0.0
  0
LINE
  5
5BB
330
1F
100
AcDbEntity
  8
BASIS
100
AcDbLine
 10
-319.0000000000004
 20
161.0500000000006
 30
0.0
 11
-319.0000000000004
 21
143.8000000000006
 31
0.0
  0
LINE
  5
5BC
330
1F
100
AcDbEntity
  8
BASIS
100
AcDbLine
 10
-333.1799999999998
 20
153.0000000000004
 30
0.0
 11
-303.98
 21
153.0000000000004
 31
0.0
  0
LINE
  5
5BD
330
1F
100
AcDbEntity
  8
BASIS
100
AcDbLine
 10
-281.0000000000004
 20
161.0500000000006
 30
0.0
 11
-281.0000000000004
 21
143.8000000000006
 31
0.0
  0
LINE
  5
5BE
330
1F
100
AcDbEntity
  8
BASIS
100
AcDbLine
 10
-295.1799999999998
 20
153.0000000000004
 30
0.0
 11
-265.98
 21
153.0000000000004
 31
0.0
  0
LINE
  5
5BF
330
1F
100
AcDbEntity
  8
NOTE
100
AcDbLine
 10
-477.5052012566216
 20
232.5824288765402
 30
0.0
 11
-850.580676738522
 21
232.5824288765415
 31
0.0
1001
ACAD
1000
DSTYLE
1002
{
1070
   147
1040
10.0
1070
    77
1070
     0
1002
}
  0
LINE
  5
5C0
330
1F
100
AcDbEntity
  8
NOTE
100
AcDbLine
 10
-359.61461005217
 20
43.99961642702601
 30
0.0
 11
-477.5052012566207
 21
232.5824288765402
 31
0.0
1001
ACAD
1000
DSTYLE
1002
{
1070
   147
1040
10.0
1070
    77
1070
     0
1002
}
  0
LINE
  5
5C1
330
1F
100
AcDbEntity
  8
NOTE
100
AcDbLine
 10
-386.4709405992111
 20
74.38352588569387
 30
0.0
 11
-359.61461005217
 21
43.99961642702601
 31
0.0
  0
LINE
  5
5C2
330
1F
100
AcDbEntity
  8
NOTE
100
AcDbLine
 10
-375.1650061506138
 20
81.45131365994121
 30
0.0
 11
-359.61461005217
 21
43.99961642702601
 31
0.0
  0
LINE
  5
5C3
330
1F
100
AcDbEntity
  8
BASIS
100
AcDbLine
 10
-360.0000000000004
 20
-63.46999999999889
 30
0.0
 11
-360.0000000000004
 21
63.99000000000069
 31
0.0
  0
LINE
  5
5C4
330
1F
100
AcDbEntity
  8
BASIS
100
AcDbLine
 10
-383.2800000000002
 20
0.0000000000004547
 30
0.0
 11
-336.7200000000002
 21
0.0000000000004547
 31
0.0
  0
TEXT
  5
5C5
330
1F
100
AcDbEntity
  8
NOTE
100
AcDbText
 10
-694.6017212585939
 20
-125.3488210227769
 30
0.0
 40
25.0
  1
(Long hole pitch
 50
90.0
  7
ARIAL
100
AcDbText
  0
TEXT
  5
5C6
330
1F
100
AcDbEntity
  8
NOTE
100
AcDbText
 10
-22.12005273945624
 20
-1705.756972010804
 30
0.0
 40
25.0
  1
(4-dia.4.5 embossing)
  7
ARIAL
100
AcDbText
  0
LINE
  5
5C7
330
1F
100
AcDbEntity
  8
NOTE
100
AcDbLine
 10
514.5837508667246
 20
-1676.718594643624
 30
0.0
 11
-67.05273692655646
 21
-1676.718594643625
 31
0.0
1001
ACAD
1000
DSTYLE
1002
{
1070
   147
1040
10.0
1070
    77
1070
     0
1002
}
  0
LINE
  5
5C8
330
1F
100
AcDbEntity
  8
NOTE
100
AcDbLine
 10
119.8964614053734
 20
-1394.748170039698
 30
0.0
 11
-67.05273692655646
 21
-1676.718594643625
 31
0.0
1001
ACAD
1000
DSTYLE
1002
{
1070
   147
1040
10.0
1070
    77
1070
     0
1002
}
  0
LINE
  5
5C9
330
1F
100
AcDbEntity
  8
NOTE
100
AcDbLine
 10
141.9999999999977
 20
-1361.409999999999
 30
0.0
 11
119.8964614053734
 21
-1394.748170039698
 31
0.0
  0
LINE
  5
5CA
330
1F
100
AcDbEntity
  8
NOTE
100
AcDbLine
 10
114.34009973209
 20
-1391.064246940594
 30
0.0
 11
141.9999999999977
 21
-1361.409999999999
 31
0.0
  0
LINE
  5
5CB
330
1F
100
AcDbEntity
  8
NOTE
100
AcDbLine
 10
125.4528230786568
 20
-1398.432093138803
 30
0.0
 11
141.9999999999977
 21
-1361.409999999999
 31
0.0
  0
TEXT
  5
5CC
330
1F
100
AcDbEntity
  8
NOTE
100
AcDbText
 10
-22.12005273945624
 20
-1665.292511461361
 30
0.0
 40
25.0
  1
Discharge guide mounting hole
  7
ARIAL
100
AcDbText
  0
LINE
  5
5CD
330
1F
100
AcDbEntity
  8
SIZE
100
AcDbLine
 10
-390.0000000000023
 20
-1413.409999999999
 30
0.0
 11
-358.0000000000022
 21
-1413.409999999999
 31
0.0
  0
LINE
  5
5CE
330
1F
100
AcDbEntity
  8
SIZE
100
AcDbLine
 10
-390.0000000000023
 20
-1413.409999999999
 30
0.0
 11
-390.0000000000023
 21
-1378.409999999999
 31
0.0
  0
LINE
  5
5CF
330
1F
100
AcDbEntity
  8
BASIS
100
AcDbLine
 10
141.9999999999977
 20
-1342.784999999999
 30
0.0
 11
141.9999999999977
 21
-1380.034999999999
 31
0.0
  0
LINE
  5
5D0
330
1F
100
AcDbEntity
  8
BASIS
100
AcDbLine
 10
122.8199999999974
 20
-1361.409999999999
 30
0.0
 11
162.0199999999972
 21
-1361.409999999999
 31
0.0
  0
LINE
  5
5D1
330
1F
100
AcDbEntity
  8
BASIS
100
AcDbLine
 10
141.999999999999
 20
-894.3599999999992
 30
0.0
 11
141.999999999999
 21
-931.6099999999991
 31
0.0
  0
LINE
  5
5D2
330
1F
100
AcDbEntity
  8
BASIS
100
AcDbLine
 10
122.8199999999987
 20
-912.4099999999994
 30
0.0
 11
162.0199999999986
 21
-912.4099999999994
 31
0.0
  0
LINE
  5
5D3
330
1F
100
AcDbEntity
  8
BASIS
100
AcDbLine
 10
-358.0000000000022
 20
-1343.359999999999
 30
0.0
 11
-358.0000000000022
 21
-1380.609999999999
 31
0.0
  0
LINE
  5
5D4
330
1F
100
AcDbEntity
  8
BASIS
100
AcDbLine
 10
-377.1800000000016
 20
-1361.409999999999
 30
0.0
 11
-337.9800000000018
 21
-1361.409999999999
 31
0.0
  0
LINE
  5
5D5
330
1F
100
AcDbEntity
  8
BASIS
100
AcDbLine
 10
-358.000000000002
 20
-894.3599999999987
 30
0.0
 11
-358.000000000002
 21
-931.6099999999988
 31
0.0
  0
LINE
  5
5D6
330
1F
100
AcDbEntity
  8
BASIS
100
AcDbLine
 10
-377.1800000000014
 20
-912.4099999999989
 30
0.0
 11
-337.9800000000016
 21
-912.4099999999989
 31
0.0
  0
LINE
  5
5D7
330
1F
100
AcDbEntity
  8
NOTE
100
AcDbLine
 10
306.0541626532226
 20
161.825273111709
 30
0.0
 11
462.4768968076168
 21
352.315792025643
 31
0.0
  0
LINE
  5
5D8
330
1F
100
AcDbEntity
  8
NOTE
100
AcDbLine
 10
306.0541626532226
 20
161.825273111709
 30
0.0
 11
318.1703185275701
 21
190.4227530427806
 31
0.0
  0
LINE
  5
5D9
330
1F
100
AcDbEntity
  8
NOTE
100
AcDbLine
 10
330.8458013172848
 20
180.5333393915275
 30
0.0
 11
306.0541626532226
 21
161.825273111709
 31
0.0
  0
LINE
  5
5DA
330
1F
100
AcDbEntity
  8
NOTE
100
AcDbLine
 10
462.4768968076168
 20
352.315792025643
 30
0.0
 11
1031.362122440261
 21
352.3157920256426
 31
0.0
1001
ACAD
1000
DSTYLE
1002
{
1070
   147
1040
10.0
1070
    77
1070
     0
1002
}
  0
LINE
  5
5DB
330
1F
100
AcDbEntity
  8
NOTE
100
AcDbLine
 10
-230.2741589339407
 20
-309.4349375437837
 30
0.0
 11
247.1216090025154
 21
-309.4349375437837
 31
0.0
1001
ACAD
1000
DSTYLE
1002
{
1070
   147
1040
10.0
1070
    77
1070
     0
1002
}
  0
LINE
  5
5DC
330
1F
100
AcDbEntity
  8
NOTE
100
AcDbLine
 10
429.3100202139704
 20
-39.31106243259137
 30
0.0
 11
451.3219075510551
 21
-61.2221077622653
 31
0.0
  0
LINE
  5
5DD
330
1F
100
AcDbEntity
  8
NOTE
100
AcDbLine
 10
437.4173513043024
 20
-69.29252794332478
 30
0.0
 11
429.3100202139704
 21
-39.31106243259137
 31
0.0
  0
LINE
  5
5DE
330
1F
100
AcDbEntity
  8
NOTE
100
AcDbLine
 10
518.8357109308181
 20
-193.5552001818659
 30
0.0
 11
959.7635411637456
 21
-193.5552001818659
 31
0.0
1001
ACAD
1000
DSTYLE
1002
{
1070
   147
1040
10.0
1070
    77
1070
     0
1002
}
  0
LINE
  5
5DF
330
1F
100
AcDbEntity
  8
NOTE
100
AcDbLine
 10
429.3100202139704
 20
-39.31106243259137
 30
0.0
 11
518.8357109308181
 21
-193.5552001818659
 31
0.0
1001
ACAD
1000
DSTYLE
1002
{
1070
   147
1040
10.0
1070
    77
1070
     0
1002
}
  0
LINE
  5
5E0
330
1F
100
AcDbEntity
  8
NOTE
100
AcDbLine
 10
432.8302219170054
 20
8.940896743045414
 30
0.0
 11
444.999599643711
 21
37.5157692243747
 31
0.0
  0
LINE
  5
5E1
330
1F
100
AcDbEntity
  8
NOTE
100
AcDbLine
 10
457.6566483325859
 20
27.60277347105102
 30
0.0
 11
432.8302219170054
 21
8.940896743045414
 31
0.0
  0
LINE
  5
5E2
330
1F
100
AcDbEntity
  8
NOTE
100
AcDbLine
 10
541.1938556872428
 20
147.3010678621926
 30
0.0
 11
975.1465012580665
 21
147.3010678621922
 31
0.0
1001
ACAD
1000
DSTYLE
1002
{
1070
   147
1040
10.0
1070
    77
1070
     0
1002
}
  0
LINE
  5
5E3
330
1F
100
AcDbEntity
  8
NOTE
100
AcDbLine
 10
432.8302219170054
 20
8.940896743045414
 30
0.0
 11
541.1938556872428
 21
147.3010678621926
 31
0.0
1001
ACAD
1000
DSTYLE
1002
{
1070
   147
1040
10.0
1070
    77
1070
     0
1002
}
  0
LINE
  5
5E4
330
1F
100
AcDbEntity
  8
NOTE
100
AcDbLine
 10
2036.313254393414
 20
37.27726511903074
 30
0.0
 11
2053.865156922867
 21
62.90045401456154
 31
0.0
  0
LINE
  5
5E5
330
1F
100
AcDbEntity
  8
NOTE
100
AcDbLine
 10
2064.325242255578
 20
50.69164649087906
 30
0.0
 11
2036.313254393414
 21
37.27726511903074
 31
0.0
  0
LINE
  5
5E6
330
1F
100
AcDbEntity
  8
NOTE
100
AcDbLine
 10
2224.528429609235
 20
198.5335376788079
 30
0.0
 11
2224.528429609235
 21
428.8736236421495
 31
0.0
1001
ACAD
1000
DSTYLE
1002
{
1070
   147
1040
10.0
1070
    77
1070
     0
1002
}
  0
LINE
  5
5E7
330
1F
100
AcDbEntity
  8
NOTE
100
AcDbLine
 10
2036.313254393414
 20
37.27726511903074
 30
0.0
 11
2224.528429609235
 21
198.5335376788088
 31
0.0
1001
ACAD
1000
DSTYLE
1002
{
1070
   147
1040
10.0
1070
    77
1070
     0
1002
}
  0
LINE
  5
5E8
330
1F
100
AcDbEntity
  8
SIZE
100
AcDbLine
 10
389.9999999999977
 20
-1234.62
 30
0.0
 11
389.9999999999981
 21
-1080.629808084472
 31
0.0
  0
CIRCLE
  5
5E9
330
1F
100
AcDbEntity
  8
FIX
100
AcDbCircle
 10
2080.636337021448
 20
159.9999999999994
 30
0.0
 40
20.0
  0
CIRCLE
  5
5EA
330
1F
100
AcDbEntity
  8
FIX
100
AcDbCircle
 10
2080.636337021446
 20
-160.0000000000014
 30
0.0
 40
20.0
  0
CIRCLE
  5
5EB
330
1F
100
AcDbEntity
  8
FIX
100
AcDbCircle
 10
299.9999999999977
 20
-1413.41
 30
0.0
 40
20.0
  0
CIRCLE
  5
5EC
330
1F
100
AcDbEntity
  8
FIX
100
AcDbCircle
 10
-300.0000000000022
 20
-1413.409999999999
 30
0.0
 40
20.0
  0
CIRCLE
  5
5ED
330
1F
100
AcDbEntity
  8
FIX
100
AcDbCircle
 10
300.0000000000004
 20
-159.9999999999995
 30
0.0
 40
20.0
  0
CIRCLE
  5
5EE
330
1F
100
AcDbEntity
  8
FIX
100
AcDbCircle
 10
-299.9999999999993
 20
-159.9999999999986
 30
0.0
 40
20.0
  0
CIRCLE
  5
5EF
330
1F
100
AcDbEntity
  8
FIX
100
AcDbCircle
 10
300.0000000000004
 20
160.0000000000009
 30
0.0
 40
20.0
  0
CIRCLE
  5
5F0
330
1F
100
AcDbEntity
  8
FIX
100
AcDbCircle
 10
-299.9999999999993
 20
160.0000000000009
 30
0.0
 40
20.0
  0
CIRCLE
  5
5F1
330
1F
100
AcDbEntity
  8
ARRANGE
100
AcDbCircle
 10
-0.0000000000022737
 20
-1413.409999999999
 30
0.0
 40
20.0
  0
CIRCLE
  5
5F2
330
1F
100
AcDbEntity
  8
ARRANGE
100
AcDbCircle
 10
2072.636337021446
 20
-0.000512829413437
 30
0.0
 40
20.0
  0
CIRCLE
  5
5F3
330
1F
100
AcDbEntity
  8
ARRANGE
100
AcDbCircle
 10
-0.0000000000004547
 20
0.0000000000009095
 30
0.0
 40
20.0
  0
LINE
  5
5F4
330
1F
100
AcDbEntity
  8
BASIS
100
AcDbLine
 10
2033.781337021447
 20
30.11999999999898
 30
0.0
 11
2033.781337021447
 21
41.47999999999865
 31
0.0
  0
LINE
  5
5F5
330
1F
100
AcDbEntity
  8
BASIS
100
AcDbLine
 10
2027.611337021447
 20
35.29999999999836
 30
0.0
 11
2039.461337021447
 21
35.29999999999836
 31
0.0
  0
TEXT
  5
5F6
330
1F
100
AcDbEntity
  8
NOTE
100
AcDbText
 10
2215.245405651995
 20
206.8030587119163
 30
0.0
 40
25.0
  1
Earth terminal
 50
90.0
  7
ARIAL
100
AcDbText
  0
LINE
  5
5F7
330
1F
100
AcDbEntity
  8
BASIS
100
AcDbLine
 10
2047.446337021447
 20
159.999999999999
 30
0.0
 11
2121.486337021448
 21
159.999999999999
 31
0.0
  0
POINT
  5
5F8
330
1F
100
AcDbEntity
  8
ARRANGE
100
AcDbPoint
 10
2072.636337021446
 20
-0.0005128294133101
 30
0.0
  0
LINE
  5
5F9
330
1F
100
AcDbEntity
  8
BASIS
100
AcDbLine
 10
1923.014958824567
 20
-35.54860586986751
 30
0.0
 11
1933.594958824567
 21
-48.15860586986719
 31
0.0
  0
LINE
  5
5FA
330
1F
100
AcDbEntity
  8
BASIS
100
AcDbLine
 10
1953.654958824566
 20
-9.838605869866569
 30
0.0
 11
1964.234958824566
 21
-22.43860586986693
 31
0.0
  0
LINE
  5
5FB
330
1F
100
AcDbEntity
  8
BASIS
100
AcDbLine
 10
1998.259635198877
 20
-10.66051282941225
 30
0.0
 11
1964.729635198879
 21
29.29948717058778
 31
0.0
  0
LINE
  5
5FC
330
1F
100
AcDbEntity
  8
BASIS
100
AcDbLine
 10
1967.019635198877
 20
-4.550512829412582
 30
0.0
 11
1977.599635198877
 21
-17.16051282941225
 31
0.0
  0
LINE
  5
5FD
330
1F
100
AcDbEntity
  8
BASIS
100
AcDbLine
 10
1965.159635198876
 20
-16.86051282941207
 30
0.0
 11
2009.849635198878
 21
20.63948717058792
 31
0.0
  0
LINE
  5
5FE
330
1F
100
AcDbEntity
  8
BASIS
100
AcDbLine
 10
1997.659635198877
 20
21.15948717058836
 30
0.0
 11
2008.239635198879
 21
8.559487170587999
 31
0.0
  0
LINE
  5
5FF
330
1F
100
AcDbEntity
  8
BASIS
100
AcDbLine
 10
1921.144958824566
 20
-47.86860586986722
 30
0.0
 11
1965.844958824567
 21
-10.36860586986722
 31
0.0
  0
LINE
  5
600
330
1F
100
AcDbEntity
  8
BASIS
100
AcDbLine
 10
1954.254958824566
 20
-41.64860586986697
 30
0.0
 11
1920.724958824566
 21
-1.708605869867369
 31
0.0
  0
LINE
  5
601
330
1F
100
AcDbEntity
  8
BASIS
100
AcDbLine
 10
2047.446337021446
 20
-160.0000000000018
 30
0.0
 11
2121.486337021447
 21
-160.0000000000018
 31
0.0
  0
LINE
  5
602
330
1F
100
AcDbEntity
  8
BASIS
100
AcDbLine
 10
415.0
 20
-27.97409971251363
 30
0.0
 11
415.0
 21
30.37590028748627
 31
0.0
  0
LINE
  5
603
330
1F
100
AcDbEntity
  8
BASIS
100
AcDbLine
 10
380.9549999999999
 20
-28.99637059107817
 30
0.0
 11
443.045
 21
-29.00637059107884
 31
0.0
  0
LINE
  5
604
330
1F
100
AcDbEntity
  8
BASIS
100
AcDbLine
 10
412.0
 20
-57.0868690610414
 30
0.0
 11
412.0
 21
-17.47686906104127
 31
0.0
  0
LINE
  5
605
330
1F
100
AcDbEntity
  8
BASIS
100
AcDbLine
 10
414.9999999999977
 20
-1246.169999999999
 30
0.0
 11
414.9999999999977
 21
-1295.779999999999
 31
0.0
  0
LINE
  5
606
330
1F
100
AcDbEntity
  8
BASIS
100
AcDbLine
 10
384.0499999999979
 20
-1320.414229081556
 30
0.0
 11
450.139999999998
 21
-1320.404229081556
 31
0.0
  0
LINE
  5
607
330
1F
100
AcDbEntity
  8
BASIS
100
AcDbLine
 10
384.0499999999979
 20
-1276.41
 30
0.0
 11
446.139999999998
 21
-1276.41
 31
0.0
  0
LINE
  5
608
330
1F
100
AcDbEntity
  8
BASIS
100
AcDbLine
 10
411.9999999999977
 20
-1290.434999999999
 30
0.0
 11
411.9999999999977
 21
-1348.784999999999
 31
0.0
  0
LINE
  5
609
330
1F
100
AcDbEntity
  8
BASIS
100
AcDbLine
 10
299.9999999999995
 20
136.5300000000001
 30
0.0
 11
299.9999999999995
 21
173.9900000000002
 31
0.0
  0
LINE
  5
60A
330
1F
100
AcDbEntity
  8
BASIS
100
AcDbLine
 10
313.5
 20
160.0
 30
0.0
 11
286.9299999999998
 21
160.0
 31
0.0
  0
LINE
  5
60B
330
1F
100
AcDbEntity
  8
BASIS
100
AcDbLine
 10
-300.0000000000004
 20
146.5300000000006
 30
0.0
 11
-300.0000000000004
 21
173.9900000000006
 31
0.0
  0
LINE
  5
60C
330
1F
100
AcDbEntity
  8
BASIS
100
AcDbLine
 10
-313.5000000000004
 20
160.0000000000004
 30
0.0
 11
-286.94
 21
160.0000000000004
 31
0.0
  0
LINE
  5
60D
330
1F
100
AcDbEntity
  8
BASIS
100
AcDbLine
 10
299.9999999999995
 20
-141.5299999999988
 30
0.0
 11
299.9999999999995
 21
-178.9899999999988
 31
0.0
  0
LINE
  5
60E
330
1F
100
AcDbEntity
  8
BASIS
100
AcDbLine
 10
313.5
 20
-159.999999999999
 30
0.0
 11
286.9299999999998
 21
-159.999999999999
 31
0.0
  0
POINT
  5
60F
330
1F
100
AcDbEntity
  8
ARRANGE
100
AcDbPoint
 10
0.0
 20
0.0
 30
0.0
  0
LINE
  5
610
330
1F
100
AcDbEntity
  8
BASIS
100
AcDbLine
 10
-300.0000000000004
 20
-146.5299999999988
 30
0.0
 11
-300.0000000000004
 21
-173.9899999999988
 31
0.0
  0
LINE
  5
611
330
1F
100
AcDbEntity
  8
BASIS
100
AcDbLine
 10
-313.2800000000002
 20
-159.999999999999
 30
0.0
 11
-286.7200000000002
 21
-159.999999999999
 31
0.0
  0
LINE
  5
612
330
1F
100
AcDbEntity
  8
BASIS
100
AcDbLine
 10
-0.0000000000004547
 20
145.0000000000013
 30
0.0
 11
0.0
 21
-144.999999999999
 31
0.0
  0
LINE
  5
613
330
1F
100
AcDbEntity
  8
BASIS
100
AcDbLine
 10
299.9999999999977
 20
-1378.13
 30
0.0
 11
299.9999999999977
 21
-1441.92
 31
0.0
  0
POINT
  5
614
330
1F
100
AcDbEntity
  8
ARRANGE
100
AcDbPoint
 10
-0.0000000000022737
 20
-1413.409999999999
 30
0.0
  0
LINE
  5
615
330
1F
100
AcDbEntity
  8
BASIS
100
AcDbLine
 10
-300.0000000000022
 20
-1378.129999999999
 30
0.0
 11
-300.0000000000022
 21
-1441.919999999999
 31
0.0
  0
LINE
  5
616
330
1F
100
AcDbEntity
  8
BASIS
100
AcDbLine
 10
-108.0000000000018
 20
-883.8599999999992
 30
0.0
 11
-108.0000000000022
 21
-1386.109999999999
 31
0.0
  0
LINE
  5
617
330
1F
100
AcDbEntity
  8
BASIS
100
AcDbLine
 10
-367.1800000000014
 20
-1136.909999999998
 30
0.0
 11
142.0199999999972
 21
-1136.91
 31
0.0
  0
LINE
  5
618
330
1F
100
AcDbEntity
  8
BASIS
100
AcDbLine
 10
-0.0000000000009095
 20
-863.4099999999994
 30
0.0
 11
-0.0000000000022737
 21
-1413.409999999999
 31
0.0
  0
LINE
  5
619
330
1F
100
AcDbEntity
  8
BASIS
100
AcDbLine
 10
-400.0000000000004
 20
0.0000000000004547
 30
0.0
 11
390.0
 21
0.0
 31
0.0
  0
LINE
  5
61A
330
1F
100
AcDbEntity
  8
SIZE
100
AcDbLine
 10
1782.751113254055
 20
104.9999999999981
 30
0.0
 11
1776.084446587388
 21
144.9999999999981
 31
0.0
  0
LINE
  5
61B
330
1F
100
AcDbEntity
  8
SIZE
100
AcDbLine
 10
1769.417779920721
 20
104.9999999999981
 30
0.0
 11
1776.084446587388
 21
144.9999999999981
 31
0.0
  0
TEXT
  5
61C
330
1F
100
AcDbEntity
  8
SIZE
100
AcDbText
 10
1766.084446587388
 20
26.8335897480373
 30
0.0
 40
30.0
  1
143
 50
90.0
  7
ARIAL
100
AcDbText
  0
LINE
  5
61D
330
1F
100
AcDbEntity
  8
SIZE
100
AcDbLine
 10
2201.149127487537
 20
39.99999999999818
 30
0.0
 11
2207.815794154204
 21
-0.000000000001819
 31
0.0
  0
LINE
  5
61E
330
1F
100
AcDbEntity
  8
SIZE
100
AcDbLine
 10
2214.482460820871
 20
39.99999999999818
 30
0.0
 11
2207.815794154204
 21
-0.000000000001819
 31
0.0
  0
LINE
  5
61F
330
1F
100
AcDbEntity
  8
SIZE
100
AcDbLine
 10
2214.482460820871
 20
104.9999999999981
 30
0.0
 11
2207.815794154205
 21
144.9999999999981
 31
0.0
  0
LINE
  5
620
330
1F
100
AcDbEntity
  8
SIZE
100
AcDbLine
 10
2201.149127487537
 20
104.9999999999981
 30
0.0
 11
2207.815794154205
 21
144.9999999999981
 31
0.0
  0
TEXT
  5
621
330
1F
100
AcDbEntity
  8
SIZE
100
AcDbText
 10
2201.739119212337
 20
36.82500915485011
 30
0.0
 40
30.0
  1
145
 50
90.0
  7
ARIAL
100
AcDbText
  0
LINE
  5
622
330
1F
100
AcDbEntity
  8
SIZE
100
AcDbLine
 10
2080.636337021447
 20
144.9999999999981
 30
0.0
 11
2217.815794154204
 21
144.9999999999981
 31
0.0
  0
LINE
  5
623
330
1F
100
AcDbEntity
  8
SIZE
100
AcDbLine
 10
2087.636337021446
 20
-0.000000000001819
 30
0.0
 11
2217.815794154204
 21
-0.000000000001819
 31
0.0
  0
LINE
  5
624
330
1F
100
AcDbEntity
  8
SIZE
100
AcDbLine
 10
2050.636337021447
 20
144.9999999999981
 30
0.0
 11
1766.084446587388
 21
144.9999999999981
 31
0.0
  0
LINE
  5
625
330
1F
100
AcDbEntity
  8
SIZE
100
AcDbLine
 10
-2120.636337021448
 20
-284.627909541884
 30
0.0
 11
-2080.636337021448
 21
-277.961242875217
 31
0.0
  0
LINE
  5
626
330
1F
100
AcDbEntity
  8
SIZE
100
AcDbLine
 10
-2120.636337021448
 20
-271.294576208551
 30
0.0
 11
-2080.636337021448
 21
-277.961242875217
 31
0.0
  0
LINE
  5
627
330
1F
100
AcDbEntity
  8
SIZE
100
AcDbLine
 10
-2072.636337021448
 20
-277.961242875217
 30
0.0
 11
-1986.506656787702
 21
-277.961242875217
 31
0.0
  0
LINE
  5
628
330
1F
100
AcDbEntity
  8
SIZE
100
AcDbLine
 10
-2032.636337021448
 20
-271.294576208551
 30
0.0
 11
-2072.636337021448
 21
-277.961242875217
 31
0.0
  0
LINE
  5
629
330
1F
100
AcDbEntity
  8
SIZE
100
AcDbLine
 10
-2032.636337021448
 20
-284.627909541884
 30
0.0
 11
-2072.636337021448
 21
-277.961242875217
 31
0.0
  0
TEXT
  5
62A
330
1F
100
AcDbEntity
  8
SIZE
100
AcDbText
 10
-2016.836766088111
 20
-267.9612428752171
 30
0.0
 40
30.0
  1
8
  7
ARIAL
100
AcDbText
  0
LINE
  5
62B
330
1F
100
AcDbEntity
  8
SIZE
100
AcDbLine
 10
-1512.671642168869
 20
35.50000000000227
 30
0.0
 11
-1519.338308835535
 21
75.50000000000228
 31
0.0
  0
LINE
  5
62C
330
1F
100
AcDbEntity
  8
SIZE
100
AcDbLine
 10
-1526.004975502202
 20
35.50000000000227
 30
0.0
 11
-1519.338308835535
 21
75.50000000000228
 31
0.0
  0
LINE
  5
62D
330
1F
100
AcDbEntity
  8
SIZE
100
AcDbLine
 10
-1519.338308835535
 20
145.0000000000022
 30
0.0
 11
-1519.338308835535
 21
298.9610747696547
 31
0.0
  0
LINE
  5
62E
330
1F
100
AcDbEntity
  8
SIZE
100
AcDbLine
 10
-1526.004975502202
 20
185.0000000000022
 30
0.0
 11
-1519.338308835535
 21
145.0000000000022
 31
0.0
  0
LINE
  5
62F
330
1F
100
AcDbEntity
  8
SIZE
100
AcDbLine
 10
-1512.671642168869
 20
185.0000000000022
 30
0.0
 11
-1519.338308835535
 21
145.0000000000022
 31
0.0
  0
TEXT
  5
630
330
1F
100
AcDbEntity
  8
SIZE
100
AcDbText
 10
-1509.338308835535
 20
285.1673561264113
 30
0.0
 40
30.0
  1
69.5
 50
270.0
  7
ARIAL
100
AcDbText
  0
LINE
  5
631
330
1F
100
AcDbEntity
  8
SIZE
100
AcDbLine
 10
-1439.216552179081
 20
35.50000000000227
 30
0.0
 11
-1445.883218845747
 21
75.50000000000228
 31
0.0
  0
LINE
  5
632
330
1F
100
AcDbEntity
  8
SIZE
100
AcDbLine
 10
-1452.549885512414
 20
35.50000000000227
 30
0.0
 11
-1445.883218845747
 21
75.50000000000228
 31
0.0
  0
LINE
  5
633
330
1F
100
AcDbEntity
  8
SIZE
100
AcDbLine
 10
-1452.549885512414
 20
-31.49999999999749
 30
0.0
 11
-1445.883218845747
 21
-71.49999999999796
 31
0.0
  0
LINE
  5
634
330
1F
100
AcDbEntity
  8
SIZE
100
AcDbLine
 10
-1439.216552179081
 20
-31.49999999999749
 30
0.0
 11
-1445.883218845747
 21
-71.49999999999796
 31
0.0
  0
TEXT
  5
635
330
1F
100
AcDbEntity
  8
SIZE
100
AcDbText
 10
-1435.883218845747
 20
30.69161812868086
 30
0.0
 40
30.0
  1
147
 50
270.0
  7
ARIAL
100
AcDbText
  0
LINE
  5
636
330
1F
100
AcDbEntity
  8
SIZE
100
AcDbLine
 10
-1530.636337021445
 20
-281.1996394543293
 30
0.0
 11
-1470.613685239123
 21
-281.1996394543293
 31
0.0
  0
LINE
  5
637
330
1F
100
AcDbEntity
  8
SIZE
100
AcDbLine
 10
-1490.636337021445
 20
-274.5329727876633
 30
0.0
 11
-1530.636337021445
 21
-281.1996394543293
 31
0.0
  0
LINE
  5
638
330
1F
100
AcDbEntity
  8
SIZE
100
AcDbLine
 10
-1490.636337021445
 20
-287.8663061209963
 30
0.0
 11
-1530.636337021445
 21
-281.1996394543293
 31
0.0
  0
LINE
  5
639
330
1F
100
AcDbEntity
  8
SIZE
100
AcDbLine
 10
-1551.636337021445
 20
-281.1996394543293
 30
0.0
 11
-1638.314686210244
 21
-281.1996394543293
 31
0.0
  0
LINE
  5
63A
330
1F
100
AcDbEntity
  8
SIZE
100
AcDbLine
 10
-1591.636337021445
 20
-287.8663061209963
 30
0.0
 11
-1551.636337021445
 21
-281.1996394543293
 31
0.0
  0
LINE
  5
63B
330
1F
100
AcDbEntity
  8
SIZE
100
AcDbLine
 10
-1591.636337021445
 20
-274.5329727876633
 30
0.0
 11
-1551.636337021445
 21
-281.1996394543293
 31
0.0
  0
TEXT
  5
63C
330
1F
100
AcDbEntity
  8
SIZE
100
AcDbText
 10
-1631.233734275229
 20
-271.1996394543299
 30
0.0
 40
30.0
  1
21
  7
ARIAL
100
AcDbText
  0
LINE
  5
63D
330
1F
100
AcDbEntity
  8
SIZE
100
AcDbLine
 10
-1570.636337021445
 20
-366.5891524171024
 30
0.0
 11
-1530.636337021445
 21
-359.9224857504363
 31
0.0
  0
LINE
  5
63E
330
1F
100
AcDbEntity
  8
SIZE
100
AcDbLine
 10
-1570.636337021445
 20
-353.2558190837694
 30
0.0
 11
-1530.636337021445
 21
-359.9224857504363
 31
0.0
  0
LINE
  5
63F
330
1F
100
AcDbEntity
  8
SIZE
100
AcDbLine
 10
-2040.636337021448
 20
-353.2558190837694
 30
0.0
 11
-2080.636337021448
 21
-359.9224857504359
 31
0.0
  0
LINE
  5
640
330
1F
100
AcDbEntity
  8
SIZE
100
AcDbLine
 10
-2040.636337021448
 20
-366.5891524171024
 30
0.0
 11
-2080.636337021448
 21
-359.9224857504359
 31
0.0
  0
TEXT
  5
641
330
1F
100
AcDbEntity
  8
SIZE
100
AcDbText
 10
-1855.636337021447
 20
-349.9224857504365
 30
0.0
 40
30.0
  1
550
  7
ARIAL
100
AcDbText
  0
LINE
  5
642
330
1F
100
AcDbEntity
  8
SIZE
100
AcDbLine
 10
-1362.992514405414
 20
105.0000000000018
 30
0.0
 11
-1369.65918107208
 21
145.0000000000018
 31
0.0
  0
LINE
  5
643
330
1F
100
AcDbEntity
  8
SIZE
100
AcDbLine
 10
-1376.325847738747
 20
105.0000000000018
 30
0.0
 11
-1369.65918107208
 21
145.0000000000018
 31
0.0
  0
LINE
  5
644
330
1F
100
AcDbEntity
  8
SIZE
100
AcDbLine
 10
-1376.325847738747
 20
-104.9999999999979
 30
0.0
 11
-1369.65918107208
 21
-144.9999999999984
 31
0.0
  0
LINE
  5
645
330
1F
100
AcDbEntity
  8
SIZE
100
AcDbLine
 10
-1362.992514405414
 20
-104.9999999999979
 30
0.0
 11
-1369.65918107208
 21
-144.9999999999984
 31
0.0
  0
TEXT
  5
646
330
1F
100
AcDbEntity
  8
SIZE
100
AcDbText
 10
-1359.65918107208
 20
37.1150677177741
 30
0.0
 40
30.0
  1
290
 50
270.0
  7
ARIAL
100
AcDbText
  0
LINE
  5
647
330
1F
100
AcDbEntity
  8
SIZE
100
AcDbLine
 10
-1541.636337021445
 20
-144.9999999999981
 30
0.0
 11
-1359.65918107208
 21
-144.9999999999984
 31
0.0
  0
LINE
  5
648
330
1F
100
AcDbEntity
  8
SIZE
100
AcDbLine
 10
-1541.636337021445
 20
145.0000000000022
 30
0.0
 11
-1359.65918107208
 21
145.0000000000018
 31
0.0
  0
LINE
  5
649
330
1F
100
AcDbEntity
  8
SIZE
100
AcDbLine
 10
-2080.636337021448
 20
-185.9999999999981
 30
0.0
 11
-2080.636337021448
 21
-369.9224857504359
 31
0.0
  0
LINE
  5
64A
330
1F
100
AcDbEntity
  8
SIZE
100
AcDbLine
 10
-1530.636337021445
 20
-153.9999999999981
 30
0.0
 11
-1530.636337021445
 21
-369.9224857504364
 31
0.0
  0
LINE
  5
64B
330
1F
100
AcDbEntity
  8
SIZE
100
AcDbLine
 10
-1530.636337021445
 20
-281.1996394543293
 30
0.0
 11
-1551.636337021445
 21
-281.1996394543293
 31
0.0
  0
LINE
  5
64C
330
1F
100
AcDbEntity
  8
SIZE
100
AcDbLine
 10
-1551.636337021445
 20
-86.49999999999772
 30
0.0
 11
-1551.636337021445
 21
-291.1996394543293
 31
0.0
  0
LINE
  5
64D
330
1F
100
AcDbEntity
  8
SIZE
100
AcDbLine
 10
-1530.636337021445
 20
-153.9999999999981
 30
0.0
 11
-1530.636337021445
 21
-291.1996394543293
 31
0.0
  0
LINE
  5
64E
330
1F
100
AcDbEntity
  8
SIZE
100
AcDbLine
 10
-1536.636337021445
 20
-71.49999999999772
 30
0.0
 11
-1435.883218845747
 21
-71.49999999999796
 31
0.0
  0
LINE
  5
64F
330
1F
100
AcDbEntity
  8
SIZE
100
AcDbLine
 10
-1536.636337021445
 20
75.50000000000228
 30
0.0
 11
-1435.883218845747
 21
75.50000000000228
 31
0.0
  0
LINE
  5
650
330
1F
100
AcDbEntity
  8
SIZE
100
AcDbLine
 10
-1519.338308835535
 20
75.50000000000228
 30
0.0
 11
-1519.338308835535
 21
145.0000000000022
 31
0.0
  0
LINE
  5
651
330
1F
100
AcDbEntity
  8
SIZE
100
AcDbLine
 10
-1519.338308835535
 20
75.50000000000228
 30
0.0
 11
-1519.338308835535
 21
-4.499999999997726
 31
0.0
  0
LINE
  5
652
330
1F
100
AcDbEntity
  8
SIZE
100
AcDbLine
 10
-1526.636337021446
 20
145.0000000000022
 30
0.0
 11
-1509.338308835535
 21
145.0000000000022
 31
0.0
  0
LINE
  5
653
330
1F
100
AcDbEntity
  8
SIZE
100
AcDbLine
 10
-1537.056337021446
 20
75.50000000000228
 30
0.0
 11
-1509.338308835535
 21
75.50000000000228
 31
0.0
  0
LINE
  5
654
330
1F
100
AcDbEntity
  8
SIZE
100
AcDbLine
 10
-2080.636337021448
 20
-277.961242875217
 30
0.0
 11
-2072.636337021448
 21
-277.961242875217
 31
0.0
  0
LINE
  5
655
330
1F
100
AcDbEntity
  8
SIZE
100
AcDbLine
 10
-2080.636337021448
 20
-277.961242875217
 30
0.0
 11
-2160.636337021448
 21
-277.961242875217
 31
0.0
  0
LINE
  5
656
330
1F
100
AcDbEntity
  8
SIZE
100
AcDbLine
 10
-2072.636337021448
 20
-185.9999999999981
 30
0.0
 11
-2072.636337021448
 21
-287.9612428752171
 31
0.0
  0
LINE
  5
657
330
1F
100
AcDbEntity
  8
SIZE
100
AcDbLine
 10
-2080.636337021448
 20
-185.9999999999981
 30
0.0
 11
-2080.636337021448
 21
-287.9612428752171
 31
0.0
  0
LINE
  5
658
330
1F
100
AcDbEntity
  8
BASIS
100
AcDbLine
 10
-2072.636337021448
 20
-0.0005128294087626
 30
0.0
 11
-1530.636337021445
 21
-0.0005128294087626
 31
0.0
  0
LINE
  5
659
330
1F
100
AcDbEntity
  8
BASIS
100
AcDbLine
 10
-1551.636337021445
 20
-52.87499999999773
 30
0.0
 11
-1551.636337021445
 21
-90.12499999999773
 31
0.0
  0
LINE
  5
65A
330
1F
100
AcDbEntity
  8
BASIS
100
AcDbLine
 10
-1532.456337021446
 20
-71.49999999999772
 30
0.0
 11
-1571.656337021446
 21
-71.49999999999772
 31
0.0
  0
LINE
  5
65B
330
1F
100
AcDbEntity
  8
BASIS
100
AcDbLine
 10
-1551.636337021445
 20
93.55000000000245
 30
0.0
 11
-1551.636337021445
 21
56.30000000000245
 31
0.0
  0
LINE
  5
65C
330
1F
100
AcDbEntity
  8
BASIS
100
AcDbLine
 10
-1532.456337021446
 20
75.50000000000228
 30
0.0
 11
-1571.656337021446
 21
75.50000000000228
 31
0.0
  0
CIRCLE
  5
65D
330
1F
100
AcDbEntity
  8
FIX
100
AcDbCircle
 10
-2080.636337021448
 20
160.000000000004
 30
0.0
 40
20.0
  0
CIRCLE
  5
65E
330
1F
100
AcDbEntity
  8
FIX
100
AcDbCircle
 10
-2080.636337021448
 20
-159.9999999999969
 30
0.0
 40
20.0
  0
CIRCLE
  5
65F
330
1F
100
AcDbEntity
  8
ARRANGE
100
AcDbCircle
 10
-2072.636337021446
 20
-0.0005128294088367
 30
0.0
 40
20.0
  0
LINE
  5
660
330
1F
100
AcDbEntity
  8
BASIS
100
AcDbLine
 10
-2047.446337021447
 20
160.0000000000036
 30
0.0
 11
-2121.486337021448
 21
160.0000000000036
 31
0.0
  0
POINT
  5
661
330
1F
100
AcDbEntity
  8
ARRANGE
100
AcDbPoint
 10
-2072.636337021448
 20
-0.0005128294087626
 30
0.0
  0
LINE
  5
662
330
1F
100
AcDbEntity
  8
BASIS
100
AcDbLine
 10
-2047.446337021447
 20
-159.9999999999981
 30
0.0
 11
-2121.486337021448
 21
-159.9999999999979
 31
0.0
  0
LINE
  5
663
330
1F
100
AcDbEntity
  8
BASIS
100
AcDbLine
 10
2072.636337021446
 20
-0.0005128294133101
 30
0.0
 11
1530.636337021445
 21
-0.0005128294124006
 31
0.0
  0
LINE
  5
664
330
1F
100
AcDbEntity
  8
SIZE
100
AcDbLine
 10
2278.239765776918
 20
-131.0000000000018
 30
0.0
 11
2284.906432443585
 21
-171.0000000000018
 31
0.0
  0
LINE
  5
665
330
1F
100
AcDbEntity
  8
SIZE
100
AcDbLine
 10
2291.573099110251
 20
-131.0000000000018
 30
0.0
 11
2284.906432443585
 21
-171.0000000000018
 31
0.0
  0
LINE
  5
666
330
1F
100
AcDbEntity
  8
SIZE
100
AcDbLine
 10
2291.573099110251
 20
130.9999999999981
 30
0.0
 11
2284.906432443585
 21
170.9999999999981
 31
0.0
  0
LINE
  5
667
330
1F
100
AcDbEntity
  8
SIZE
100
AcDbLine
 10
2278.239765776919
 20
130.9999999999981
 30
0.0
 11
2284.906432443585
 21
170.9999999999981
 31
0.0
  0
TEXT
  5
668
330
1F
100
AcDbEntity
  8
SIZE
100
AcDbText
 10
2279.717974516329
 20
-35.45155311914155
 30
0.0
 40
30.0
  1
342
 50
90.0
  7
ARIAL
100
AcDbText
  0
LINE
  5
669
330
1F
100
AcDbEntity
  8
SIZE
100
AcDbLine
 10
1490.636337021445
 20
-218.5020672092393
 30
0.0
 11
1530.636337021445
 21
-211.8354005425724
 31
0.0
  0
LINE
  5
66A
330
1F
100
AcDbEntity
  8
SIZE
100
AcDbLine
 10
1490.636337021445
 20
-205.1687338759054
 30
0.0
 11
1530.636337021445
 21
-211.8354005425724
 31
0.0
  0
LINE
  5
66B
330
1F
100
AcDbEntity
  8
SIZE
100
AcDbLine
 10
1551.636337021445
 20
-211.8354005425724
 30
0.0
 11
1641.60325487435
 21
-211.8354005425728
 31
0.0
  0
LINE
  5
66C
330
1F
100
AcDbEntity
  8
SIZE
100
AcDbLine
 10
1591.636337021445
 20
-205.1687338759058
 30
0.0
 11
1551.636337021445
 21
-211.8354005425724
 31
0.0
  0
LINE
  5
66D
330
1F
100
AcDbEntity
  8
SIZE
100
AcDbLine
 10
1591.636337021445
 20
-218.5020672092398
 30
0.0
 11
1551.636337021445
 21
-211.8354005425724
 31
0.0
  0
TEXT
  5
66E
330
1F
100
AcDbEntity
  8
SIZE
100
AcDbText
 10
1632.609399542035
 20
-221.8354005425732
 30
0.0
 40
30.0
  1
21
 50
180.0
  7
ARIAL
100
AcDbText
  0
LINE
  5
66F
330
1F
100
AcDbEntity
  8
SIZE
100
AcDbLine
 10
1503.223478343714
 20
26.0
 30
0.0
 11
1496.556811677047
 21
66.0
 31
0.0
  0
LINE
  5
670
330
1F
100
AcDbEntity
  8
SIZE
100
AcDbLine
 10
1489.89014501038
 20
26.0
 30
0.0
 11
1496.556811677047
 21
66.0
 31
0.0
  0
LINE
  5
671
330
1F
100
AcDbEntity
  8
SIZE
100
AcDbLine
 10
1489.89014501038
 20
-50.99999999999977
 30
0.0
 11
1496.556811677047
 21
-90.99999999999978
 31
0.0
  0
LINE
  5
672
330
1F
100
AcDbEntity
  8
SIZE
100
AcDbLine
 10
1503.223478343714
 20
-50.99999999999977
 30
0.0
 11
1496.556811677047
 21
-90.99999999999978
 31
0.0
  0
TEXT
  5
673
330
1F
100
AcDbEntity
  8
SIZE
100
AcDbText
 10
1486.556811677047
 20
-42.14381199735917
 30
0.0
 40
30.0
  1
157
 50
90.0
  7
ARIAL
100
AcDbText
  0
LINE
  5
674
330
1F
100
AcDbEntity
  8
SIZE
100
AcDbLine
 10
1503.223478343714
 20
26.0
 30
0.0
 11
1496.556811677047
 21
66.0
 31
0.0
  0
LINE
  5
675
330
1F
100
AcDbEntity
  8
SIZE
100
AcDbLine
 10
1489.89014501038
 20
26.0
 30
0.0
 11
1496.556811677047
 21
66.0
 31
0.0
  0
LINE
  5
676
330
1F
100
AcDbEntity
  8
SIZE
100
AcDbLine
 10
1489.89014501038
 20
184.999999999999
 30
0.0
 11
1496.556811677047
 21
144.999999999999
 31
0.0
  0
LINE
  5
677
330
1F
100
AcDbEntity
  8
SIZE
100
AcDbLine
 10
1503.223478343714
 20
184.999999999999
 30
0.0
 11
1496.556811677047
 21
144.999999999999
 31
0.0
  0
TEXT
  5
678
330
1F
100
AcDbEntity
  8
SIZE
100
AcDbText
 10
1487.024126050102
 20
77.46215606538672
 30
0.0
 40
30.0
  1
79
 50
90.0
  7
ARIAL
100
AcDbText
  0
LINE
  5
679
330
1F
100
AcDbEntity
  8
SIZE
100
AcDbLine
 10
1496.556811677047
 20
66.0
 30
0.0
 11
1496.556811677047
 21
144.999999999999
 31
0.0
  0
LINE
  5
67A
330
1F
100
AcDbEntity
  8
SIZE
100
AcDbLine
 10
1541.636337021445
 20
144.999999999999
 30
0.0
 11
1486.556811677047
 21
144.999999999999
 31
0.0
  0
LINE
  5
67B
330
1F
100
AcDbEntity
  8
SIZE
100
AcDbLine
 10
1536.636337021445
 20
66.0
 30
0.0
 11
1486.556811677047
 21
66.0
 31
0.0
  0
LINE
  5
67C
330
1F
100
AcDbEntity
  8
SIZE
100
AcDbLine
 10
1536.636337021445
 20
-90.99999999999978
 30
0.0
 11
1486.556811677047
 21
-90.99999999999978
 31
0.0
  0
LINE
  5
67D
330
1F
100
AcDbEntity
  8
SIZE
100
AcDbLine
 10
1536.636337021445
 20
66.0
 30
0.0
 11
1486.556811677047
 21
66.0
 31
0.0
  0
LINE
  5
67E
330
1F
100
AcDbEntity
  8
SIZE
100
AcDbLine
 10
2065.636337021446
 20
1.999999999998635
 30
0.0
 11
1868.701147510687
 21
1.999999999998635
 31
0.0
  0
LINE
  5
67F
330
1F
100
AcDbEntity
  8
SIZE
100
AcDbLine
 10
1530.636337021445
 20
-211.8354005425724
 30
0.0
 11
1551.636337021445
 21
-211.8354005425724
 31
0.0
  0
LINE
  5
680
330
1F
100
AcDbEntity
  8
SIZE
100
AcDbLine
 10
1530.636337021445
 20
-211.8354005425724
 30
0.0
 11
1450.636337021445
 21
-211.8354005425724
 31
0.0
  0
LINE
  5
681
330
1F
100
AcDbEntity
  8
SIZE
100
AcDbLine
 10
1551.636337021445
 20
-105.9999999999997
 30
0.0
 11
1551.636337021445
 21
-221.8354005425724
 31
0.0
  0
LINE
  5
682
330
1F
100
AcDbEntity
  8
SIZE
100
AcDbLine
 10
1530.636337021445
 20
-154.0000000000011
 30
0.0
 11
1530.636337021445
 21
-221.8354005425724
 31
0.0
  0
LINE
  5
683
330
1F
100
AcDbEntity
  8
SIZE
100
AcDbLine
 10
2095.636337021447
 20
170.9999999999981
 30
0.0
 11
2294.906432443585
 21
170.9999999999981
 31
0.0
  0
LINE
  5
684
330
1F
100
AcDbEntity
  8
SIZE
100
AcDbLine
 10
2095.636337021447
 20
-171.0000000000018
 30
0.0
 11
2294.906432443585
 21
-171.0000000000018
 31
0.0
  0
LINE
  5
685
330
1F
100
AcDbEntity
  8
SIZE
100
AcDbLine
 10
2065.636337021447
 20
144.9999999999981
 30
0.0
 11
2065.636337021446
 21
-0.000000000001819
 31
0.0
  0
LINE
  5
686
330
1F
100
AcDbEntity
  8
SIZE
100
AcDbLine
 10
2080.636337021447
 20
170.9999999999981
 30
0.0
 11
2080.636337021446
 21
25.99999999999818
 31
0.0
  0
LINE
  5
687
330
1F
100
AcDbEntity
  8
BASIS
100
AcDbLine
 10
1551.636337021445
 20
-72.94999999999959
 30
0.0
 11
1551.636337021445
 21
-110.1999999999995
 31
0.0
  0
LINE
  5
688
330
1F
100
AcDbEntity
  8
BASIS
100
AcDbLine
 10
1532.456337021446
 20
-90.99999999999978
 30
0.0
 11
1571.656337021446
 21
-91.00000000000022
 31
0.0
  0
LINE
  5
689
330
1F
100
AcDbEntity
  8
BASIS
100
AcDbLine
 10
1551.636337021445
 20
84.05000000000018
 30
0.0
 11
1551.636337021445
 21
46.80000000000018
 31
0.0
  0
LINE
  5
68A
330
1F
100
AcDbEntity
  8
BASIS
100
AcDbLine
 10
1532.456337021446
 20
66.0
 30
0.0
 11
1571.656337021446
 21
65.99999999999955
 31
0.0
  0
LINE
  5
68B
330
1F
100
AcDbEntity
  8
SIZE
100
AcDbLine
 10
-544.1926954574618
 20
1193.423561899652
 30
0.0
 11
-537.5260287907948
 21
1153.423561899652
 31
0.0
  0
LINE
  5
68C
330
1F
100
AcDbEntity
  8
SIZE
100
AcDbLine
 10
-530.8593621241287
 20
1193.423561899652
 30
0.0
 11
-537.5260287907948
 21
1153.423561899652
 31
0.0
  0
LINE
  5
68D
330
1F
100
AcDbEntity
  8
SIZE
100
AcDbLine
 10
-530.859362124127
 20
1663.410000000002
 30
0.0
 11
-537.5260287907931
 21
1703.410000000002
 31
0.0
  0
LINE
  5
68E
330
1F
100
AcDbEntity
  8
SIZE
100
AcDbLine
 10
-544.1926954574601
 20
1663.410000000002
 30
0.0
 11
-537.5260287907931
 21
1703.410000000002
 31
0.0
  0
TEXT
  5
68F
330
1F
100
AcDbEntity
  8
SIZE
100
AcDbText
 10
-527.5260287907938
 20
1478.416780949827
 30
0.0
 40
30.0
  1
550
 50
270.0
  7
ARIAL
100
AcDbText
  0
LINE
  5
690
330
1F
100
AcDbEntity
  8
SIZE
100
AcDbLine
 10
350.0000000000007
 20
1034.861442347626
 30
0.0
 11
390.0000000000007
 21
1041.528109014292
 31
0.0
  0
LINE
  5
691
330
1F
100
AcDbEntity
  8
SIZE
100
AcDbLine
 10
350.0000000000007
 20
1048.194775680959
 30
0.0
 11
390.0000000000007
 21
1041.528109014292
 31
0.0
  0
LINE
  5
692
330
1F
100
AcDbEntity
  8
SIZE
100
AcDbLine
 10
-349.999999999999
 20
1048.194775680959
 30
0.0
 11
-389.999999999999
 21
1041.528109014292
 31
0.0
  0
LINE
  5
693
330
1F
100
AcDbEntity
  8
SIZE
100
AcDbLine
 10
-349.999999999999
 20
1034.861442347626
 30
0.0
 11
-389.999999999999
 21
1041.528109014292
 31
0.0
  0
TEXT
  5
694
330
1F
100
AcDbEntity
  8
SIZE
100
AcDbText
 10
49.99999999999984
 20
1031.528109014294
 30
0.0
 40
30.0
  1
780
 50
180.0
  7
ARIAL
100
AcDbText
  0
LINE
  5
695
330
1F
100
AcDbEntity
  8
SIZE
100
AcDbLine
 10
-340.9999999999981
 20
1703.410000000002
 30
0.0
 11
-547.5260287907931
 21
1703.410000000002
 31
0.0
  0
LINE
  5
696
330
1F
100
AcDbEntity
  8
SIZE
100
AcDbLine
 10
-393.5703522301855
 20
1153.423561899651
 30
0.0
 11
-547.5260287907948
 21
1153.423561899652
 31
0.0
  0
LINE
  5
697
330
1F
100
AcDbEntity
  8
SIZE
100
AcDbLine
 10
-389.999999999999
 20
1150.410000000001
 30
0.0
 11
-389.999999999999
 21
1031.528109014293
 31
0.0
  0
LINE
  5
698
330
1F
100
AcDbEntity
  8
SIZE
100
AcDbLine
 10
390.0000000000007
 20
1150.410000000002
 30
0.0
 11
390.0000000000007
 21
1031.528109014293
 31
0.0
  0
CIRCLE
  5
699
330
1F
100
AcDbEntity
  8
FIX
100
AcDbCircle
 10
300.0000000000031
 20
1703.410000000002
 30
0.0
 40
20.0
  0
CIRCLE
  5
69A
330
1F
100
AcDbEntity
  8
FIX
100
AcDbCircle
 10
-299.9999999999975
 20
1703.410000000002
 30
0.0
 40
20.0
  0
CIRCLE
  5
69B
330
1F
100
AcDbEntity
  8
ARRANGE
100
AcDbCircle
 10
0.000000000003638
 20
1703.410000000002
 30
0.0
 40
20.0
  0
LINE
  5
69C
330
1F
100
AcDbEntity
  8
BASIS
100
AcDbLine
 10
415.0000000000022
 20
1543.330000000001
 30
0.0
 11
415.0000000000022
 21
1582.940000000001
 31
0.0
  0
LINE
  5
69D
330
1F
100
AcDbEntity
  8
BASIS
100
AcDbLine
 10
384.0500000000023
 20
1610.415000000001
 30
0.0
 11
450.1400000000025
 21
1610.405000000001
 31
0.0
  0
LINE
  5
69E
330
1F
100
AcDbEntity
  8
BASIS
100
AcDbLine
 10
384.0500000000023
 20
1566.410000000001
 30
0.0
 11
446.1400000000025
 21
1566.410000000001
 31
0.0
  0
LINE
  5
69F
330
1F
100
AcDbEntity
  8
BASIS
100
AcDbLine
 10
412.0000000000022
 20
1580.435000000001
 30
0.0
 11
412.0000000000023
 21
1638.785000000001
 31
0.0
  0
LINE
  5
6A0
330
1F
100
AcDbEntity
  8
BASIS
100
AcDbLine
 10
300.0000000000027
 20
1668.130000000001
 30
0.0
 11
300.0000000000027
 21
1731.920000000001
 31
0.0
  0
POINT
  5
6A1
330
1F
100
AcDbEntity
  8
ARRANGE
100
AcDbPoint
 10
0.0000000000027285
 20
1703.410000000001
 30
0.0
  0
LINE
  5
6A2
330
1F
100
AcDbEntity
  8
BASIS
100
AcDbLine
 10
-299.9999999999981
 20
1668.130000000001
 30
0.0
 11
-299.9999999999981
 21
1731.920000000002
 31
0.0
  0
LINE
  5
6A3
330
1F
100
AcDbEntity
  8
BASIS
100
AcDbLine
 10
0.0000000000007748
 20
1153.410000000002
 30
0.0
 11
0.0000000000027285
 21
1703.410000000001
 31
0.0
  0
LINE
  5
6A4
330
1F
100
AcDbEntity
  8
SIZE
100
AcDbLine
 10
-558.0315221124597
 20
113.0000000000004
 30
0.0
 11
-564.6981887791266
 21
153.0000000000004
 31
0.0
  0
LINE
  5
6A5
330
1F
100
AcDbEntity
  8
SIZE
100
AcDbLine
 10
-571.3648554457932
 20
113.0000000000004
 30
0.0
 11
-564.6981887791266
 21
153.0000000000004
 31
0.0
  0
LINE
  5
6A6
330
1F
100
AcDbEntity
  8
SIZE
100
AcDbLine
 10
-571.3648554457932
 20
-112.9999999999991
 30
0.0
 11
-564.6981887791266
 21
-152.999999999999
 31
0.0
  0
LINE
  5
6A7
330
1F
100
AcDbEntity
  8
SIZE
100
AcDbLine
 10
-558.0315221124597
 20
-112.9999999999991
 30
0.0
 11
-564.6981887791266
 21
-152.999999999999
 31
0.0
  0
TEXT
  5
6A8
330
1F
100
AcDbEntity
  8
SIZE
100
AcDbText
 10
-574.6981887791255
 20
-35.83185952307758
 30
0.0
 40
30.0
  1
306
 50
90.0
  7
ARIAL
100
AcDbText
  0
LINE
  5
6A9
330
1F
100
AcDbEntity
  8
SIZE
100
AcDbLine
 10
-449.3474253894505
 20
105.0000000000013
 30
0.0
 11
-456.0140920561175
 21
145.0000000000013
 31
0.0
  0
LINE
  5
6AA
330
1F
100
AcDbEntity
  8
SIZE
100
AcDbLine
 10
-462.680758722784
 20
105.0000000000013
 30
0.0
 11
-456.0140920561175
 21
145.0000000000013
 31
0.0
  0
LINE
  5
6AB
330
1F
100
AcDbEntity
  8
SIZE
100
AcDbLine
 10
-462.680758722784
 20
-104.9999999999995
 30
0.0
 11
-456.0140920561175
 21
-144.999999999999
 31
0.0
  0
LINE
  5
6AC
330
1F
100
AcDbEntity
  8
SIZE
100
AcDbLine
 10
-449.3474253894505
 20
-104.9999999999995
 30
0.0
 11
-456.0140920561175
 21
-144.999999999999
 31
0.0
  0
TEXT
  5
6AD
330
1F
100
AcDbEntity
  8
SIZE
100
AcDbText
 10
-466.0140920561164
 20
-35.83185952307667
 30
0.0
 40
30.0
  1
290
 50
90.0
  7
ARIAL
100
AcDbText
  0
LINE
  5
6AE
330
1F
100
AcDbEntity
  8
SIZE
100
AcDbLine
 10
-741.3539464773229
 20
-119.999999999999
 30
0.0
 11
-734.6872798106565
 21
-159.999999999999
 31
0.0
  0
LINE
  5
6AF
330
1F
100
AcDbEntity
  8
SIZE
100
AcDbLine
 10
-728.0206131439895
 20
-119.999999999999
 30
0.0
 11
-734.6872798106565
 21
-159.999999999999
 31
0.0
  0
LINE
  5
6B0
330
1F
100
AcDbEntity
  8
SIZE
100
AcDbLine
 10
-728.0206131439895
 20
120.0000000000004
 30
0.0
 11
-734.6872798106565
 21
160.0000000000004
 31
0.0
  0
LINE
  5
6B1
330
1F
100
AcDbEntity
  8
SIZE
100
AcDbLine
 10
-741.3539464773229
 20
120.0000000000004
 30
0.0
 11
-734.6872798106565
 21
160.0000000000004
 31
0.0
  0
TEXT
  5
6B2
330
1F
100
AcDbEntity
  8
SIZE
100
AcDbText
 10
-744.6872798106554
 20
-38.08483762849573
 30
0.0
 40
30.0
  1
320
 50
90.0
  7
ARIAL
100
AcDbText
  0
LINE
  5
6B3
330
1F
100
AcDbEntity
  8
SIZE
100
AcDbLine
 10
188.3232259621849
 20
-104.9999999999995
 30
0.0
 11
194.989892628851
 21
-144.999999999999
 31
0.0
  0
LINE
  5
6B4
330
1F
100
AcDbEntity
  8
SIZE
100
AcDbLine
 10
201.656559295518
 20
-104.9999999999995
 30
0.0
 11
194.989892628851
 21
-144.999999999999
 31
0.0
  0
LINE
  5
6B5
330
1F
100
AcDbEntity
  8
SIZE
100
AcDbLine
 10
194.989892628851
 20
-171.999999999999
 30
0.0
 11
194.989892628851
 21
-260.3079395578079
 31
0.0
  0
LINE
  5
6B6
330
1F
100
AcDbEntity
  8
SIZE
100
AcDbLine
 10
201.656559295518
 20
-211.999999999999
 30
0.0
 11
194.989892628851
 21
-171.999999999999
 31
0.0
  0
LINE
  5
6B7
330
1F
100
AcDbEntity
  8
SIZE
100
AcDbLine
 10
188.3232259621849
 20
-211.999999999999
 30
0.0
 11
194.989892628851
 21
-171.999999999999
 31
0.0
  0
TEXT
  5
6B8
330
1F
100
AcDbEntity
  8
SIZE
100
AcDbText
 10
184.989892628851
 20
-244.8560915842294
 30
0.0
 40
30.0
  1
27
 50
90.0
  7
ARIAL
100
AcDbText
  0
LINE
  5
6B9
330
1F
100
AcDbEntity
  8
SIZE
100
AcDbLine
 10
-260.0000000000004
 20
366.4001881577928
 30
0.0
 11
-300.0000000000004
 21
359.7335214911258
 31
0.0
  0
LINE
  5
6BA
330
1F
100
AcDbEntity
  8
SIZE
100
AcDbLine
 10
-260.0000000000004
 20
353.0668548244598
 30
0.0
 11
-300.0000000000004
 21
359.7335214911258
 31
0.0
  0
LINE
  5
6BB
330
1F
100
AcDbEntity
  8
SIZE
100
AcDbLine
 10
259.9999999999995
 20
353.0668548244589
 30
0.0
 11
299.9999999999995
 21
359.7335214911254
 31
0.0
  0
LINE
  5
6BC
330
1F
100
AcDbEntity
  8
SIZE
100
AcDbLine
 10
259.9999999999995
 20
366.4001881577919
 30
0.0
 11
299.9999999999995
 21
359.7335214911254
 31
0.0
  0
TEXT
  5
6BD
330
1F
100
AcDbEntity
  8
SIZE
100
AcDbText
 10
-46.66666666666651
 20
369.7335214911263
 30
0.0
 40
30.0
  1
600
  7
ARIAL
100
AcDbText
  0
LINE
  5
6BE
330
1F
100
AcDbEntity
  8
SIZE
100
AcDbLine
 10
367.0
 20
273.4011499638713
 30
0.0
 11
327.0
 21
266.7344832972048
 31
0.0
  0
LINE
  5
6BF
330
1F
100
AcDbEntity
  8
SIZE
100
AcDbLine
 10
367.0
 20
260.0678166305383
 30
0.0
 11
327.0
 21
266.7344832972048
 31
0.0
  0
LINE
  5
6C0
330
1F
100
AcDbEntity
  8
SIZE
100
AcDbLine
 10
272.9999999999995
 20
266.7344832972048
 30
0.0
 11
169.1052045153992
 21
266.7344832972048
 31
0.0
  0
LINE
  5
6C1
330
1F
100
AcDbEntity
  8
SIZE
100
AcDbLine
 10
232.9999999999995
 20
260.0678166305383
 30
0.0
 11
272.9999999999995
 21
266.7344832972048
 31
0.0
  0
LINE
  5
6C2
330
1F
100
AcDbEntity
  8
SIZE
100
AcDbLine
 10
232.9999999999995
 20
273.4011499638713
 30
0.0
 11
272.9999999999995
 21
266.7344832972048
 31
0.0
  0
TEXT
  5
6C3
330
1F
100
AcDbEntity
  8
SIZE
100
AcDbText
 10
176.6450121537468
 20
276.7344832972057
 30
0.0
 40
30.0
  1
54
  7
ARIAL
100
AcDbText
  0
LINE
  5
6C4
330
1F
100
AcDbEntity
  8
SIZE
100
AcDbLine
 10
349.9999999999991
 20
-779.8836649568607
 30
0.0
 11
389.9999999999991
 21
-773.2169982901937
 31
0.0
  0
LINE
  5
6C5
330
1F
100
AcDbEntity
  8
SIZE
100
AcDbLine
 10
349.9999999999991
 20
-766.5503316235267
 30
0.0
 11
389.9999999999991
 21
-773.2169982901937
 31
0.0
  0
LINE
  5
6C6
330
1F
100
AcDbEntity
  8
SIZE
100
AcDbLine
 10
172.999999999999
 20
-766.5503316235267
 30
0.0
 11
132.999999999999
 21
-773.2169982901937
 31
0.0
  0
LINE
  5
6C7
330
1F
100
AcDbEntity
  8
SIZE
100
AcDbLine
 10
172.999999999999
 20
-779.8836649568607
 30
0.0
 11
132.999999999999
 21
-773.2169982901937
 31
0.0
  0
TEXT
  5
6C8
330
1F
100
AcDbEntity
  8
SIZE
100
AcDbText
 10
225.0156265615096
 20
-763.2169982901936
 30
0.0
 40
30.0
  1
257
  7
ARIAL
100
AcDbText
  0
LINE
  5
6C9
330
1F
100
AcDbEntity
  8
SIZE
100
AcDbLine
 10
-318.0000000000022
 20
-1483.774913286827
 30
0.0
 11
-358.0000000000022
 21
-1490.441579953494
 31
0.0
  0
LINE
  5
6CA
330
1F
100
AcDbEntity
  8
SIZE
100
AcDbLine
 10
-318.0000000000022
 20
-1497.108246620161
 30
0.0
 11
-358.0000000000022
 21
-1490.441579953494
 31
0.0
  0
LINE
  5
6CB
330
1F
100
AcDbEntity
  8
SIZE
100
AcDbLine
 10
101.9999999999977
 20
-1497.108246620161
 30
0.0
 11
141.9999999999977
 21
-1490.441579953494
 31
0.0
  0
LINE
  5
6CC
330
1F
100
AcDbEntity
  8
SIZE
100
AcDbLine
 10
101.9999999999977
 20
-1483.774913286827
 30
0.0
 11
141.9999999999977
 21
-1490.441579953494
 31
0.0
  0
TEXT
  5
6CD
330
1F
100
AcDbEntity
  8
SIZE
100
AcDbText
 10
-154.6666666666692
 20
-1480.441579953494
 30
0.0
 40
30.0
  1
500
  7
ARIAL
100
AcDbText
  0
LINE
  5
6CE
330
1F
100
AcDbEntity
  8
SIZE
100
AcDbLine
 10
-318.0000000000022
 20
-1483.774913286827
 30
0.0
 11
-358.0000000000022
 21
-1490.441579953494
 31
0.0
  0
LINE
  5
6CF
330
1F
100
AcDbEntity
  8
SIZE
100
AcDbLine
 10
-318.0000000000022
 20
-1497.108246620161
 30
0.0
 11
-358.0000000000022
 21
-1490.441579953494
 31
0.0
  0
LINE
  5
6D0
330
1F
100
AcDbEntity
  8
SIZE
100
AcDbLine
 10
-390.0000000000023
 20
-1490.441579953494
 30
0.0
 11
-501.1058228034453
 21
-1490.441579953493
 31
0.0
  0
LINE
  5
6D1
330
1F
100
AcDbEntity
  8
SIZE
100
AcDbLine
 10
-430.0000000000022
 20
-1497.10824662016
 30
0.0
 11
-390.0000000000023
 21
-1490.441579953494
 31
0.0
  0
LINE
  5
6D2
330
1F
100
AcDbEntity
  8
SIZE
100
AcDbLine
 10
-430.0000000000022
 20
-1483.774913286827
 30
0.0
 11
-390.0000000000023
 21
-1490.441579953494
 31
0.0
  0
TEXT
  5
6D3
330
1F
100
AcDbEntity
  8
SIZE
100
AcDbText
 10
-489.7881408564767
 20
-1480.441579953492
 30
0.0
 40
30.0
  1
32
  7
ARIAL
100
AcDbText
  0
LINE
  5
6D4
330
1F
100
AcDbEntity
  8
SIZE
100
AcDbLine
 10
-560.6102226990953
 20
-1338.409999999998
 30
0.0
 11
-553.9435560324293
 21
-1378.409999999998
 31
0.0
  0
LINE
  5
6D5
330
1F
100
AcDbEntity
  8
SIZE
100
AcDbLine
 10
-547.2768893657623
 20
-1338.409999999998
 30
0.0
 11
-553.9435560324293
 21
-1378.409999999998
 31
0.0
  0
LINE
  5
6D6
330
1F
100
AcDbEntity
  8
SIZE
100
AcDbLine
 10
-553.9435560324295
 20
-1413.409999999998
 30
0.0
 11
-553.9435560324295
 21
-1500.887307298166
 31
0.0
  0
LINE
  5
6D7
330
1F
100
AcDbEntity
  8
SIZE
100
AcDbLine
 10
-547.2768893657626
 20
-1453.409999999998
 30
0.0
 11
-553.9435560324295
 21
-1413.409999999998
 31
0.0
  0
LINE
  5
6D8
330
1F
100
AcDbEntity
  8
SIZE
100
AcDbLine
 10
-560.6102226990965
 20
-1453.409999999998
 30
0.0
 11
-553.9435560324295
 21
-1413.409999999998
 31
0.0
  0
TEXT
  5
6D9
330
1F
100
AcDbEntity
  8
SIZE
100
AcDbText
 10
-563.9435560324296
 20
-1497.700223078047
 30
0.0
 40
30.0
  1
35
 50
90.0
  7
ARIAL
100
AcDbText
  0
LINE
  5
6DA
330
1F
100
AcDbEntity
  8
SIZE
100
AcDbLine
 10
-547.2768893657623
 20
-935.4099999999977
 30
0.0
 11
-553.9435560324293
 21
-895.4099999999979
 31
0.0
  0
LINE
  5
6DB
330
1F
100
AcDbEntity
  8
SIZE
100
AcDbLine
 10
-560.6102226990953
 20
-935.4099999999977
 30
0.0
 11
-553.9435560324293
 21
-895.4099999999979
 31
0.0
  0
LINE
  5
6DC
330
1F
100
AcDbEntity
  8
SIZE
100
AcDbLine
 10
-553.9435560324293
 20
-889.4099999999982
 30
0.0
 11
-553.9435560324293
 21
-797.7101727444297
 31
0.0
  0
LINE
  5
6DD
330
1F
100
AcDbEntity
  8
SIZE
100
AcDbLine
 10
-560.6102226990953
 20
-849.4099999999983
 30
0.0
 11
-553.9435560324293
 21
-889.4099999999982
 31
0.0
  0
LINE
  5
6DE
330
1F
100
AcDbEntity
  8
SIZE
100
AcDbLine
 10
-547.2768893657623
 20
-849.4099999999983
 30
0.0
 11
-553.9435560324293
 21
-889.4099999999982
 31
0.0
  0
TEXT
  5
6DF
330
1F
100
AcDbEntity
  8
SIZE
100
AcDbText
 10
-563.9435560324284
 20
-838.6215795595369
 30
0.0
 40
30.0
  1
6
 50
90.0
  7
ARIAL
100
AcDbText
  0
LINE
  5
6E0
330
1F
100
AcDbEntity
  8
SIZE
100
AcDbLine
 10
-547.2768893657623
 20
-935.4099999999982
 30
0.0
 11
-553.9435560324293
 21
-895.4099999999982
 31
0.0
  0
LINE
  5
6E1
330
1F
100
AcDbEntity
  8
SIZE
100
AcDbLine
 10
-560.6102226990953
 20
-935.4099999999982
 30
0.0
 11
-553.9435560324293
 21
-895.4099999999982
 31
0.0
  0
LINE
  5
6E2
330
1F
100
AcDbEntity
  8
SIZE
100
AcDbLine
 10
-560.6102226990953
 20
-1338.409999999998
 30
0.0
 11
-553.9435560324293
 21
-1378.409999999998
 31
0.0
  0
LINE
  5
6E3
330
1F
100
AcDbEntity
  8
SIZE
100
AcDbLine
 10
-547.2768893657623
 20
-1338.409999999998
 30
0.0
 11
-553.9435560324293
 21
-1378.409999999998
 31
0.0
  0
TEXT
  5
6E4
330
1F
100
AcDbEntity
  8
SIZE
100
AcDbText
 10
-563.9435560324293
 20
-1172.629617001585
 30
0.0
 40
30.0
  1
483
 50
90.0
  7
ARIAL
100
AcDbText
  0
LINE
  5
6E5
330
1F
100
AcDbEntity
  8
SIZE
100
AcDbLine
 10
-447.4152166612323
 20
-952.409999999999
 30
0.0
 11
-454.0818833278993
 21
-912.4099999999989
 31
0.0
  0
LINE
  5
6E6
330
1F
100
AcDbEntity
  8
SIZE
100
AcDbLine
 10
-460.7485499945653
 20
-952.409999999999
 30
0.0
 11
-454.0818833278993
 21
-912.4099999999989
 31
0.0
  0
LINE
  5
6E7
330
1F
100
AcDbEntity
  8
SIZE
100
AcDbLine
 10
-460.7485499945656
 20
-1321.409999999999
 30
0.0
 11
-454.0818833278994
 21
-1361.409999999999
 31
0.0
  0
LINE
  5
6E8
330
1F
100
AcDbEntity
  8
SIZE
100
AcDbLine
 10
-447.4152166612325
 20
-1321.409999999999
 30
0.0
 11
-454.0818833278994
 21
-1361.409999999999
 31
0.0
  0
TEXT
  5
6E9
330
1F
100
AcDbEntity
  8
SIZE
100
AcDbText
 10
-464.0818833278995
 20
-1172.629617001585
 30
0.0
 40
30.0
  1
449
 50
90.0
  7
ARIAL
100
AcDbText
  0
LINE
  5
6EA
330
1F
100
AcDbEntity
  8
SIZE
100
AcDbLine
 10
-310.000258932989
 20
-766.5503316235263
 30
0.0
 11
-350.000258932989
 21
-773.2169982901933
 31
0.0
  0
LINE
  5
6EB
330
1F
100
AcDbEntity
  8
SIZE
100
AcDbLine
 10
-310.000258932989
 20
-779.8836649568602
 30
0.0
 11
-350.000258932989
 21
-773.2169982901933
 31
0.0
  0
LINE
  5
6EC
330
1F
100
AcDbEntity
  8
SIZE
100
AcDbLine
 10
92.99999999999817
 20
-779.8836649568607
 30
0.0
 11
132.9999999999981
 21
-773.2169982901937
 31
0.0
  0
LINE
  5
6ED
330
1F
100
AcDbEntity
  8
SIZE
100
AcDbLine
 10
92.99999999999817
 20
-766.5503316235267
 30
0.0
 11
132.9999999999981
 21
-773.2169982901937
 31
0.0
  0
TEXT
  5
6EE
330
1F
100
AcDbEntity
  8
SIZE
100
AcDbText
 10
-161.8334627998285
 20
-763.2169982901936
 30
0.0
 40
30.0
  1
483
  7
ARIAL
100
AcDbText
  0
LINE
  5
6EF
330
1F
100
AcDbEntity
  8
SIZE
100
AcDbLine
 10
-40.00000000000136
 20
-845.6139635751883
 30
0.0
 11
-0.0000000000009095
 21
-838.9472969085213
 31
0.0
  0
LINE
  5
6F0
330
1F
100
AcDbEntity
  8
SIZE
100
AcDbLine
 10
-40.00000000000136
 20
-832.2806302418543
 30
0.0
 11
-0.0000000000009095
 21
-838.9472969085213
 31
0.0
  0
LINE
  5
6F1
330
1F
100
AcDbEntity
  8
SIZE
100
AcDbLine
 10
-68.00000000000136
 20
-832.2806302418543
 30
0.0
 11
-108.0000000000013
 21
-838.9472969085213
 31
0.0
  0
LINE
  5
6F2
330
1F
100
AcDbEntity
  8
SIZE
100
AcDbLine
 10
-68.00000000000136
 20
-845.6139635751883
 30
0.0
 11
-108.0000000000013
 21
-838.9472969085213
 31
0.0
  0
TEXT
  5
6F3
330
1F
100
AcDbEntity
  8
SIZE
100
AcDbText
 10
-84.05377809789753
 20
-828.9472969085213
 30
0.0
 40
30.0
  1
108
  7
ARIAL
100
AcDbText
  0
LINE
  5
6F4
330
1F
100
AcDbEntity
  8
SIZE
100
AcDbLine
 10
-108.0000000000022
 20
-1121.909999999999
 30
0.0
 11
-108.0000000000013
 21
-828.9472969085213
 31
0.0
  0
LINE
  5
6F5
330
1F
100
AcDbEntity
  8
SIZE
100
AcDbLine
 10
-0.0000000000009095
 20
-874.4099999999994
 30
0.0
 11
-0.0000000000009095
 21
-828.9472969085213
 31
0.0
  0
LINE
  5
6F6
330
1F
100
AcDbEntity
  8
SIZE
100
AcDbLine
 10
132.9999999999968
 20
-1121.909999999999
 30
0.0
 11
132.9999999999981
 21
-763.2169982901936
 31
0.0
  0
LINE
  5
6F7
330
1F
100
AcDbEntity
  8
SIZE
100
AcDbLine
 10
-350.000258932989
 20
-1121.909999999999
 30
0.0
 11
-350.000258932989
 21
-763.2169982901932
 31
0.0
  0
LINE
  5
6F8
330
1F
100
AcDbEntity
  8
SIZE
100
AcDbLine
 10
-373.0000000000022
 20
-1361.409999999999
 30
0.0
 11
-464.0818833278995
 21
-1361.409999999999
 31
0.0
  0
LINE
  5
6F9
330
1F
100
AcDbEntity
  8
SIZE
100
AcDbLine
 10
-373.000000000002
 20
-912.4099999999989
 30
0.0
 11
-464.0818833278992
 21
-912.4099999999989
 31
0.0
  0
LINE
  5
6FA
330
1F
100
AcDbEntity
  8
SIZE
100
AcDbLine
 10
-123.0000000000022
 20
-1378.409999999999
 30
0.0
 11
-563.9435560324293
 21
-1378.409999999998
 31
0.0
  0
LINE
  5
6FB
330
1F
100
AcDbEntity
  8
SIZE
100
AcDbLine
 10
-124.000000000002
 20
-895.4099999999995
 30
0.0
 11
-563.9435560324293
 21
-895.4099999999982
 31
0.0
  0
LINE
  5
6FC
330
1F
100
AcDbEntity
  8
SIZE
100
AcDbLine
 10
-553.9435560324293
 20
-895.4099999999979
 30
0.0
 11
-553.9435560324293
 21
-889.4099999999982
 31
0.0
  0
LINE
  5
6FD
330
1F
100
AcDbEntity
  8
SIZE
100
AcDbLine
 10
-553.9435560324293
 20
-935.4099999999977
 30
0.0
 11
-553.9435560324293
 21
-975.4099999999978
 31
0.0
  0
LINE
  5
6FE
330
1F
100
AcDbEntity
  8
SIZE
100
AcDbLine
 10
-123.000000000002
 20
-889.4099999999994
 30
0.0
 11
-563.9435560324293
 21
-889.4099999999982
 31
0.0
  0
LINE
  5
6FF
330
1F
100
AcDbEntity
  8
SIZE
100
AcDbLine
 10
-123.000000000002
 20
-895.4099999999995
 30
0.0
 11
-563.9435560324293
 21
-895.4099999999979
 31
0.0
  0
LINE
  5
700
330
1F
100
AcDbEntity
  8
SIZE
100
AcDbLine
 10
-553.9435560324293
 20
-1378.409999999998
 30
0.0
 11
-553.9435560324295
 21
-1413.409999999998
 31
0.0
  0
LINE
  5
701
330
1F
100
AcDbEntity
  8
SIZE
100
AcDbLine
 10
-315.0000000000023
 20
-1413.409999999999
 30
0.0
 11
-563.9435560324296
 21
-1413.409999999998
 31
0.0
  0
LINE
  5
702
330
1F
100
AcDbEntity
  8
SIZE
100
AcDbLine
 10
-138.0000000000022
 20
-1378.409999999999
 30
0.0
 11
-563.9435560324293
 21
-1378.409999999998
 31
0.0
  0
LINE
  5
703
330
1F
100
AcDbEntity
  8
SIZE
100
AcDbLine
 10
-358.0000000000022
 20
-1490.441579953494
 30
0.0
 11
-390.0000000000023
 21
-1490.441579953494
 31
0.0
  0
LINE
  5
704
330
1F
100
AcDbEntity
  8
SIZE
100
AcDbLine
 10
-390.0000000000023
 20
-1413.41
 30
0.0
 11
-390.0000000000023
 21
-1500.441579953494
 31
0.0
  0
LINE
  5
705
330
1F
100
AcDbEntity
  8
SIZE
100
AcDbLine
 10
-358.0000000000022
 20
-1376.409999999999
 30
0.0
 11
-358.0000000000022
 21
-1500.441579953494
 31
0.0
  0
LINE
  5
706
330
1F
100
AcDbEntity
  8
SIZE
100
AcDbLine
 10
141.9999999999977
 20
-1376.409999999999
 30
0.0
 11
141.9999999999977
 21
-1500.441579953494
 31
0.0
  0
LINE
  5
707
330
1F
100
AcDbEntity
  8
SIZE
100
AcDbLine
 10
-358.0000000000022
 20
-1376.409999999999
 30
0.0
 11
-358.0000000000022
 21
-1500.441579953494
 31
0.0
  0
LINE
  5
708
330
1F
100
AcDbEntity
  8
SIZE
100
AcDbLine
 10
314.9999999999977
 20
-1413.409999999999
 30
0.0
 11
519.7955415833908
 21
-1413.409999999999
 31
0.0
  0
LINE
  5
709
330
1F
100
AcDbEntity
  8
SIZE
100
AcDbLine
 10
314.9999999999977
 20
-1413.409999999999
 30
0.0
 11
619.6265068333491
 21
-1413.409999999999
 31
0.0
  0
LINE
  5
70A
330
1F
100
AcDbEntity
  8
SIZE
100
AcDbLine
 10
389.9999999999977
 20
-1383.41
 30
0.0
 11
389.9999999999981
 21
-1109.091928757956
 31
0.0
  0
LINE
  5
70B
330
1F
100
AcDbEntity
  8
SIZE
100
AcDbLine
 10
389.9999999999977
 20
-1383.41
 30
0.0
 11
389.9999999999991
 21
-1039.009683098065
 31
0.0
  0
LINE
  5
70C
330
1F
100
AcDbEntity
  8
SIZE
100
AcDbLine
 10
132.999999999999
 20
-880.4099999999994
 30
0.0
 11
132.999999999999
 21
-763.2169982901936
 31
0.0
  0
LINE
  5
70D
330
1F
100
AcDbEntity
  8
SIZE
100
AcDbLine
 10
389.9999999999991
 20
-874.4099999999994
 30
0.0
 11
389.9999999999991
 21
-763.2169982901936
 31
0.0
  0
LINE
  5
70E
330
1F
100
AcDbEntity
  8
SIZE
100
AcDbLine
 10
327.0
 20
266.7344832972048
 30
0.0
 11
272.9999999999995
 21
266.7344832972048
 31
0.0
  0
LINE
  5
70F
330
1F
100
AcDbEntity
  8
SIZE
100
AcDbLine
 10
327.0
 20
266.7344832972048
 30
0.0
 11
407.0
 21
266.7344832972048
 31
0.0
  0
LINE
  5
710
330
1F
100
AcDbEntity
  8
SIZE
100
AcDbLine
 10
272.9999999999995
 20
160.0000000000004
 30
0.0
 11
272.9999999999995
 21
276.7344832972048
 31
0.0
  0
LINE
  5
711
330
1F
100
AcDbEntity
  8
SIZE
100
AcDbLine
 10
327.0
 20
160.0000000000009
 30
0.0
 11
327.0
 21
276.7344832972048
 31
0.0
  0
LINE
  5
712
330
1F
100
AcDbEntity
  8
SIZE
100
AcDbLine
 10
299.9999999999995
 20
175.0
 30
0.0
 11
299.9999999999995
 21
369.7335214911254
 31
0.0
  0
LINE
  5
713
330
1F
100
AcDbEntity
  8
SIZE
100
AcDbLine
 10
-300.0000000000004
 20
175.2600000000006
 30
0.0
 11
-300.0000000000004
 21
369.7335214911258
 31
0.0
  0
LINE
  5
714
330
1F
100
AcDbEntity
  8
SIZE
100
AcDbLine
 10
194.989892628851
 20
-144.999999999999
 30
0.0
 11
194.989892628851
 21
-171.999999999999
 31
0.0
  0
LINE
  5
715
330
1F
100
AcDbEntity
  8
SIZE
100
AcDbLine
 10
194.989892628851
 20
-144.999999999999
 30
0.0
 11
194.989892628851
 21
-64.99999999999954
 31
0.0
  0
LINE
  5
716
330
1F
100
AcDbEntity
  8
SIZE
100
AcDbLine
 10
147.7000000000002
 20
-171.999999999999
 30
0.0
 11
204.989892628851
 21
-171.999999999999
 31
0.0
  0
LINE
  5
717
330
1F
100
AcDbEntity
  8
SIZE
100
AcDbLine
 10
147.7000000000002
 20
-144.999999999999
 30
0.0
 11
204.989892628851
 21
-144.999999999999
 31
0.0
  0
LINE
  5
718
330
1F
100
AcDbEntity
  8
SIZE
100
AcDbLine
 10
-315.0000000000004
 20
160.0000000000004
 30
0.0
 11
-744.6872798106564
 21
160.0000000000004
 31
0.0
  0
LINE
  5
719
330
1F
100
AcDbEntity
  8
SIZE
100
AcDbLine
 10
-315.0000000000004
 20
-159.999999999999
 30
0.0
 11
-744.6872798106564
 21
-159.999999999999
 31
0.0
  0
LINE
  5
71A
330
1F
100
AcDbEntity
  8
SIZE
100
AcDbLine
 10
-390.0000000000004
 20
-144.999999999999
 30
0.0
 11
-466.0140920561175
 21
-144.999999999999
 31
0.0
  0
LINE
  5
71B
330
1F
100
AcDbEntity
  8
SIZE
100
AcDbLine
 10
-390.0000000000004
 20
145.0000000000013
 30
0.0
 11
-466.0140920561175
 21
145.0000000000013
 31
0.0
  0
LINE
  5
71C
330
1F
100
AcDbEntity
  8
SIZE
100
AcDbLine
 10
-334.0000000000004
 20
-152.999999999999
 30
0.0
 11
-574.6981887791267
 21
-152.999999999999
 31
0.0
  0
LINE
  5
71D
330
1F
100
AcDbEntity
  8
SIZE
100
AcDbLine
 10
-334.0000000000004
 20
153.0000000000004
 30
0.0
 11
-574.6981887791267
 21
153.0000000000004
 31
0.0
  0
LINE
  5
71E
330
1F
100
AcDbEntity
  8
BASIS
100
AcDbLine
 10
-319.0000000000004
 20
-144.9499999999989
 30
0.0
 11
-319.0000000000004
 21
-162.1999999999989
 31
0.0
  0
LINE
  5
71F
330
1F
100
AcDbEntity
  8
BASIS
100
AcDbLine
 10
-333.1799999999998
 20
-152.999999999999
 30
0.0
 11
-303.98
 21
-152.999999999999
 31
0.0
  0
LINE
  5
720
330
1F
100
AcDbEntity
  8
BASIS
100
AcDbLine
 10
-281.0000000000004
 20
-144.9499999999989
 30
0.0
 11
-281.0000000000004
 21
-162.1999999999989
 31
0.0
  0
LINE
  5
721
330
1F
100
AcDbEntity
  8
BASIS
100
AcDbLine
 10
-295.1799999999998
 20
-152.999999999999
 30
0.0
 11
-265.98
 21
-152.999999999999
 31
0.0
  0
LINE
  5
722
330
1F
100
AcDbEntity
  8
BASIS
100
AcDbLine
 10
280.9999999999995
 20
-144.9499999999989
 30
0.0
 11
280.9999999999995
 21
-162.1999999999989
 31
0.0
  0
LINE
  5
723
330
1F
100
AcDbEntity
  8
BASIS
100
AcDbLine
 10
266.8200000000001
 20
-152.999999999999
 30
0.0
 11
296.02
 21
-152.999999999999
 31
0.0
  0
LINE
  5
724
330
1F
100
AcDbEntity
  8
BASIS
100
AcDbLine
 10
319.0
 20
-144.9499999999989
 30
0.0
 11
319.0
 21
-162.1999999999989
 31
0.0
  0
LINE
  5
725
330
1F
100
AcDbEntity
  8
BASIS
100
AcDbLine
 10
304.8200000000001
 20
-152.999999999999
 30
0.0
 11
334.0200000000004
 21
-152.999999999999
 31
0.0
  0
LINE
  5
726
330
1F
100
AcDbEntity
  8
SIZE
100
AcDbLine
 10
1987.573837021447
 20
1.999999999998181
 30
0.0
 11
1766.084446587388
 21
1.999999999998181
 31
0.0
  0
LINE
  5
727
330
1F
100
AcDbEntity
  8
SIZE
100
AcDbLine
 10
1943.573837021446
 20
-29.00000000000136
 30
0.0
 11
1766.084446587388
 21
-29.00000000000114
 31
0.0
  0
LINE
  5
728
330
1F
100
AcDbEntity
  8
SIZE
100
AcDbLine
 10
1769.417779920721
 20
-69.00000000000114
 30
0.0
 11
1776.084446587388
 21
-29.00000000000114
 31
0.0
  0
LINE
  5
729
330
1F
100
AcDbEntity
  8
SIZE
100
AcDbLine
 10
1782.751113254055
 20
-69.00000000000114
 30
0.0
 11
1776.084446587388
 21
-29.00000000000114
 31
0.0
  0
LINE
  5
72A
330
1F
100
AcDbEntity
  8
SIZE
100
AcDbLine
 10
1776.084446587388
 20
-29.00000000000114
 30
0.0
 11
1776.084446587388
 21
-136.0989504793874
 31
0.0
  0
LINE
  5
72B
330
1F
100
AcDbEntity
  8
SIZE
100
AcDbLine
 10
1782.751113254055
 20
41.99999999999818
 30
0.0
 11
1776.084446587388
 21
1.999999999998181
 31
0.0
  0
LINE
  5
72C
330
1F
100
AcDbEntity
  8
SIZE
100
AcDbLine
 10
1769.417779920721
 20
41.99999999999818
 30
0.0
 11
1776.084446587388
 21
1.999999999998181
 31
0.0
  0
LINE
  5
72D
330
1F
100
AcDbEntity
  8
BASIS
100
AcDbLine
 10
384.0500000000001
 20
2.007262038975113
 30
0.0
 11
446.1400000000003
 21
1.99726203897444
 31
0.0
  0
LINE
  5
72E
330
1F
100
AcDbEntity
  8
BASIS
100
AcDbLine
 10
-390.0
 20
-2080.636337021448
 30
0.0
 11
390.0000000000004
 21
-2080.636337021448
 31
0.0
  0
LINE
  5
72F
330
1F
100
AcDbEntity
  8
BASIS
100
AcDbLine
 10
-295.1799999999993
 20
-1927.636337021447
 30
0.0
 11
-265.9799999999995
 21
-1927.636337021447
 31
0.0
  0
CIRCLE
  5
730
330
1F
100
AcDbEntity
  8
FIX
100
AcDbCircle
 10
-299.9999999999988
 20
-1920.636337021447
 30
0.0
 40
20.0
  0
LINE
  5
731
330
1F
100
AcDbEntity
  8
BASIS
100
AcDbLine
 10
-295.1799999999993
 20
-2233.636337021447
 30
0.0
 11
-265.9799999999995
 21
-2233.636337021447
 31
0.0
  0
CIRCLE
  5
732
330
1F
100
AcDbEntity
  8
FIX
100
AcDbCircle
 10
-299.9999999999991
 20
-2240.636337021447
 30
0.0
 40
20.0
  0
LINE
  5
733
330
1F
100
AcDbEntity
  8
BASIS
100
AcDbLine
 10
-281.0
 20
-2225.586337021447
 30
0.0
 11
-281.0
 21
-2242.836337021447
 31
0.0
  0
LINE
  5
734
330
1F
100
AcDbEntity
  8
BASIS
100
AcDbLine
 10
-319.0
 20
-2225.586337021447
 30
0.0
 11
-319.0
 21
-2242.836337021447
 31
0.0
  0
LINE
  5
735
330
1F
100
AcDbEntity
  8
BASIS
100
AcDbLine
 10
-300.0
 20
-2227.166337021447
 30
0.0
 11
-300.0
 21
-2254.626337021447
 31
0.0
  0
LINE
  5
736
330
1F
100
AcDbEntity
  8
BASIS
100
AcDbLine
 10
-333.1799999999994
 20
-2233.636337021447
 30
0.0
 11
-303.9799999999995
 21
-2233.636337021447
 31
0.0
  0
LINE
  5
737
330
1F
100
AcDbEntity
  8
BASIS
100
AcDbLine
 10
-313.2799999999997
 20
-2240.636337021447
 30
0.0
 11
-286.7199999999998
 21
-2240.636337021447
 31
0.0
  0
LINE
  5
738
330
1F
100
AcDbEntity
  8
BASIS
100
AcDbLine
 10
-300.0
 20
-1934.106337021447
 30
0.0
 11
-300.0
 21
-1906.646337021447
 31
0.0
  0
LINE
  5
739
330
1F
100
AcDbEntity
  8
BASIS
100
AcDbLine
 10
-333.1799999999994
 20
-1927.636337021447
 30
0.0
 11
-303.9799999999995
 21
-1927.636337021447
 31
0.0
  0
LINE
  5
73A
330
1F
100
AcDbEntity
  8
BASIS
100
AcDbLine
 10
-313.5
 20
-1920.636337021448
 30
0.0
 11
-286.9399999999996
 21
-1920.636337021448
 31
0.0
  0
LINE
  5
73B
330
1F
100
AcDbEntity
  8
BASIS
100
AcDbLine
 10
-281.0
 20
-1919.586337021447
 30
0.0
 11
-281.0
 21
-1936.836337021447
 31
0.0
  0
LINE
  5
73C
330
1F
100
AcDbEntity
  8
BASIS
100
AcDbLine
 10
-319.0
 20
-1919.586337021447
 30
0.0
 11
-319.0
 21
-1936.836337021447
 31
0.0
  0
POINT
  5
73D
330
1F
100
AcDbEntity
  8
ARRANGE
100
AcDbPoint
 10
0.0000000000004547
 20
-2080.636337021448
 30
0.0
  0
CIRCLE
  5
73E
330
1F
100
AcDbEntity
  8
ARRANGE
100
AcDbCircle
 10
0.0
 20
-2080.636337021447
 30
0.0
 40
20.0
  0
LINE
  5
73F
330
1F
100
AcDbEntity
  8
BASIS
100
AcDbLine
 10
0.0
 20
-1935.636337021447
 30
0.0
 11
0.0000000000004547
 21
-2225.636337021447
 31
0.0
  0
LINE
  5
740
330
1F
100
AcDbEntity
  8
BASIS
100
AcDbLine
 10
384.0500000000006
 20
-2078.634090282844
 30
0.0
 11
446.1400000000008
 21
-2078.644090282844
 31
0.0
  0
LINE
  5
741
330
1F
100
AcDbEntity
  8
BASIS
100
AcDbLine
 10
384.0500000000006
 20
-2109.633206082489
 30
0.0
 11
446.1400000000008
 21
-2109.64320608249
 31
0.0
  0
LINE
  5
742
330
1F
100
AcDbEntity
  8
BASIS
100
AcDbLine
 10
415.0000000000004
 20
-2108.610436733962
 30
0.0
 11
415.0000000000004
 21
-2050.260436733962
 31
0.0
  0
LINE
  5
743
330
1F
100
AcDbEntity
  8
BASIS
100
AcDbLine
 10
281.0
 20
-2225.586337021447
 30
0.0
 11
281.0
 21
-2242.836337021447
 31
0.0
  0
LINE
  5
744
330
1F
100
AcDbEntity
  8
BASIS
100
AcDbLine
 10
300.0
 20
-2222.166337021447
 30
0.0
 11
300.0
 21
-2259.626337021447
 31
0.0
  0
LINE
  5
745
330
1F
100
AcDbEntity
  8
BASIS
100
AcDbLine
 10
319.0000000000004
 20
-2225.586337021447
 30
0.0
 11
319.0000000000004
 21
-2242.836337021447
 31
0.0
  0
CIRCLE
  5
746
330
1F
100
AcDbEntity
  8
FIX
100
AcDbCircle
 10
300.0000000000009
 20
-2240.636337021448
 30
0.0
 40
20.0
  0
LINE
  5
747
330
1F
100
AcDbEntity
  8
BASIS
100
AcDbLine
 10
304.8200000000006
 20
-2233.636337021447
 30
0.0
 11
334.0200000000009
 21
-2233.636337021447
 31
0.0
  0
LINE
  5
748
330
1F
100
AcDbEntity
  8
BASIS
100
AcDbLine
 10
266.8200000000006
 20
-2233.636337021447
 30
0.0
 11
296.0200000000004
 21
-2233.636337021447
 31
0.0
  0
LINE
  5
749
330
1F
100
AcDbEntity
  8
BASIS
100
AcDbLine
 10
313.5000000000004
 20
-2240.636337021447
 30
0.0
 11
286.9300000000002
 21
-2240.636337021447
 31
0.0
  0
LINE
  5
74A
330
1F
100
AcDbEntity
  8
BASIS
100
AcDbLine
 10
412.0000000000004
 20
-2137.72320608249
 30
0.0
 11
412.0000000000004
 21
-2098.113206082489
 31
0.0
  0
LINE
  5
74B
330
1F
100
AcDbEntity
  8
BASIS
100
AcDbLine
 10
300.0
 20
-1944.106337021448
 30
0.0
 11
300.0
 21
-1906.646337021448
 31
0.0
  0
CIRCLE
  5
74C
330
1F
100
AcDbEntity
  8
FIX
100
AcDbCircle
 10
300.0000000000009
 20
-1920.636337021447
 30
0.0
 40
20.0
  0
LINE
  5
74D
330
1F
100
AcDbEntity
  8
BASIS
100
AcDbLine
 10
304.8200000000006
 20
-1927.636337021448
 30
0.0
 11
334.0200000000009
 21
-1927.636337021448
 31
0.0
  0
LINE
  5
74E
330
1F
100
AcDbEntity
  8
BASIS
100
AcDbLine
 10
266.8200000000006
 20
-1927.636337021448
 30
0.0
 11
296.0200000000004
 21
-1927.636337021448
 31
0.0
  0
LINE
  5
74F
330
1F
100
AcDbEntity
  8
BASIS
100
AcDbLine
 10
281.0
 20
-1919.586337021448
 30
0.0
 11
281.0
 21
-1936.836337021448
 31
0.0
  0
LINE
  5
750
330
1F
100
AcDbEntity
  8
BASIS
100
AcDbLine
 10
319.0000000000004
 20
-1919.586337021448
 30
0.0
 11
319.0000000000004
 21
-1936.836337021448
 31
0.0
  0
LINE
  5
751
330
1F
100
AcDbEntity
  8
BASIS
100
AcDbLine
 10
313.5000000000004
 20
-1920.636337021448
 30
0.0
 11
286.9300000000002
 21
-1920.636337021448
 31
0.0
  0
TEXT
  5
752
330
1F
100
AcDbEntity
  8
SIZE
100
AcDbText
 10
1766.084446587387
 20
-126.345885835413
 30
0.0
 40
30.0
  1
31
 50
90.0
  7
ARIAL
100
AcDbText
  0
LINE
  5
753
330
1F
100
AcDbEntity
  8
SIZE
100
AcDbLine
 10
389.9999999999991
 20
-1403.41
 30
0.0
 11
389.9999999999991
 21
-1567.685313684435
 31
0.0
  0
LINE
  5
754
330
1F
100
AcDbEntity
  8
SIZE
100
AcDbLine
 10
458.9999999999995
 20
-1358.410000000001
 30
0.0
 11
458.9999999999995
 21
-1567.685313684435
 31
0.0
  0
LINE
  5
755
330
1F
100
AcDbEntity
  8
SIZE
100
AcDbLine
 10
389.9999999999991
 20
-1557.685313684435
 30
0.0
 11
-390.0000000000009
 21
-1557.685313684435
 31
0.0
  0
LINE
  5
756
330
1F
100
AcDbEntity
  8
SIZE
100
AcDbLine
 10
389.9999999999991
 20
-1557.685313684435
 30
0.0
 11
460.9999999999995
 21
-1557.685313684435
 31
0.0
  0
LINE
  5
757
330
1F
100
AcDbEntity
  8
SIZE
100
AcDbLine
 10
309.9999999999977
 20
-1413.409999999999
 30
0.0
 11
664.2244003690134
 21
-1413.41
 31
0.0
  0
LINE
  5
758
330
1F
100
AcDbEntity
  8
SIZE
100
AcDbLine
 10
456.139999999998
 20
-1276.41
 30
0.0
 11
664.2244003690138
 21
-1276.41
 31
0.0
  0
LINE
  5
759
330
1F
100
AcDbEntity
  8
SIZE
100
AcDbLine
 10
309.9999999999977
 20
-1413.409999999999
 30
0.0
 11
566.5853100000817
 21
-1413.41
 31
0.0
  0
LINE
  5
75A
330
1F
100
AcDbEntity
  8
SIZE
100
AcDbLine
 10
460.139999999998
 20
-1320.404229081556
 30
0.0
 11
566.5853100000822
 21
-1320.404229081556
 31
0.0
  0
LINE
  5
75B
330
1F
100
AcDbEntity
  8
SIZE
100
AcDbLine
 10
556.5853100000818
 20
-1413.41
 30
0.0
 11
556.5853100000822
 21
-1320.404229081556
 31
0.0
  0
LINE
  5
75C
330
1F
100
AcDbEntity
  8
SIZE
100
AcDbLine
 10
389.9999999999991
 20
-1239.620000000001
 30
0.0
 11
389.9999999999991
 21
-1001.457355865036
 31
0.0
  0
LINE
  5
75D
330
1F
100
AcDbEntity
  8
SIZE
100
AcDbLine
 10
414.9999999999977
 20
-1236.169999999999
 30
0.0
 11
414.9999999999981
 21
-1001.457355865036
 31
0.0
  0
LINE
  5
75E
330
1F
100
AcDbEntity
  8
SIZE
100
AcDbLine
 10
414.9999999999981
 20
-1011.457355865036
 30
0.0
 11
541.6666666666647
 21
-1011.457355865036
 31
0.0
  0
LINE
  5
75F
330
1F
100
AcDbEntity
  8
SIZE
100
AcDbLine
 10
389.9999999999991
 20
-1011.457355865036
 30
0.0
 11
414.9999999999981
 21
-1011.457355865036
 31
0.0
  0
LINE
  5
760
330
1F
100
AcDbEntity
  8
SIZE
100
AcDbLine
 10
389.9999999999977
 20
-1344.149999999999
 30
0.0
 11
389.9999999999981
 21
-1084.046074881915
 31
0.0
  0
LINE
  5
761
330
1F
100
AcDbEntity
  8
SIZE
100
AcDbLine
 10
411.9999999999977
 20
-1310.41
 30
0.0
 11
411.9999999999981
 21
-1084.046074881915
 31
0.0
  0
LINE
  5
762
330
1F
100
AcDbEntity
  8
SIZE
100
AcDbLine
 10
389.9999999999981
 20
-1094.046074881915
 30
0.0
 11
337.5939883689097
 21
-1094.046074881915
 31
0.0
  0
LINE
  5
763
330
1F
100
AcDbEntity
  8
SIZE
100
AcDbLine
 10
411.9999999999981
 20
-1094.046074881915
 30
0.0
 11
538.6666666666647
 21
-1094.046074881915
 31
0.0
  0
LINE
  5
764
330
1F
100
AcDbEntity
  8
SIZE
100
AcDbLine
 10
389.9999999999981
 20
-1094.046074881915
 30
0.0
 11
411.9999999999981
 21
-1094.046074881915
 31
0.0
  0
TEXT
  5
765
330
1F
100
AcDbEntity
  8
SIZE
100
AcDbText
 10
461.9999999999982
 20
-1087.207817471595
 30
0.0
 40
30.0
  1
22
  7
ARIAL
100
AcDbText
  0
LINE
  5
766
330
1F
100
AcDbEntity
  8
SIZE
100
AcDbLine
 10
451.9999999999981
 20
-1100.712741548582
 30
0.0
 11
411.9999999999981
 21
-1094.046074881915
 31
0.0
  0
LINE
  5
767
330
1F
100
AcDbEntity
  8
SIZE
100
AcDbLine
 10
451.9999999999981
 20
-1087.379408215248
 30
0.0
 11
411.9999999999981
 21
-1094.046074881915
 31
0.0
  0
LINE
  5
768
330
1F
100
AcDbEntity
  8
SIZE
100
AcDbLine
 10
349.9999999999981
 20
-1087.379408215248
 30
0.0
 11
389.9999999999981
 21
-1094.046074881915
 31
0.0
  0
LINE
  5
769
330
1F
100
AcDbEntity
  8
SIZE
100
AcDbLine
 10
349.9999999999981
 20
-1100.712741548582
 30
0.0
 11
389.9999999999981
 21
-1094.046074881915
 31
0.0
  0
TEXT
  5
76A
330
1F
100
AcDbEntity
  8
SIZE
100
AcDbText
 10
464.9999999999981
 20
-1004.619084567627
 30
0.0
 40
30.0
  1
25
  7
ARIAL
100
AcDbText
  0
LINE
  5
76B
330
1F
100
AcDbEntity
  8
SIZE
100
AcDbLine
 10
454.9999999999982
 20
-1018.124022531702
 30
0.0
 11
414.9999999999981
 21
-1011.457355865036
 31
0.0
  0
LINE
  5
76C
330
1F
100
AcDbEntity
  8
SIZE
100
AcDbLine
 10
454.9999999999982
 20
-1004.79068919837
 30
0.0
 11
414.9999999999981
 21
-1011.457355865036
 31
0.0
  0
LINE
  5
76D
330
1F
100
AcDbEntity
  8
SIZE
100
AcDbLine
 10
349.9999999999991
 20
-1004.79068919837
 30
0.0
 11
389.9999999999991
 21
-1011.457355865036
 31
0.0
  0
LINE
  5
76E
330
1F
100
AcDbEntity
  8
SIZE
100
AcDbLine
 10
349.9999999999991
 20
-1018.124022531702
 30
0.0
 11
389.9999999999991
 21
-1011.457355865036
 31
0.0
  0
LINE
  5
76F
330
1F
100
AcDbEntity
  8
SIZE
100
AcDbLine
 10
389.9999999999991
 20
-1011.457355865036
 30
0.0
 11
330.5248268279792
 21
-1011.457355865036
 31
0.0
  0
TEXT
  5
770
330
1F
100
AcDbEntity
  8
SIZE
100
AcDbText
 10
546.5853100000822
 20
-1392.767500708883
 30
0.0
 40
30.0
  1
93
 50
90.0
  7
ARIAL
100
AcDbText
  0
TEXT
  5
771
330
1F
100
AcDbEntity
  8
SIZE
100
AcDbText
 10
644.2244003690139
 20
-1391.576666666666
 30
0.0
 40
30.0
  1
137
 50
90.0
  7
ARIAL
100
AcDbText
  0
LINE
  5
772
330
1F
100
AcDbEntity
  8
SIZE
100
AcDbLine
 10
647.5577337023469
 20
-1316.41
 30
0.0
 11
654.2244003690139
 21
-1276.41
 31
0.0
  0
LINE
  5
773
330
1F
100
AcDbEntity
  8
SIZE
100
AcDbLine
 10
660.8910670356804
 20
-1316.41
 30
0.0
 11
654.2244003690139
 21
-1276.41
 31
0.0
  0
LINE
  5
774
330
1F
100
AcDbEntity
  8
SIZE
100
AcDbLine
 10
660.8910670356804
 20
-1373.41
 30
0.0
 11
654.2244003690134
 21
-1413.41
 31
0.0
  0
LINE
  5
775
330
1F
100
AcDbEntity
  8
SIZE
100
AcDbLine
 10
647.5577337023469
 20
-1373.41
 30
0.0
 11
654.2244003690134
 21
-1413.41
 31
0.0
  0
TEXT
  5
776
330
1F
100
AcDbEntity
  8
SIZE
100
AcDbText
 10
509.6269019539245
 20
-1547.685313684435
 30
0.0
 40
30.0
  1
69
  7
ARIAL
100
AcDbText
  0
LINE
  5
777
330
1F
100
AcDbEntity
  8
SIZE
100
AcDbLine
 10
498.9999999999995
 20
-1564.351980351102
 30
0.0
 11
458.9999999999995
 21
-1557.685313684435
 31
0.0
  0
LINE
  5
778
330
1F
100
AcDbEntity
  8
SIZE
100
AcDbLine
 10
498.9999999999995
 20
-1551.018647017769
 30
0.0
 11
458.9999999999995
 21
-1557.685313684435
 31
0.0
  0
LINE
  5
779
330
1F
100
AcDbEntity
  8
SIZE
100
AcDbLine
 10
458.9999999999995
 20
-1557.685313684435
 30
0.0
 11
567.1042425916457
 21
-1557.685313684435
 31
0.0
  0
LINE
  5
77A
330
1F
100
AcDbEntity
  8
SIZE
100
AcDbLine
 10
349.9999999999991
 20
-1551.018647017769
 30
0.0
 11
389.9999999999991
 21
-1557.685313684435
 31
0.0
  0
LINE
  5
77B
330
1F
100
AcDbEntity
  8
SIZE
100
AcDbLine
 10
349.9999999999991
 20
-1564.351980351102
 30
0.0
 11
389.9999999999991
 21
-1557.685313684435
 31
0.0
  0
LINE
  5
77C
330
1F
100
AcDbEntity
  8
BASIS
100
AcDbLine
 10
61.53000000000384
 20
115.0000000000009
 30
0.0
 11
188.9900000000034
 21
115.0000000000009
 31
0.0
  0
LINE
  5
77D
330
1F
100
AcDbEntity
  8
BASIS
100
AcDbLine
 10
125.0000000000031
 20
135.0000000000009
 30
0.0
 11
125.0000000000031
 21
95.00000000000046
 31
0.0
  0
LINE
  5
77E
330
1F
100
AcDbEntity
  8
BASIS
100
AcDbLine
 10
-141.4699999999961
 20
85.0000000000009
 30
0.0
 11
-74.00999999999658
 21
85.0000000000009
 31
0.0
  0
LINE
  5
77F
330
1F
100
AcDbEntity
  8
BASIS
100
AcDbLine
 10
-107.9999999999968
 20
115.0000000000009
 30
0.0
 11
-107.9999999999968
 21
55.00000000000091
 31
0.0
  0
TEXT
  5
780
330
1F
100
AcDbEntity
  8
NOTE
100
AcDbText
 10
-551.1286946286118
 20
481.2349445052024
 30
0.0
 40
25.0
  1
Drain hole(dia.25)
  7
ARIAL
100
AcDbText
  0
LINE
  5
781
330
1F
100
AcDbEntity
  8
NOTE
100
AcDbLine
 10
-117.2927150053669
 20
136.8337081597066
 30
0.0
 11
-111.7362361651136
 21
96.66444145813166
 31
0.0
  0
LINE
  5
782
330
1F
100
AcDbEntity
  8
NOTE
100
AcDbLine
 10
-130.0202350793776
 20
132.8602952006205
 30
0.0
 11
-111.7362361651136
 21
96.66444145813166
 31
0.0
  0
LINE
  5
783
330
1F
100
AcDbEntity
  8
NOTE
100
AcDbLine
 10
-111.7362361651136
 20
96.66444145813166
 30
0.0
 11
-229.1321299393159
 21
472.703531782434
 31
0.0
1001
ACAD
1000
DSTYLE
1002
{
1070
   147
1040
10.0
1070
    77
1070
     0
1002
}
  0
LINE
  5
784
330
1F
100
AcDbEntity
  8
NOTE
100
AcDbLine
 10
-229.1321299393159
 20
472.703531782434
 30
0.0
 11
-603.1322439090429
 21
472.703531782434
 31
0.0
1001
ACAD
1000
DSTYLE
1002
{
1070
   147
1040
10.0
1070
    77
1070
     0
1002
}
  0
LINE
  5
785
330
1F
100
AcDbEntity
  8
SIZE
100
AcDbLine
 10
-368.0000000000022
 20
-1361.409999999999
 30
0.0
 11
-669.804004457532
 21
-1361.409999999999
 31
0.0
  0
LINE
  5
786
330
1F
100
AcDbEntity
  8
SIZE
100
AcDbLine
 10
-336.0000000000022
 20
-1413.409999999999
 30
0.0
 11
-669.8040044575322
 21
-1413.409999999999
 31
0.0
  0
LINE
  5
787
330
1F
100
AcDbEntity
  8
SIZE
100
AcDbLine
 10
-659.804004457532
 20
-1361.409999999999
 30
0.0
 11
-659.804004457532
 21
-1298.36535922396
 31
0.0
  0
LINE
  5
788
330
1F
100
AcDbEntity
  8
SIZE
100
AcDbLine
 10
-659.804004457532
 20
-1361.409999999999
 30
0.0
 11
-659.8040044575323
 21
-1413.409999999999
 31
0.0
  0
LINE
  5
789
330
1F
100
AcDbEntity
  8
SIZE
100
AcDbLine
 10
-117.9999999999968
 20
145.0000000000013
 30
0.0
 11
-189.220449699118
 21
145.0000000000013
 31
0.0
  0
LINE
  5
78A
330
1F
100
AcDbEntity
  8
SIZE
100
AcDbLine
 10
-117.9999999999968
 20
85.0000000000009
 30
0.0
 11
-189.220449699118
 21
85.0000000000009
 31
0.0
  0
LINE
  5
78B
330
1F
100
AcDbEntity
  8
SIZE
100
AcDbLine
 10
-179.220449699118
 20
145.0000000000013
 30
0.0
 11
-179.220449699118
 21
225.0000000000013
 31
0.0
  0
LINE
  5
78C
330
1F
100
AcDbEntity
  8
SIZE
100
AcDbLine
 10
-179.220449699118
 20
145.0000000000013
 30
0.0
 11
-179.220449699118
 21
85.0000000000009
 31
0.0
  0
LINE
  5
78D
330
1F
100
AcDbEntity
  8
SIZE
100
AcDbLine
 10
-107.9999999999968
 20
95.0000000000009
 30
0.0
 11
-107.9999999999968
 21
203.362887434182
 31
0.0
  0
LINE
  5
78E
330
1F
100
AcDbEntity
  8
SIZE
100
AcDbLine
 10
0.0000000000031832
 20
155.0000000000009
 30
0.0
 11
0.0000000000031832
 21
203.362887434182
 31
0.0
  0
LINE
  5
78F
330
1F
100
AcDbEntity
  8
SIZE
100
AcDbLine
 10
135.0000000000031
 20
145.0000000000009
 30
0.0
 11
245.0851677578175
 21
145.0000000000009
 31
0.0
  0
LINE
  5
790
330
1F
100
AcDbEntity
  8
SIZE
100
AcDbLine
 10
135.0000000000031
 20
115.0000000000009
 30
0.0
 11
245.0851677578175
 21
115.0000000000009
 31
0.0
  0
LINE
  5
791
330
1F
100
AcDbEntity
  8
SIZE
100
AcDbLine
 10
235.0851677578175
 20
145.0000000000009
 30
0.0
 11
235.0851677578175
 21
225.0000000000009
 31
0.0
  0
LINE
  5
792
330
1F
100
AcDbEntity
  8
SIZE
100
AcDbLine
 10
235.0851677578175
 20
145.0000000000009
 30
0.0
 11
235.0851677578175
 21
115.0000000000009
 31
0.0
  0
LINE
  5
793
330
1F
100
AcDbEntity
  8
SIZE
100
AcDbLine
 10
125.0000000000031
 20
134.7021960805514
 30
0.0
 11
125.0000000000031
 21
203.362887434182
 31
0.0
  0
LINE
  5
794
330
1F
100
AcDbEntity
  8
SIZE
100
AcDbLine
 10
0.0000000000031832
 20
155.0000000000009
 30
0.0
 11
0.0000000000031832
 21
203.362887434182
 31
0.0
  0
TEXT
  5
795
330
1F
100
AcDbEntity
  8
SIZE
100
AcDbText
 10
29.3177032266185
 20
203.362887434182
 30
0.0
 40
30.0
  1
125
  7
ARIAL
100
AcDbText
  0
LINE
  5
796
330
1F
100
AcDbEntity
  8
SIZE
100
AcDbLine
 10
40.00000000000318
 20
186.6962207675155
 30
0.0
 11
0.0000000000031832
 21
193.362887434182
 31
0.0
  0
LINE
  5
797
330
1F
100
AcDbEntity
  8
SIZE
100
AcDbLine
 10
40.00000000000318
 20
200.0295541008485
 30
0.0
 11
0.0000000000031832
 21
193.362887434182
 31
0.0
  0
LINE
  5
798
330
1F
100
AcDbEntity
  8
SIZE
100
AcDbLine
 10
85.00000000000317
 20
200.0295541008485
 30
0.0
 11
125.0000000000031
 21
193.362887434182
 31
0.0
  0
LINE
  5
799
330
1F
100
AcDbEntity
  8
SIZE
100
AcDbLine
 10
85.00000000000317
 20
186.6962207675155
 30
0.0
 11
125.0000000000031
 21
193.362887434182
 31
0.0
  0
TEXT
  5
79A
330
1F
100
AcDbEntity
  8
SIZE
100
AcDbText
 10
225.0851677578175
 20
38.8623872571452
 30
0.0
 40
30.0
  1
30
 50
90.0
  7
ARIAL
100
AcDbText
  0
LINE
  5
79B
330
1F
100
AcDbEntity
  8
SIZE
100
AcDbLine
 10
228.418501091151
 20
75.00000000000091
 30
0.0
 11
235.0851677578175
 21
115.0000000000009
 31
0.0
  0
LINE
  5
79C
330
1F
100
AcDbEntity
  8
SIZE
100
AcDbLine
 10
241.751834424484
 20
75.00000000000091
 30
0.0
 11
235.0851677578175
 21
115.0000000000009
 31
0.0
  0
LINE
  5
79D
330
1F
100
AcDbEntity
  8
SIZE
100
AcDbLine
 10
235.0851677578175
 20
115.0000000000009
 30
0.0
 11
235.0851677578175
 21
34.12998879941915
 31
0.0
  0
LINE
  5
79E
330
1F
100
AcDbEntity
  8
SIZE
100
AcDbLine
 10
241.7518344244845
 20
185.0000000000009
 30
0.0
 11
235.0851677578175
 21
145.0000000000009
 31
0.0
  0
LINE
  5
79F
330
1F
100
AcDbEntity
  8
SIZE
100
AcDbLine
 10
228.418501091151
 20
185.0000000000009
 30
0.0
 11
235.0851677578175
 21
145.0000000000009
 31
0.0
  0
TEXT
  5
7A0
330
1F
100
AcDbEntity
  8
SIZE
100
AcDbText
 10
-83.84896344004847
 20
203.362887434182
 30
0.0
 40
30.0
  1
108
  7
ARIAL
100
AcDbText
  0
LINE
  5
7A1
330
1F
100
AcDbEntity
  8
SIZE
100
AcDbLine
 10
-39.99999999999682
 20
200.0295541008485
 30
0.0
 11
0.0000000000031832
 21
193.362887434182
 31
0.0
  0
LINE
  5
7A2
330
1F
100
AcDbEntity
  8
SIZE
100
AcDbLine
 10
-39.99999999999682
 20
186.6962207675155
 30
0.0
 11
0.0000000000031832
 21
193.362887434182
 31
0.0
  0
LINE
  5
7A3
330
1F
100
AcDbEntity
  8
SIZE
100
AcDbLine
 10
-67.99999999999681
 20
186.6962207675155
 30
0.0
 11
-107.9999999999968
 21
193.362887434182
 31
0.0
  0
LINE
  5
7A4
330
1F
100
AcDbEntity
  8
SIZE
100
AcDbLine
 10
-67.99999999999681
 20
200.0295541008485
 30
0.0
 11
-107.9999999999968
 21
193.362887434182
 31
0.0
  0
TEXT
  5
7A5
330
1F
100
AcDbEntity
  8
SIZE
100
AcDbText
 10
-189.220449699118
 20
175.0277095817355
 30
0.0
 40
30.0
  1
60
 50
90.0
  7
ARIAL
100
AcDbText
  0
LINE
  5
7A6
330
1F
100
AcDbEntity
  8
SIZE
100
AcDbLine
 10
-185.8871163657847
 20
45.00000000000091
 30
0.0
 11
-179.220449699118
 21
85.0000000000009
 31
0.0
  0
LINE
  5
7A7
330
1F
100
AcDbEntity
  8
SIZE
100
AcDbLine
 10
-172.5537830324515
 20
45.00000000000091
 30
0.0
 11
-179.220449699118
 21
85.0000000000009
 31
0.0
  0
LINE
  5
7A8
330
1F
100
AcDbEntity
  8
SIZE
100
AcDbLine
 10
-179.220449699118
 20
85.0000000000009
 30
0.0
 11
-179.220449699118
 21
31.96181780876577
 31
0.0
  0
LINE
  5
7A9
330
1F
100
AcDbEntity
  8
SIZE
100
AcDbLine
 10
-172.5537830324513
 20
185.0000000000013
 30
0.0
 11
-179.220449699118
 21
145.0000000000013
 31
0.0
  0
LINE
  5
7AA
330
1F
100
AcDbEntity
  8
SIZE
100
AcDbLine
 10
-185.8871163657845
 20
185.0000000000013
 30
0.0
 11
-179.220449699118
 21
145.0000000000013
 31
0.0
  0
TEXT
  5
7AB
330
1F
100
AcDbEntity
  8
SIZE
100
AcDbText
 10
-669.804004457532
 20
-1494.629177055202
 30
0.0
 40
30.0
  1
52
 50
90.0
  7
ARIAL
100
AcDbText
  0
LINE
  5
7AC
330
1F
100
AcDbEntity
  8
SIZE
100
AcDbLine
 10
-666.4706711241988
 20
-1453.409999999999
 30
0.0
 11
-659.8040044575323
 21
-1413.409999999999
 31
0.0
  0
LINE
  5
7AD
330
1F
100
AcDbEntity
  8
SIZE
100
AcDbLine
 10
-653.1373377908657
 20
-1453.409999999999
 30
0.0
 11
-659.8040044575323
 21
-1413.409999999999
 31
0.0
  0
LINE
  5
7AE
330
1F
100
AcDbEntity
  8
SIZE
100
AcDbLine
 10
-659.8040044575323
 20
-1413.409999999999
 30
0.0
 11
-659.8040044575323
 21
-1498.057660512988
 31
0.0
  0
LINE
  5
7AF
330
1F
100
AcDbEntity
  8
SIZE
100
AcDbLine
 10
-653.1373377908653
 20
-1321.409999999999
 30
0.0
 11
-659.804004457532
 21
-1361.409999999999
 31
0.0
  0
LINE
  5
7B0
330
1F
100
AcDbEntity
  8
SIZE
100
AcDbLine
 10
-666.4706711241988
 20
-1321.409999999999
 30
0.0
 11
-659.804004457532
 21
-1361.409999999999
 31
0.0
  0
LINE
  5
7B1
330
1F
100
AcDbEntity
  8
SIZE
100
AcDbLine
 10
390.0
 20
140.0000000000009
 30
0.0
 11
390.0
 21
369.7335214911254
 31
0.0
  0
LINE
  5
7B2
330
1F
100
AcDbEntity
  8
SIZE
100
AcDbLine
 10
299.9999999999995
 20
359.7335214911254
 30
0.0
 11
390.0
 21
359.7335214911254
 31
0.0
  0
TEXT
  5
7B3
330
1F
100
AcDbEntity
  8
SIZE
100
AcDbText
 10
320.4417479236435
 20
369.7335214911254
 30
0.0
 40
30.0
  1
90
  7
ARIAL
100
AcDbText
  0
LINE
  5
7B4
330
1F
100
AcDbEntity
  8
SIZE
100
AcDbLine
 10
350.0
 20
353.0668548244589
 30
0.0
 11
390.0
 21
359.7335214911254
 31
0.0
  0
LINE
  5
7B5
330
1F
100
AcDbEntity
  8
SIZE
100
AcDbLine
 10
350.0
 20
366.4001881577919
 30
0.0
 11
390.0
 21
359.7335214911254
 31
0.0
  0
LINE
  5
7B6
330
1F
100
AcDbEntity
  8
SIZE
100
AcDbLine
 10
339.9999999999995
 20
366.4001881577919
 30
0.0
 11
299.9999999999995
 21
359.7335214911254
 31
0.0
  0
LINE
  5
7B7
330
1F
100
AcDbEntity
  8
SIZE
100
AcDbLine
 10
339.9999999999995
 20
353.0668548244589
 30
0.0
 11
299.9999999999995
 21
359.7335214911254
 31
0.0
  0
ARC
  5
7B8
330
1F
100
AcDbEntity
  8
DETAIL
100
AcDbCircle
 10
-283.0000000000002
 20
-161.0
 30
0.0
 40
10.0
100
AcDbArc
 50
270.0
 51
0.0
  0
ARC
  5
7B9
330
1F
100
AcDbEntity
  8
DETAIL
100
AcDbCircle
 10
-317.0000000000002
 20
-161.0000000000004
 30
0.0
 40
10.0
100
AcDbArc
 50
180.0
 51
270.0
  0
ARC
  5
7BA
330
1F
100
AcDbEntity
  8
DETAIL
100
AcDbCircle
 10
-2023.436337021446
 20
-72.29999999999844
 30
0.0
 40
10.0
100
AcDbArc
 50
180.0
 51
270.0
  0
ARC
  5
7BB
330
1F
100
AcDbEntity
  8
DETAIL
100
AcDbCircle
 10
-1980.636337021445
 20
-72.29999999999844
 30
0.0
 40
10.0
100
AcDbArc
 50
270.0
 51
0.0
  0
ARC
  5
7BC
330
1F
100
AcDbEntity
  8
DETAIL
100
AcDbCircle
 10
-2023.436337021446
 20
103.7000000000029
 30
0.0
 40
10.0
100
AcDbArc
 50
89.99999999999998
 51
180.0
  0
ARC
  5
7BD
330
1F
100
AcDbEntity
  8
DETAIL
100
AcDbCircle
 10
-1980.636337021445
 20
103.7000000000029
 30
0.0
 40
10.0
100
AcDbArc
 50
0.0
 51
89.99999999999998
  0
ARC
  5
7BE
330
1F
100
AcDbEntity
  8
DETAIL
100
AcDbCircle
 10
-1944.836337021445
 20
-72.29999999999846
 30
0.0
 40
10.0
100
AcDbArc
 50
180.0
 51
270.0
  0
ARC
  5
7BF
330
1F
100
AcDbEntity
  8
DETAIL
100
AcDbCircle
 10
-1902.036337021445
 20
-72.29999999999892
 30
0.0
 40
10.0
100
AcDbArc
 50
270.0
 51
0.0
  0
ARC
  5
7C0
330
1F
100
AcDbEntity
  8
DETAIL
100
AcDbCircle
 10
-1944.836337021445
 20
103.7000000000024
 30
0.0
 40
10.0
100
AcDbArc
 50
89.99999999999998
 51
180.0
  0
ARC
  5
7C1
330
1F
100
AcDbEntity
  8
DETAIL
100
AcDbCircle
 10
-1902.036337021445
 20
103.7000000000029
 30
0.0
 40
10.0
100
AcDbArc
 50
0.0
 51
89.99999999999998
  0
ARC
  5
7C2
330
1F
100
AcDbEntity
  8
DETAIL
100
AcDbCircle
 10
-1823.636337021446
 20
-72.29999999999893
 30
0.0
 40
10.0
100
AcDbArc
 50
270.0
 51
0.0
  0
ARC
  5
7C3
330
1F
100
AcDbEntity
  8
DETAIL
100
AcDbCircle
 10
-1866.336337021446
 20
-72.29999999999802
 30
0.0
 40
10.0
100
AcDbArc
 50
180.0
 51
270.0
  0
ARC
  5
7C4
330
1F
100
AcDbEntity
  8
DETAIL
100
AcDbCircle
 10
-1866.336337021446
 20
103.7000000000028
 30
0.0
 40
10.0
100
AcDbArc
 50
89.99999999999998
 51
180.0
  0
ARC
  5
7C5
330
1F
100
AcDbEntity
  8
DETAIL
100
AcDbCircle
 10
-1823.636337021445
 20
103.7000000000024
 30
0.0
 40
10.0
100
AcDbArc
 50
0.0
 51
89.99999999999998
  0
ARC
  5
7C6
330
1F
100
AcDbEntity
  8
DETAIL
100
AcDbCircle
 10
-1787.736337021445
 20
-72.29999999999849
 30
0.0
 40
10.0
100
AcDbArc
 50
180.0
 51
270.0
  0
ARC
  5
7C7
330
1F
100
AcDbEntity
  8
DETAIL
100
AcDbCircle
 10
-1744.836337021446
 20
-72.29999999999849
 30
0.0
 40
10.0
100
AcDbArc
 50
270.0
 51
0.0
  0
ARC
  5
7C8
330
1F
100
AcDbEntity
  8
DETAIL
100
AcDbCircle
 10
-1787.736337021445
 20
103.7000000000028
 30
0.0
 40
10.0
100
AcDbArc
 50
89.99999999999998
 51
180.0
  0
ARC
  5
7C9
330
1F
100
AcDbEntity
  8
DETAIL
100
AcDbCircle
 10
-1744.836337021445
 20
103.7000000000024
 30
0.0
 40
10.0
100
AcDbArc
 50
0.0
 51
89.99999999999998
  0
ARC
  5
7CA
330
1F
100
AcDbEntity
  8
DETAIL
100
AcDbCircle
 10
-1709.136337021446
 20
-72.29999999999851
 30
0.0
 40
10.0
100
AcDbArc
 50
180.0
 51
270.0
  0
ARC
  5
7CB
330
1F
100
AcDbEntity
  8
DETAIL
100
AcDbCircle
 10
-1658.436337021445
 20
-72.29999999999897
 30
0.0
 40
10.0
100
AcDbArc
 50
270.0
 51
0.0
  0
ARC
  5
7CC
330
1F
100
AcDbEntity
  8
DETAIL
100
AcDbCircle
 10
-1709.136337021445
 20
103.7000000000028
 30
0.0
 40
10.0
100
AcDbArc
 50
89.99999999999998
 51
180.0
  0
ARC
  5
7CD
330
1F
100
AcDbEntity
  8
DETAIL
100
AcDbCircle
 10
-1658.436337021444
 20
103.7000000000028
 30
0.0
 40
10.0
100
AcDbArc
 50
0.0
 51
89.99999999999998
  0
ARC
  5
7CE
330
1F
100
AcDbEntity
  8
DETAIL
100
AcDbCircle
 10
-1630.636337021445
 20
-72.29999999999852
 30
0.0
 40
10.0
100
AcDbArc
 50
180.0
 51
270.0
  0
ARC
  5
7CF
330
1F
100
AcDbEntity
  8
DETAIL
100
AcDbCircle
 10
-1630.636337021444
 20
103.7000000000023
 30
0.0
 40
10.0
100
AcDbArc
 50
89.99999999999998
 51
180.0
  0
ARC
  5
7D0
330
1F
100
AcDbEntity
  8
DETAIL
100
AcDbCircle
 10
-1587.736337021445
 20
-72.29999999999852
 30
0.0
 40
10.0
100
AcDbArc
 50
270.0
 51
0.0
  0
ARC
  5
7D1
330
1F
100
AcDbEntity
  8
DETAIL
100
AcDbCircle
 10
-1587.736337021445
 20
103.7000000000023
 30
0.0
 40
10.0
100
AcDbArc
 50
0.0
 51
89.99999999999998
  0
LINE
  5
7D2
330
1F
100
AcDbEntity
  8
DETAIL
100
AcDbLine
 10
-2023.436337021446
 20
113.7000000000029
 30
0.0
 11
-1980.636337021445
 21
113.7000000000029
 31
0.0
  0
LINE
  5
7D3
330
1F
100
AcDbEntity
  8
DETAIL
100
AcDbLine
 10
-2033.436337021446
 20
-72.29999999999768
 30
0.0
 11
-2033.436337021446
 21
103.700000000003
 31
0.0
  0
LINE
  5
7D4
330
1F
100
AcDbEntity
  8
DETAIL
100
AcDbLine
 10
-1980.636337021446
 20
-82.29999999999767
 30
0.0
 11
-2023.436337021446
 21
-82.29999999999767
 31
0.0
  0
LINE
  5
7D5
330
1F
100
AcDbEntity
  8
DETAIL
100
AcDbLine
 10
-1970.636337021445
 20
103.700000000003
 30
0.0
 11
-1970.636337021446
 21
-72.2999999999979
 31
0.0
  0
LINE
  5
7D6
330
1F
100
AcDbEntity
  8
DETAIL
100
AcDbLine
 10
-1944.836337021446
 20
113.7000000000025
 30
0.0
 11
-1902.036337021445
 21
113.7000000000029
 31
0.0
  0
LINE
  5
7D7
330
1F
100
AcDbEntity
  8
DETAIL
100
AcDbLine
 10
-1954.836337021446
 20
-72.2999999999979
 30
0.0
 11
-1954.836337021446
 21
103.7000000000025
 31
0.0
  0
LINE
  5
7D8
330
1F
100
AcDbEntity
  8
DETAIL
100
AcDbLine
 10
-1902.036337021445
 20
-82.29999999999881
 30
0.0
 11
-1944.836337021446
 21
-82.2999999999979
 31
0.0
  0
LINE
  5
7D9
330
1F
100
AcDbEntity
  8
DETAIL
100
AcDbLine
 10
-1892.036337021444
 20
103.700000000003
 30
0.0
 11
-1892.036337021446
 21
-72.29999999999882
 31
0.0
  0
LINE
  5
7DA
330
1F
100
AcDbEntity
  8
DETAIL
100
AcDbLine
 10
-1866.336337021446
 20
113.7000000000029
 30
0.0
 11
-1823.636337021445
 21
113.7000000000025
 31
0.0
  0
LINE
  5
7DB
330
1F
100
AcDbEntity
  8
DETAIL
100
AcDbLine
 10
-1876.336337021445
 20
-72.2999999999979
 30
0.0
 11
-1876.336337021445
 21
103.700000000003
 31
0.0
  0
LINE
  5
7DC
330
1F
100
AcDbEntity
  8
DETAIL
100
AcDbLine
 10
-1823.636337021446
 20
-82.29999999999881
 30
0.0
 11
-1866.336337021446
 21
-82.2999999999979
 31
0.0
  0
LINE
  5
7DD
330
1F
100
AcDbEntity
  8
DETAIL
100
AcDbLine
 10
-1813.636337021445
 20
103.7000000000025
 30
0.0
 11
-1813.636337021446
 21
-72.29999999999882
 31
0.0
  0
LINE
  5
7DE
330
1F
100
AcDbEntity
  8
DETAIL
100
AcDbLine
 10
-1787.736337021445
 20
113.7000000000029
 30
0.0
 11
-1744.836337021446
 21
113.7000000000025
 31
0.0
  0
LINE
  5
7DF
330
1F
100
AcDbEntity
  8
DETAIL
100
AcDbLine
 10
-1797.736337021445
 20
-72.2999999999979
 30
0.0
 11
-1797.736337021445
 21
103.700000000003
 31
0.0
  0
LINE
  5
7E0
330
1F
100
AcDbEntity
  8
DETAIL
100
AcDbLine
 10
-1744.836337021446
 20
-82.2999999999979
 30
0.0
 11
-1787.736337021445
 21
-82.2999999999979
 31
0.0
  0
LINE
  5
7E1
330
1F
100
AcDbEntity
  8
DETAIL
100
AcDbLine
 10
-1734.836337021445
 20
103.7000000000025
 30
0.0
 11
-1734.836337021445
 21
-72.2999999999979
 31
0.0
  0
LINE
  5
7E2
330
1F
100
AcDbEntity
  8
DETAIL
100
AcDbLine
 10
-1709.136337021446
 20
113.7000000000029
 30
0.0
 11
-1658.436337021445
 21
113.7000000000025
 31
0.0
  0
LINE
  5
7E3
330
1F
100
AcDbEntity
  8
DETAIL
100
AcDbLine
 10
-1719.136337021445
 20
-72.2999999999979
 30
0.0
 11
-1719.136337021445
 21
103.700000000003
 31
0.0
  0
LINE
  5
7E4
330
1F
100
AcDbEntity
  8
DETAIL
100
AcDbLine
 10
-1658.436337021445
 20
-82.29999999999881
 30
0.0
 11
-1709.136337021446
 21
-82.2999999999979
 31
0.0
  0
LINE
  5
7E5
330
1F
100
AcDbEntity
  8
DETAIL
100
AcDbLine
 10
-1648.436337021445
 20
103.7000000000025
 30
0.0
 11
-1648.436337021445
 21
-72.29999999999882
 31
0.0
  0
LINE
  5
7E6
330
1F
100
AcDbEntity
  8
DETAIL
100
AcDbLine
 10
-1630.636337021445
 20
113.700000000002
 30
0.0
 11
-1587.736337021445
 21
113.700000000002
 31
0.0
  0
LINE
  5
7E7
330
1F
100
AcDbEntity
  8
DETAIL
100
AcDbLine
 10
-1640.636337021445
 20
-72.2999999999979
 30
0.0
 11
-1640.636337021445
 21
103.7000000000021
 31
0.0
  0
LINE
  5
7E8
330
1F
100
AcDbEntity
  8
DETAIL
100
AcDbLine
 10
-1587.736337021445
 20
-82.2999999999979
 30
0.0
 11
-1630.636337021445
 21
-82.2999999999979
 31
0.0
  0
LINE
  5
7E9
330
1F
100
AcDbEntity
  8
DETAIL
100
AcDbLine
 10
-1577.736337021445
 20
103.7000000000021
 30
0.0
 11
-1577.736337021445
 21
-72.2999999999979
 31
0.0
  0
LINE
  5
7EA
330
1F
100
AcDbEntity
  8
DETAIL
100
AcDbLine
 10
-1556.636337021445
 20
-97.99999999999773
 30
0.0
 11
-2065.636337021448
 21
-97.9999999999975
 31
0.0
  0
CIRCLE
  5
7EB
330
1F
100
AcDbEntity
  8
DETAIL
100
AcDbCircle
 10
-1551.636337021445
 20
-71.49999999999699
 30
0.0
 40
2.25
  0
CIRCLE
  5
7EC
330
1F
100
AcDbEntity
  8
DETAIL
100
AcDbCircle
 10
-1551.636337021445
 20
75.50000000000256
 30
0.0
 40
2.25
  0
LINE
  5
7ED
330
1F
100
AcDbEntity
  8
DETAIL
100
AcDbLine
 10
-2044.636337021448
 20
-171.9999999999981
 30
0.0
 11
-2044.636337021448
 21
-144.9999999999981
 31
0.0
  0
LINE
  5
7EE
330
1F
100
AcDbEntity
  8
DETAIL
100
AcDbLine
 10
-1562.636337021445
 20
-171.9999999999981
 30
0.0
 11
-2044.636337021448
 21
-171.9999999999981
 31
0.0
  0
LINE
  5
7EF
330
1F
100
AcDbEntity
  8
DETAIL
100
AcDbLine
 10
-1562.636337021445
 20
-144.9999999999981
 30
0.0
 11
-1562.636337021445
 21
-171.9999999999981
 31
0.0
  0
LINE
  5
7F0
330
1F
100
AcDbEntity
  8
DETAIL
100
AcDbLine
 10
-2065.636337021448
 20
-144.9999999999981
 30
0.0
 11
-1536.636337021445
 21
-144.9999999999981
 31
0.0
  0
LINE
  5
7F1
330
1F
100
AcDbEntity
  8
DETAIL
100
AcDbLine
 10
-2065.636337021447
 20
145.0000000000027
 30
0.0
 11
-2065.636337021448
 21
-144.9999999999981
 31
0.0
  0
LINE
  5
7F2
330
1F
100
AcDbEntity
  8
DETAIL
100
AcDbLine
 10
-2072.636337021447
 20
140.0000000000027
 30
0.0
 11
-2065.636337021447
 21
140.0000000000027
 31
0.0
  0
LINE
  5
7F3
330
1F
100
AcDbEntity
  8
DETAIL
100
AcDbLine
 10
-2072.636337021448
 20
-139.9999999999981
 30
0.0
 11
-2072.636337021447
 21
140.0000000000027
 31
0.0
  0
LINE
  5
7F4
330
1F
100
AcDbEntity
  8
DETAIL
100
AcDbLine
 10
-2065.636337021448
 20
-139.9999999999981
 30
0.0
 11
-2072.636337021448
 21
-139.9999999999981
 31
0.0
  0
LINE
  5
7F5
330
1F
100
AcDbEntity
  8
DETAIL
100
AcDbLine
 10
-2080.636337021448
 20
-96.9999999999975
 30
0.0
 11
-2072.636337021448
 21
-96.9999999999975
 31
0.0
  0
LINE
  5
7F6
330
1F
100
AcDbEntity
  8
DETAIL
100
AcDbLine
 10
-2080.636337021448
 20
-170.9999999999981
 30
0.0
 11
-2080.636337021448
 21
-96.9999999999975
 31
0.0
  0
LINE
  5
7F7
330
1F
100
AcDbEntity
  8
DETAIL
100
AcDbLine
 10
-2072.636337021448
 20
-170.9999999999981
 30
0.0
 11
-2080.636337021448
 21
-170.9999999999981
 31
0.0
  0
LINE
  5
7F8
330
1F
100
AcDbEntity
  8
DETAIL
100
AcDbLine
 10
-2072.636337021448
 20
-135.9999999999981
 30
0.0
 11
-2072.636337021448
 21
-170.9999999999981
 31
0.0
  0
LINE
  5
7F9
330
1F
100
AcDbEntity
  8
DETAIL
100
AcDbLine
 10
-2072.636337021447
 20
171.0000000000027
 30
0.0
 11
-2072.636337021447
 21
140.0000000000027
 31
0.0
  0
LINE
  5
7FA
330
1F
100
AcDbEntity
  8
DETAIL
100
AcDbLine
 10
-2080.636337021447
 20
171.0000000000027
 30
0.0
 11
-2072.636337021447
 21
171.0000000000027
 31
0.0
  0
LINE
  5
7FB
330
1F
100
AcDbEntity
  8
DETAIL
100
AcDbLine
 10
-2080.636337021447
 20
97.00000000000272
 30
0.0
 11
-2080.636337021447
 21
171.0000000000027
 31
0.0
  0
LINE
  5
7FC
330
1F
100
AcDbEntity
  8
DETAIL
100
AcDbLine
 10
-2072.636337021447
 20
97.00000000000272
 30
0.0
 11
-2080.636337021447
 21
97.00000000000272
 31
0.0
  0
ARC
  5
7FD
330
1F
100
AcDbEntity
  8
DETAIL
100
AcDbCircle
 10
-1536.636337021445
 20
139.0000000000025
 30
0.0
 40
6.0
100
AcDbArc
 50
0.0
 51
89.99999999999998
  0
ARC
  5
7FE
330
1F
100
AcDbEntity
  8
DETAIL
100
AcDbCircle
 10
-1536.636337021445
 20
-138.9999999999983
 30
0.0
 40
6.0
100
AcDbArc
 50
270.0
 51
0.0
  0
LINE
  5
7FF
330
1F
100
AcDbEntity
  8
DETAIL
100
AcDbLine
 10
-1556.636337021445
 20
-144.9999999999981
 30
0.0
 11
-1556.636337021445
 21
145.0000000000022
 31
0.0
  0
LINE
  5
800
330
1F
100
AcDbEntity
  8
DETAIL
100
AcDbLine
 10
-1530.636337021445
 20
-138.9999999999981
 30
0.0
 11
-1530.636337021445
 21
139.0000000000031
 31
0.0
  0
CIRCLE
  5
801
330
1F
100
AcDbEntity
  8
DETAIL
100
AcDbCircle
 10
1551.636337021446
 20
-90.99999999999919
 30
0.0
 40
2.25
  0
CIRCLE
  5
802
330
1F
100
AcDbEntity
  8
DETAIL
100
AcDbCircle
 10
1551.636337021446
 20
66.00000000000081
 30
0.0
 40
2.25
  0
LINE
  5
803
330
1F
100
AcDbEntity
  8
DETAIL
100
AcDbLine
 10
1556.636337021445
 20
-82.30000000000131
 30
0.0
 11
2065.636337021446
 21
-82.30000000000201
 31
0.0
  0
LINE
  5
804
330
1F
100
AcDbEntity
  8
DETAIL
100
AcDbLine
 10
-342.7999999999998
 20
1179.410000000002
 30
0.0
 11
-342.7999999999992
 21
1688.410000000002
 31
0.0
  0
LINE
  5
805
330
1F
100
AcDbEntity
  8
DETAIL
100
AcDbLine
 10
-326.9999999999981
 20
1688.410000000002
 30
0.0
 11
-326.9999999999996
 21
1179.410000000002
 31
0.0
  0
LINE
  5
806
330
1F
100
AcDbEntity
  8
DETAIL
100
AcDbLine
 10
390.0000000000013
 20
1664.010000000002
 30
0.0
 11
-342.7999999999983
 21
1664.010000000002
 31
0.0
  0
LINE
  5
807
330
1F
100
AcDbEntity
  8
DETAIL
100
AcDbLine
 10
311.3000000000005
 20
1179.410000000001
 30
0.0
 11
311.3000000000015
 21
1664.010000000002
 31
0.0
  0
LINE
  5
808
330
1F
100
AcDbEntity
  8
DETAIL
  6
HIDDEN
100
AcDbLine
 10
401.490000000002
 20
1589.935845117112
 30
0.0
 11
403.4900000000019
 21
1589.062391263639
 31
0.0
  0
LINE
  5
809
330
1F
100
AcDbEntity
  8
DETAIL
  6
HIDDEN
100
AcDbLine
 10
401.490000000002
 20
1599.575845117112
 30
0.0
 11
403.4900000000019
 21
1598.700488314067
 31
0.0
  0
LINE
  5
80A
330
1F
100
AcDbEntity
  8
DETAIL
  6
HIDDEN
100
AcDbLine
 10
422.9065974265845
 20
1559.750000000001
 30
0.0
 11
421.0000000000022
 21
1563.210000000001
 31
0.0
  0
LINE
  5
80B
330
1F
100
AcDbEntity
  8
DETAIL
100
AcDbLine
 10
422.5000000000021
 20
1599.575845117112
 30
0.0
 11
419.0013679927919
 21
1604.065000000001
 31
0.0
  0
LINE
  5
80C
330
1F
100
AcDbEntity
  8
DETAIL
100
AcDbLine
 10
-389.9999999999981
 20
1688.410000000002
 30
0.0
 11
-389.9999999999987
 21
1165.410000000002
 31
0.0
  0
LINE
  5
80D
330
1F
100
AcDbEntity
  8
DETAIL
100
AcDbLine
 10
390.0000000000023
 20
1688.410000000001
 30
0.0
 11
-389.9999999999981
 21
1688.410000000002
 31
0.0
  0
LINE
  5
80E
330
1F
100
AcDbEntity
  8
DETAIL
100
AcDbLine
 10
390.0000000000012
 20
1165.410000000001
 30
0.0
 11
390.0000000000023
 21
1688.410000000001
 31
0.0
  0
LINE
  5
80F
330
1F
100
AcDbEntity
  8
DETAIL
100
AcDbLine
 10
-382.9999999999981
 20
1695.410000000002
 30
0.0
 11
-386.9999999999981
 21
1688.410000000002
 31
0.0
  0
LINE
  5
810
330
1F
100
AcDbEntity
  8
DETAIL
100
AcDbLine
 10
383.0000000000022
 20
1695.410000000001
 30
0.0
 11
-382.9999999999981
 21
1695.410000000002
 31
0.0
  0
LINE
  5
811
330
1F
100
AcDbEntity
  8
DETAIL
100
AcDbLine
 10
387.0000000000022
 20
1688.410000000001
 30
0.0
 11
383.0000000000022
 21
1695.410000000001
 31
0.0
  0
LINE
  5
812
330
1F
100
AcDbEntity
  8
DETAIL
100
AcDbLine
 10
-273.9999999999982
 20
1703.410000000002
 30
0.0
 11
-273.9999999999982
 21
1695.410000000002
 31
0.0
  0
LINE
  5
813
330
1F
100
AcDbEntity
  8
DETAIL
100
AcDbLine
 10
-325.9999999999982
 20
1703.410000000002
 30
0.0
 11
-273.9999999999982
 21
1703.410000000002
 31
0.0
  0
LINE
  5
814
330
1F
100
AcDbEntity
  8
DETAIL
100
AcDbLine
 10
-325.9999999999982
 20
1695.410000000002
 30
0.0
 11
-325.9999999999982
 21
1703.410000000002
 31
0.0
  0
LINE
  5
815
330
1F
100
AcDbEntity
  8
DETAIL
100
AcDbLine
 10
274.0000000000027
 20
1703.410000000001
 30
0.0
 11
274.0000000000027
 21
1695.410000000001
 31
0.0
  0
LINE
  5
816
330
1F
100
AcDbEntity
  8
DETAIL
100
AcDbLine
 10
326.0000000000022
 20
1703.410000000001
 30
0.0
 11
274.0000000000027
 21
1703.410000000001
 31
0.0
  0
LINE
  5
817
330
1F
100
AcDbEntity
  8
DETAIL
100
AcDbLine
 10
326.0000000000022
 20
1695.410000000001
 30
0.0
 11
326.0000000000022
 21
1703.410000000001
 31
0.0
  0
LINE
  5
818
330
1F
100
AcDbEntity
  8
DETAIL
100
AcDbLine
 10
398.0000000000022
 20
1639.150000000001
 30
0.0
 11
390.0000000000023
 21
1644.150000000001
 31
0.0
  0
LINE
  5
819
330
1F
100
AcDbEntity
  8
DETAIL
100
AcDbLine
 10
398.0000000000022
 20
1544.620000000001
 30
0.0
 11
398.0000000000022
 21
1639.150000000001
 31
0.0
  0
LINE
  5
81A
330
1F
100
AcDbEntity
  8
DETAIL
100
AcDbLine
 10
390.0000000000022
 20
1539.620000000001
 30
0.0
 11
398.0000000000022
 21
1544.620000000001
 31
0.0
  0
LINE
  5
81B
330
1F
100
AcDbEntity
  8
DETAIL
100
AcDbLine
 10
443.0000000000021
 20
1615.905000000001
 30
0.0
 11
439.0000000000021
 21
1619.905000000001
 31
0.0
  0
LINE
  5
81C
330
1F
100
AcDbEntity
  8
DETAIL
100
AcDbLine
 10
443.0000000000021
 20
1604.905000000001
 30
0.0
 11
443.0000000000021
 21
1615.905000000001
 31
0.0
  0
LINE
  5
81D
330
1F
100
AcDbEntity
  8
DETAIL
100
AcDbLine
 10
439.0000000000021
 20
1600.905000000001
 30
0.0
 11
443.0000000000021
 21
1604.905000000001
 31
0.0
  0
LINE
  5
81E
330
1F
100
AcDbEntity
  8
DETAIL
100
AcDbLine
 10
425.0100000000024
 20
1619.905000000001
 30
0.0
 11
425.0000000000022
 21
1600.905000000001
 31
0.0
  0
LINE
  5
81F
330
1F
100
AcDbEntity
  8
DETAIL
100
AcDbLine
 10
439.0000000000021
 20
1619.905000000001
 30
0.0
 11
425.0100000000024
 21
1619.905000000001
 31
0.0
  0
LINE
  5
820
330
1F
100
AcDbEntity
  8
DETAIL
100
AcDbLine
 10
439.0000000000021
 20
1600.905000000001
 30
0.0
 11
439.0000000000021
 21
1619.905000000001
 31
0.0
  0
LINE
  5
821
330
1F
100
AcDbEntity
  8
DETAIL
100
AcDbLine
 10
425.0000000000022
 20
1600.905000000001
 30
0.0
 11
439.0000000000021
 21
1600.905000000001
 31
0.0
  0
LINE
  5
822
330
1F
100
AcDbEntity
  8
DETAIL
100
AcDbLine
 10
403.490000000002
 20
1634.150000000001
 30
0.0
 11
398.0000000000022
 21
1634.150000000001
 31
0.0
  0
LINE
  5
823
330
1F
100
AcDbEntity
  8
DETAIL
100
AcDbLine
 10
403.4900000000019
 20
1549.620000000001
 30
0.0
 11
403.490000000002
 21
1634.150000000001
 31
0.0
  0
LINE
  5
824
330
1F
100
AcDbEntity
  8
DETAIL
100
AcDbLine
 10
398.0000000000022
 20
1549.620000000001
 30
0.0
 11
403.4900000000019
 21
1549.620000000001
 31
0.0
  0
LINE
  5
825
330
1F
100
AcDbEntity
  8
DETAIL
100
AcDbLine
 10
412.9999999999994
 20
1201.410000000001
 30
0.0
 11
390.0000000000013
 21
1190.676666666669
 31
0.0
  0
LINE
  5
826
330
1F
100
AcDbEntity
  8
DETAIL
100
AcDbLine
 10
413.0000000000004
 20
1448.330000000001
 30
0.0
 11
412.9999999999994
 21
1201.410000000001
 31
0.0
  0
LINE
  5
827
330
1F
100
AcDbEntity
  8
DETAIL
100
AcDbLine
 10
459.0000000000004
 20
1478.330000000001
 30
0.0
 11
413.0000000000004
 21
1448.330000000001
 31
0.0
  0
LINE
  5
828
330
1F
100
AcDbEntity
  8
DETAIL
100
AcDbLine
 10
459.0000000000004
 20
1638.410000000001
 30
0.0
 11
459.0000000000004
 21
1478.330000000001
 31
0.0
  0
LINE
  5
829
330
1F
100
AcDbEntity
  8
DETAIL
100
AcDbLine
 10
408.0000000000004
 20
1658.410000000001
 30
0.0
 11
459.0000000000004
 21
1638.410000000001
 31
0.0
  0
LINE
  5
82A
330
1F
100
AcDbEntity
  8
DETAIL
100
AcDbLine
 10
408.0000000000004
 20
1688.410000000001
 30
0.0
 11
408.0000000000004
 21
1658.410000000001
 31
0.0
  0
LINE
  5
82B
330
1F
100
AcDbEntity
  8
DETAIL
100
AcDbLine
 10
390.0000000000023
 20
1688.410000000001
 30
0.0
 11
408.0000000000004
 21
1688.410000000001
 31
0.0
  0
LINE
  5
82C
330
1F
100
AcDbEntity
  8
DETAIL
  6
HIDDEN
100
AcDbLine
 10
401.490000000002
 20
1599.575845117112
 30
0.0
 11
401.490000000002
 21
1589.935845117112
 31
0.0
  0
LINE
  5
82D
330
1F
100
AcDbEntity
  8
DETAIL
100
AcDbLine
 10
412.0000000000022
 20
1594.975845117112
 30
0.0
 11
403.4900000000019
 21
1598.700488314067
 31
0.0
  0
LINE
  5
82E
330
1F
100
AcDbEntity
  8
DETAIL
100
AcDbLine
 10
422.5000000000021
 20
1599.575845117112
 30
0.0
 11
412.0000000000022
 21
1594.975845117112
 31
0.0
  0
LINE
  5
82F
330
1F
100
AcDbEntity
  8
DETAIL
100
AcDbLine
 10
412.0000000000022
 20
1585.345845117112
 30
0.0
 11
403.4900000000019
 21
1589.062391263639
 31
0.0
  0
LINE
  5
830
330
1F
100
AcDbEntity
  8
DETAIL
100
AcDbLine
 10
422.5000000000021
 20
1589.935845117112
 30
0.0
 11
412.0000000000022
 21
1585.345845117112
 31
0.0
  0
LINE
  5
831
330
1F
100
AcDbEntity
  8
DETAIL
100
AcDbLine
 10
421.0100000000024
 20
1575.910000000001
 30
0.0
 11
421.0000000000022
 21
1556.910000000001
 31
0.0
  0
LINE
  5
832
330
1F
100
AcDbEntity
  8
DETAIL
100
AcDbLine
 10
435.0000000000021
 20
1575.910000000001
 30
0.0
 11
421.0100000000024
 21
1575.910000000001
 31
0.0
  0
LINE
  5
833
330
1F
100
AcDbEntity
  8
DETAIL
100
AcDbLine
 10
435.0000000000021
 20
1556.910000000001
 30
0.0
 11
435.0000000000021
 21
1575.910000000001
 31
0.0
  0
LINE
  5
834
330
1F
100
AcDbEntity
  8
DETAIL
100
AcDbLine
 10
421.0000000000022
 20
1556.910000000001
 30
0.0
 11
435.0000000000021
 21
1556.910000000001
 31
0.0
  0
LINE
  5
835
330
1F
100
AcDbEntity
  8
DETAIL
100
AcDbLine
 10
423.3218781927503
 20
1558.601406994847
 30
0.0
 11
423.3218781927503
 21
1549.601406994846
 31
0.0
  0
LINE
  5
836
330
1F
100
AcDbEntity
  8
DETAIL
100
AcDbLine
 10
414.8218781927502
 20
1554.961406994847
 30
0.0
 11
423.3218781927503
 21
1558.601406994847
 31
0.0
  0
LINE
  5
837
330
1F
100
AcDbEntity
  8
DETAIL
100
AcDbLine
 10
406.3218781927502
 20
1558.601406994847
 30
0.0
 11
414.8218781927502
 21
1554.961406994847
 31
0.0
  0
LINE
  5
838
330
1F
100
AcDbEntity
  8
DETAIL
100
AcDbLine
 10
406.3218781927502
 20
1549.601406994846
 30
0.0
 11
406.3218781927502
 21
1558.601406994847
 31
0.0
  0
LINE
  5
839
330
1F
100
AcDbEntity
  8
DETAIL
100
AcDbLine
 10
414.8218781927502
 20
1545.971406994847
 30
0.0
 11
406.3218781927502
 21
1549.601406994846
 31
0.0
  0
LINE
  5
83A
330
1F
100
AcDbEntity
  8
DETAIL
100
AcDbLine
 10
423.3218781927503
 20
1549.601406994846
 30
0.0
 11
414.8218781927502
 21
1545.971406994847
 31
0.0
  0
LINE
  5
83B
330
1F
100
AcDbEntity
  8
DETAIL
100
AcDbLine
 10
439.0000000000021
 20
1571.910000000001
 30
0.0
 11
435.0000000000021
 21
1575.910000000001
 31
0.0
  0
LINE
  5
83C
330
1F
100
AcDbEntity
  8
DETAIL
100
AcDbLine
 10
439.0000000000021
 20
1560.910000000001
 30
0.0
 11
439.0000000000021
 21
1571.910000000001
 31
0.0
  0
LINE
  5
83D
330
1F
100
AcDbEntity
  8
DETAIL
100
AcDbLine
 10
435.0000000000021
 20
1556.910000000001
 30
0.0
 11
439.0000000000021
 21
1560.910000000001
 31
0.0
  0
LINE
  5
83E
330
1F
100
AcDbEntity
  8
DETAIL
100
AcDbLine
 10
439.0000000000021
 20
1615.155007137759
 30
0.0
 11
425.0000000000022
 21
1615.165000000001
 31
0.0
  0
LINE
  5
83F
330
1F
100
AcDbEntity
  8
DETAIL
100
AcDbLine
 10
439.0000000000021
 20
1605.655000000001
 30
0.0
 11
425.0000000000022
 21
1605.655000000001
 31
0.0
  0
LINE
  5
840
330
1F
100
AcDbEntity
  8
DETAIL
100
AcDbLine
 10
422.5000000000021
 20
1589.935845117112
 30
0.0
 11
422.5000000000021
 21
1599.575845117112
 31
0.0
  0
LINE
  5
841
330
1F
100
AcDbEntity
  8
DETAIL
100
AcDbLine
 10
398.0000000000022
 20
1593.700000000001
 30
0.0
 11
403.4900000000019
 21
1593.700000000001
 31
0.0
  0
LINE
  5
842
330
1F
100
AcDbEntity
  8
DETAIL
100
AcDbLine
 10
421.0000000000022
 20
1563.210000000001
 30
0.0
 11
403.4900000000019
 21
1563.210000000001
 31
0.0
  0
LINE
  5
843
330
1F
100
AcDbEntity
  8
DETAIL
100
AcDbLine
 10
421.0100000000024
 20
1569.610000000001
 30
0.0
 11
403.4900000000019
 21
1569.610000000001
 31
0.0
  0
LINE
  5
844
330
1F
100
AcDbEntity
  8
DETAIL
  6
HIDDEN
100
AcDbLine
 10
401.490000000002
 20
1599.575845117112
 30
0.0
 11
403.7600000000024
 21
1604.065845117112
 31
0.0
  0
ARC
  5
845
330
1F
100
AcDbEntity
  8
DETAIL
100
AcDbCircle
 10
414.8218781927516
 20
1564.191406994848
 30
0.0
 40
5.58474
100
AcDbArc
 50
190.1211490000178
 51
349.8788509999821
  0
LINE
  5
846
330
1F
100
AcDbEntity
  8
DETAIL
100
AcDbLine
 10
406.3218781927502
 20
1558.601406994847
 30
0.0
 11
408.1006333877225
 21
1563.210000000001
 31
0.0
  0
LINE
  5
847
330
1F
100
AcDbEntity
  8
DETAIL
100
AcDbLine
 10
423.3218781927503
 20
1558.601406994847
 30
0.0
 11
422.9065974265845
 21
1559.750000000001
 31
0.0
  0
LINE
  5
848
330
1F
100
AcDbEntity
  8
DETAIL
100
AcDbLine
 10
403.4900000000019
 20
1604.065000000001
 30
0.0
 11
425.0000000000022
 21
1604.065000000001
 31
0.0
  0
LINE
  5
849
330
1F
100
AcDbEntity
  8
DETAIL
100
AcDbLine
 10
403.4900000000019
 20
1616.765000000001
 30
0.0
 11
425.0100000000024
 21
1616.765000000001
 31
0.0
  0
LINE
  5
84A
330
1F
100
AcDbEntity
  8
DETAIL
100
AcDbLine
 10
435.0000000000021
 20
1571.160000000001
 30
0.0
 11
421.0000000000022
 21
1571.160000000001
 31
0.0
  0
LINE
  5
84B
330
1F
100
AcDbEntity
  8
DETAIL
100
AcDbLine
 10
435.0000000000021
 20
1561.660000000001
 30
0.0
 11
421.0000000000022
 21
1561.660000000001
 31
0.0
  0
ARC
  5
84C
330
1F
100
AcDbEntity
  8
DETAIL
100
AcDbCircle
 10
412.0000000000026
 20
1606.105845117113
 30
0.0
 40
7.292749999999999
100
AcDbArc
 50
196.2509990000134
 51
343.7490009999866
  0
ARC
  5
84D
330
1F
100
AcDbEntity
  8
DETAIL
100
AcDbCircle
 10
378.0000000000021
 20
1165.410000000002
 30
0.0
 40
12.0
100
AcDbArc
 50
270.0
 51
0.0
  0
ARC
  5
84E
330
1F
100
AcDbEntity
  8
DETAIL
100
AcDbCircle
 10
-377.9999999999982
 20
1165.410000000002
 30
0.0
 40
12.0
100
AcDbArc
 50
180.0
 51
270.0
  0
LINE
  5
84F
330
1F
100
AcDbEntity
  8
DETAIL
100
AcDbLine
 10
-389.9999999999987
 20
1179.410000000002
 30
0.0
 11
390.0000000000012
 21
1179.410000000001
 31
0.0
  0
LINE
  5
850
330
1F
100
AcDbEntity
  8
DETAIL
100
AcDbLine
 10
-377.999999999999
 20
1153.410000000002
 30
0.0
 11
378.0000000000007
 21
1153.410000000001
 31
0.0
  0
CIRCLE
  5
851
330
1F
100
AcDbEntity
  8
DETAIL
100
AcDbCircle
 10
-318.9999999999993
 20
-152.9999999999986
 30
0.0
 40
3.0
  0
CIRCLE
  5
852
330
1F
100
AcDbEntity
  8
DETAIL
100
AcDbCircle
 10
-280.9999999999993
 20
-152.9999999999986
 30
0.0
 40
3.0
  0
CIRCLE
  5
853
330
1F
100
AcDbEntity
  8
DETAIL
100
AcDbCircle
 10
281.0000000000004
 20
-152.9999999999995
 30
0.0
 40
3.0
  0
CIRCLE
  5
854
330
1F
100
AcDbEntity
  8
DETAIL
100
AcDbCircle
 10
319.0000000000004
 20
-152.9999999999995
 30
0.0
 40
3.0
  0
CIRCLE
  5
855
330
1F
100
AcDbEntity
  8
DETAIL
100
AcDbCircle
 10
319.0000000000004
 20
153.0000000000009
 30
0.0
 40
3.0
  0
CIRCLE
  5
856
330
1F
100
AcDbEntity
  8
DETAIL
100
AcDbCircle
 10
281.0000000000004
 20
153.0000000000009
 30
0.0
 40
3.0
  0
CIRCLE
  5
857
330
1F
100
AcDbEntity
  8
DETAIL
100
AcDbCircle
 10
-318.9999999999993
 20
153.0000000000009
 30
0.0
 40
3.0
  0
CIRCLE
  5
858
330
1F
100
AcDbEntity
  8
DETAIL
100
AcDbCircle
 10
-280.9999999999993
 20
153.0000000000009
 30
0.0
 40
3.0
  0
ARC
  5
859
330
1F
100
AcDbEntity
  8
DETAIL
100
AcDbCircle
 10
-359.7021960805498
 20
-33.99999999999863
 30
0.0
 40
10.0
100
AcDbArc
 50
270.0
 51
0.0
  0
ARC
  5
85A
330
1F
100
AcDbEntity
  8
DETAIL
100
AcDbCircle
 10
-359.7021960805498
 20
-33.99999999999863
 30
0.0
 40
10.0
100
AcDbArc
 50
180.0
 51
270.0
  0
ARC
  5
85B
330
1F
100
AcDbEntity
  8
DETAIL
100
AcDbCircle
 10
-359.7021960805507
 20
34.00000000000181
 30
0.0
 40
10.0
100
AcDbArc
 50
0.0
 51
90.0
  0
ARC
  5
85C
330
1F
100
AcDbEntity
  8
DETAIL
100
AcDbCircle
 10
-359.7021960805498
 20
34.0000000000009
 30
0.0
 40
10.0
100
AcDbArc
 50
90.0
 51
180.0
  0
LINE
  5
85D
330
1F
100
AcDbEntity
  8
DETAIL
100
AcDbLine
 10
-359.7021960805509
 20
44.00000000000045
 30
0.0
 11
-359.7021960805509
 21
44.00000000000045
 31
0.0
  0
LINE
  5
85E
330
1F
100
AcDbEntity
  8
DETAIL
100
AcDbLine
 10
-369.7021960805509
 20
-33.99999999999954
 30
0.0
 11
-369.7021960805509
 21
34.00000000000045
 31
0.0
  0
LINE
  5
85F
330
1F
100
AcDbEntity
  8
DETAIL
100
AcDbLine
 10
-359.7021960805509
 20
-43.99999999999955
 30
0.0
 11
-359.7021960805509
 21
-43.99999999999955
 31
0.0
  0
LINE
  5
860
330
1F
100
AcDbEntity
  8
DETAIL
100
AcDbLine
 10
-349.7021960805509
 20
34.0000000000009
 30
0.0
 11
-349.7021960805509
 21
-33.99999999999954
 31
0.0
  0
LINE
  5
861
330
1F
100
AcDbEntity
  8
DETAIL
  6
HIDDEN
100
AcDbLine
 10
401.4899999999975
 20
-1299.925845117111
 30
0.0
 11
403.4899999999975
 21
-1299.052391263638
 31
0.0
  0
LINE
  5
862
330
1F
100
AcDbEntity
  8
DETAIL
  6
HIDDEN
100
AcDbLine
 10
401.4899999999975
 20
-1309.56584511711
 30
0.0
 11
403.4899999999975
 21
-1308.690488314066
 31
0.0
  0
LINE
  5
863
330
1F
100
AcDbEntity
  8
DETAIL
  6
HIDDEN
100
AcDbLine
 10
422.9065974265799
 20
-1269.749999999999
 30
0.0
 11
420.9999999999977
 21
-1273.209999999999
 31
0.0
  0
LINE
  5
864
330
1F
100
AcDbEntity
  8
DETAIL
100
AcDbLine
 10
422.4999999999977
 20
-1309.56584511711
 30
0.0
 11
419.0013679927874
 21
-1314.054999999999
 31
0.0
  0
CIRCLE
  5
865
330
1F
100
AcDbEntity
  8
DETAIL
100
AcDbCircle
 10
-108.0000000000022
 20
-1136.909999999999
 30
0.0
 40
52.0
  0
CIRCLE
  5
866
330
1F
100
AcDbEntity
  8
DETAIL
100
AcDbCircle
 10
-108.0000000000022
 20
-1136.909999999999
 30
0.0
 40
62.0
  0
CIRCLE
  5
867
330
1F
100
AcDbEntity
  8
DETAIL
100
AcDbCircle
 10
-108.0000000000022
 20
-1136.909999999999
 30
0.0
 40
72.0
  0
CIRCLE
  5
868
330
1F
100
AcDbEntity
  8
DETAIL
100
AcDbCircle
 10
-108.0000000000022
 20
-1136.909999999999
 30
0.0
 40
82.0
  0
CIRCLE
  5
869
330
1F
100
AcDbEntity
  8
DETAIL
100
AcDbCircle
 10
-108.0000000000022
 20
-1136.909999999999
 30
0.0
 40
92.0
  0
CIRCLE
  5
86A
330
1F
100
AcDbEntity
  8
DETAIL
100
AcDbCircle
 10
-108.0000000000022
 20
-1136.909999999999
 30
0.0
 40
102.0
  0
CIRCLE
  5
86B
330
1F
100
AcDbEntity
  8
DETAIL
100
AcDbCircle
 10
-108.0000000000022
 20
-1136.909999999999
 30
0.0
 40
112.0
  0
CIRCLE
  5
86C
330
1F
100
AcDbEntity
  8
DETAIL
100
AcDbCircle
 10
-108.0000000000022
 20
-1136.409999999999
 30
0.0
 40
122.0
  0
CIRCLE
  5
86D
330
1F
100
AcDbEntity
  8
DETAIL
100
AcDbCircle
 10
-108.0000000000022
 20
-1136.909999999999
 30
0.0
 40
132.0
  0
CIRCLE
  5
86E
330
1F
100
AcDbEntity
  8
DETAIL
100
AcDbCircle
 10
-108.0000000000022
 20
-1136.909999999999
 30
0.0
 40
142.0
  0
CIRCLE
  5
86F
330
1F
100
AcDbEntity
  8
DETAIL
100
AcDbCircle
 10
-108.0000000000022
 20
-1136.909999999999
 30
0.0
 40
152.0
  0
CIRCLE
  5
870
330
1F
100
AcDbEntity
  8
DETAIL
100
AcDbCircle
 10
-108.0000000000022
 20
-1136.909999999999
 30
0.0
 40
162.0
  0
CIRCLE
  5
871
330
1F
100
AcDbEntity
  8
DETAIL
100
AcDbCircle
 10
-108.0000000000022
 20
-1136.909999999999
 30
0.0
 40
172.0
  0
CIRCLE
  5
872
330
1F
100
AcDbEntity
  8
DETAIL
100
AcDbCircle
 10
-108.0000000000022
 20
-1136.909999999999
 30
0.0
 40
181.4999999999999
  0
CIRCLE
  5
873
330
1F
100
AcDbEntity
  8
DETAIL
100
AcDbCircle
 10
-108.0000000000022
 20
-1136.909999999999
 30
0.0
 40
192.0
  0
CIRCLE
  5
874
330
1F
100
AcDbEntity
  8
DETAIL
100
AcDbCircle
 10
-108.0000000000022
 20
-1136.909999999999
 30
0.0
 40
202.0
  0
CIRCLE
  5
875
330
1F
100
AcDbEntity
  8
DETAIL
100
AcDbCircle
 10
-108.0000000000022
 20
-1136.909999999999
 30
0.0
 40
212.0
  0
CIRCLE
  5
876
330
1F
100
AcDbEntity
  8
DETAIL
100
AcDbCircle
 10
-108.0000000000022
 20
-1136.909999999999
 30
0.0
 40
222.0
  0
CIRCLE
  5
877
330
1F
100
AcDbEntity
  8
DETAIL
100
AcDbCircle
 10
141.9999999999977
 20
-1361.409999999998
 30
0.0
 40
2.25
  0
CIRCLE
  5
878
330
1F
100
AcDbEntity
  8
DETAIL
100
AcDbCircle
 10
141.999999999999
 20
-912.4099999999994
 30
0.0
 40
2.25
  0
CIRCLE
  5
879
330
1F
100
AcDbEntity
  8
DETAIL
100
AcDbCircle
 10
-358.0000000000022
 20
-1361.409999999999
 30
0.0
 40
2.25
  0
CIRCLE
  5
87A
330
1F
100
AcDbEntity
  8
DETAIL
100
AcDbCircle
 10
-358.0000000000016
 20
-912.4099999999984
 30
0.0
 40
2.25
  0
LINE
  5
87B
330
1F
100
AcDbEntity
  8
DETAIL
100
AcDbLine
 10
-390.0000000000023
 20
-1398.409999999999
 30
0.0
 11
-390.000000000002
 21
-875.409999999999
 31
0.0
  0
LINE
  5
87C
330
1F
100
AcDbEntity
  8
DETAIL
100
AcDbLine
 10
389.9999999999977
 20
-1398.409999999999
 30
0.0
 11
-390.0000000000023
 21
-1398.409999999999
 31
0.0
  0
LINE
  5
87D
330
1F
100
AcDbEntity
  8
DETAIL
100
AcDbLine
 10
389.9999999999991
 20
-875.4099999999993
 30
0.0
 11
389.9999999999977
 21
-1398.409999999999
 31
0.0
  0
LINE
  5
87E
330
1F
100
AcDbEntity
  8
DETAIL
100
AcDbLine
 10
-383.0000000000022
 20
-1405.409999999999
 30
0.0
 11
-387.0000000000022
 21
-1398.409999999999
 31
0.0
  0
LINE
  5
87F
330
1F
100
AcDbEntity
  8
DETAIL
100
AcDbLine
 10
382.9999999999977
 20
-1405.409999999999
 30
0.0
 11
-383.0000000000022
 21
-1405.409999999999
 31
0.0
  0
LINE
  5
880
330
1F
100
AcDbEntity
  8
DETAIL
100
AcDbLine
 10
386.9999999999977
 20
-1398.409999999999
 30
0.0
 11
382.9999999999977
 21
-1405.409999999999
 31
0.0
  0
LINE
  5
881
330
1F
100
AcDbEntity
  8
DETAIL
100
AcDbLine
 10
-274.0000000000022
 20
-1413.409999999999
 30
0.0
 11
-274.0000000000022
 21
-1405.409999999999
 31
0.0
  0
LINE
  5
882
330
1F
100
AcDbEntity
  8
DETAIL
100
AcDbLine
 10
-326.0000000000022
 20
-1413.409999999999
 30
0.0
 11
-274.0000000000022
 21
-1413.409999999999
 31
0.0
  0
LINE
  5
883
330
1F
100
AcDbEntity
  8
DETAIL
100
AcDbLine
 10
-326.0000000000022
 20
-1405.409999999999
 30
0.0
 11
-326.0000000000022
 21
-1413.409999999999
 31
0.0
  0
LINE
  5
884
330
1F
100
AcDbEntity
  8
DETAIL
100
AcDbLine
 10
132.9999999999977
 20
-1378.409999999999
 30
0.0
 11
-109.0000000000022
 21
-1378.409999999999
 31
0.0
  0
LINE
  5
885
330
1F
100
AcDbEntity
  8
DETAIL
100
AcDbLine
 10
132.9999999999981
 20
-895.4099999999995
 30
0.0
 11
132.9999999999977
 21
-1378.409999999999
 31
0.0
  0
LINE
  5
886
330
1F
100
AcDbEntity
  8
DETAIL
100
AcDbLine
 10
-109.0000000000018
 20
-895.4099999999995
 30
0.0
 11
132.999999999999
 21
-895.4099999999995
 31
0.0
  0
LINE
  5
887
330
1F
100
AcDbEntity
  8
DETAIL
100
AcDbLine
 10
273.9999999999977
 20
-1413.409999999999
 30
0.0
 11
273.9999999999977
 21
-1405.409999999999
 31
0.0
  0
LINE
  5
888
330
1F
100
AcDbEntity
  8
DETAIL
100
AcDbLine
 10
325.9999999999977
 20
-1413.409999999999
 30
0.0
 11
273.9999999999977
 21
-1413.409999999999
 31
0.0
  0
LINE
  5
889
330
1F
100
AcDbEntity
  8
DETAIL
100
AcDbLine
 10
325.9999999999977
 20
-1405.409999999999
 30
0.0
 11
325.9999999999977
 21
-1413.409999999999
 31
0.0
  0
LINE
  5
88A
330
1F
100
AcDbEntity
  8
DETAIL
100
AcDbLine
 10
-273.0000000000004
 20
-161.0
 30
0.0
 11
-273.0000000000004
 21
-144.999999999999
 31
0.0
  0
LINE
  5
88B
330
1F
100
AcDbEntity
  8
DETAIL
100
AcDbLine
 10
-317.0000000000004
 20
-171.0000000000009
 30
0.0
 11
-283.0000000000004
 21
-171.0
 31
0.0
  0
LINE
  5
88C
330
1F
100
AcDbEntity
  8
DETAIL
100
AcDbLine
 10
-327.0000000000004
 20
-144.999999999999
 30
0.0
 11
-327.0000000000004
 21
-161.0000000000009
 31
0.0
  0
LINE
  5
88D
330
1F
100
AcDbEntity
  8
DETAIL
100
AcDbLine
 10
-332.7000000000002
 20
-161.3199999999987
 30
0.0
 11
-329.1799999999998
 21
-144.9699999999984
 31
0.0
  0
LINE
  5
88E
330
1F
100
AcDbEntity
  8
DETAIL
100
AcDbLine
 10
-332.2999999999997
 20
-166.4399999999987
 30
0.0
 11
-332.7000000000002
 21
-161.3199999999987
 31
0.0
  0
LINE
  5
88F
330
1F
100
AcDbEntity
  8
DETAIL
100
AcDbLine
 10
-334.6100000000001
 20
-170.999999999999
 30
0.0
 11
-332.2999999999997
 21
-166.4399999999987
 31
0.0
  0
LINE
  5
890
330
1F
100
AcDbEntity
  8
DETAIL
100
AcDbLine
 10
-349.5000000000004
 20
-170.999999999999
 30
0.0
 11
-334.6100000000001
 21
-170.999999999999
 31
0.0
  0
LINE
  5
891
330
1F
100
AcDbEntity
  8
DETAIL
100
AcDbLine
 10
-349.5000000000004
 20
-144.999999999999
 30
0.0
 11
-349.5000000000004
 21
-170.999999999999
 31
0.0
  0
LINE
  5
892
330
1F
100
AcDbEntity
  8
DETAIL
100
AcDbLine
 10
-257.1300000000005
 20
-160.1399999999985
 30
0.0
 11
-262.8300000000003
 21
-144.999999999999
 31
0.0
  0
LINE
  5
893
330
1F
100
AcDbEntity
  8
DETAIL
100
AcDbLine
 10
-257.1300000000005
 20
-168.3574999999982
 30
0.0
 11
-257.1300000000001
 21
-160.1399999999994
 31
0.0
  0
LINE
  5
894
330
1F
100
AcDbEntity
  8
DETAIL
100
AcDbLine
 10
-249.9999999999991
 20
-171.999999999999
 30
0.0
 11
-257.1300000000005
 21
-168.3574999999982
 31
0.0
  0
LINE
  5
895
330
1F
100
AcDbEntity
  8
DETAIL
100
AcDbLine
 10
132.7000000000002
 20
-171.999999999999
 30
0.0
 11
-249.9999999999986
 21
-171.999999999999
 31
0.0
  0
LINE
  5
896
330
1F
100
AcDbEntity
  8
DETAIL
100
AcDbLine
 10
132.7000000000002
 20
-144.999999999999
 30
0.0
 11
132.7000000000002
 21
-171.999999999999
 31
0.0
  0
LINE
  5
897
330
1F
100
AcDbEntity
  8
DETAIL
100
AcDbLine
 10
397.9999999999977
 20
-1349.149999999999
 30
0.0
 11
389.9999999999977
 21
-1354.149999999999
 31
0.0
  0
LINE
  5
898
330
1F
100
AcDbEntity
  8
DETAIL
100
AcDbLine
 10
397.9999999999977
 20
-1254.62
 30
0.0
 11
397.9999999999977
 21
-1349.149999999999
 31
0.0
  0
LINE
  5
899
330
1F
100
AcDbEntity
  8
DETAIL
100
AcDbLine
 10
389.9999999999977
 20
-1249.62
 30
0.0
 11
397.9999999999977
 21
-1254.62
 31
0.0
  0
LINE
  5
89A
330
1F
100
AcDbEntity
  8
DETAIL
100
AcDbLine
 10
442.9999999999977
 20
-1325.904999999999
 30
0.0
 11
438.9999999999977
 21
-1329.904999999999
 31
0.0
  0
LINE
  5
89B
330
1F
100
AcDbEntity
  8
DETAIL
100
AcDbLine
 10
442.9999999999977
 20
-1314.904999999999
 30
0.0
 11
442.9999999999977
 21
-1325.904999999999
 31
0.0
  0
LINE
  5
89C
330
1F
100
AcDbEntity
  8
DETAIL
100
AcDbLine
 10
438.9999999999977
 20
-1310.904999999999
 30
0.0
 11
442.9999999999977
 21
-1314.904999999999
 31
0.0
  0
LINE
  5
89D
330
1F
100
AcDbEntity
  8
DETAIL
100
AcDbLine
 10
425.0099999999979
 20
-1329.904999999999
 30
0.0
 11
424.9999999999976
 21
-1310.904999999999
 31
0.0
  0
LINE
  5
89E
330
1F
100
AcDbEntity
  8
DETAIL
100
AcDbLine
 10
438.9999999999977
 20
-1329.904999999999
 30
0.0
 11
425.0099999999979
 21
-1329.904999999999
 31
0.0
  0
LINE
  5
89F
330
1F
100
AcDbEntity
  8
DETAIL
100
AcDbLine
 10
438.9999999999977
 20
-1310.904999999999
 30
0.0
 11
438.9999999999977
 21
-1329.904999999999
 31
0.0
  0
LINE
  5
8A0
330
1F
100
AcDbEntity
  8
DETAIL
100
AcDbLine
 10
424.9999999999976
 20
-1310.904999999999
 30
0.0
 11
438.9999999999977
 21
-1310.904999999999
 31
0.0
  0
LINE
  5
8A1
330
1F
100
AcDbEntity
  8
DETAIL
100
AcDbLine
 10
403.4899999999975
 20
-1344.149999999999
 30
0.0
 11
397.9999999999977
 21
-1344.149999999999
 31
0.0
  0
LINE
  5
8A2
330
1F
100
AcDbEntity
  8
DETAIL
100
AcDbLine
 10
403.4899999999975
 20
-1259.619999999999
 30
0.0
 11
403.4899999999975
 21
-1344.149999999999
 31
0.0
  0
LINE
  5
8A3
330
1F
100
AcDbEntity
  8
DETAIL
100
AcDbLine
 10
397.9999999999977
 20
-1259.619999999999
 30
0.0
 11
403.4899999999975
 21
-1259.619999999999
 31
0.0
  0
LINE
  5
8A4
330
1F
100
AcDbEntity
  8
DETAIL
100
AcDbLine
 10
413.0000000000008
 20
-911.4099999999993
 30
0.0
 11
389.999999999999
 21
-900.6766666666653
 31
0.0
  0
LINE
  5
8A5
330
1F
100
AcDbEntity
  8
DETAIL
100
AcDbLine
 10
413.0
 20
-1158.33
 30
0.0
 11
413.0000000000008
 21
-911.4099999999993
 31
0.0
  0
LINE
  5
8A6
330
1F
100
AcDbEntity
  8
DETAIL
100
AcDbLine
 10
458.9999999999995
 20
-1188.33
 30
0.0
 11
413.0
 21
-1158.33
 31
0.0
  0
LINE
  5
8A7
330
1F
100
AcDbEntity
  8
DETAIL
100
AcDbLine
 10
407.9999999999995
 20
-1368.409999999999
 30
0.0
 11
458.9999999999995
 21
-1348.409999999999
 31
0.0
  0
LINE
  5
8A8
330
1F
100
AcDbEntity
  8
DETAIL
100
AcDbLine
 10
407.9999999999995
 20
-1398.409999999999
 30
0.0
 11
407.9999999999995
 21
-1368.409999999999
 31
0.0
  0
LINE
  5
8A9
330
1F
100
AcDbEntity
  8
DETAIL
100
AcDbLine
 10
389.9999999999977
 20
-1398.409999999999
 30
0.0
 11
407.9999999999995
 21
-1398.409999999999
 31
0.0
  0
LINE
  5
8AA
330
1F
100
AcDbEntity
  8
DETAIL
  6
HIDDEN
100
AcDbLine
 10
401.4899999999975
 20
-1309.56584511711
 30
0.0
 11
401.4899999999975
 21
-1299.925845117111
 31
0.0
  0
LINE
  5
8AB
330
1F
100
AcDbEntity
  8
DETAIL
100
AcDbLine
 10
411.9999999999977
 20
-1304.965845117111
 30
0.0
 11
403.4899999999975
 21
-1308.690488314066
 31
0.0
  0
LINE
  5
8AC
330
1F
100
AcDbEntity
  8
DETAIL
100
AcDbLine
 10
422.4999999999977
 20
-1309.56584511711
 30
0.0
 11
411.9999999999977
 21
-1304.965845117111
 31
0.0
  0
LINE
  5
8AD
330
1F
100
AcDbEntity
  8
DETAIL
100
AcDbLine
 10
411.9999999999977
 20
-1295.335845117111
 30
0.0
 11
403.4899999999975
 21
-1299.052391263638
 31
0.0
  0
LINE
  5
8AE
330
1F
100
AcDbEntity
  8
DETAIL
100
AcDbLine
 10
422.4999999999977
 20
-1299.925845117111
 30
0.0
 11
411.9999999999977
 21
-1295.335845117111
 31
0.0
  0
LINE
  5
8AF
330
1F
100
AcDbEntity
  8
DETAIL
100
AcDbLine
 10
421.0099999999979
 20
-1285.909999999999
 30
0.0
 11
420.9999999999977
 21
-1266.909999999999
 31
0.0
  0
LINE
  5
8B0
330
1F
100
AcDbEntity
  8
DETAIL
100
AcDbLine
 10
434.9999999999977
 20
-1285.909999999999
 30
0.0
 11
421.0099999999979
 21
-1285.909999999999
 31
0.0
  0
LINE
  5
8B1
330
1F
100
AcDbEntity
  8
DETAIL
100
AcDbLine
 10
434.9999999999977
 20
-1266.909999999999
 30
0.0
 11
434.9999999999977
 21
-1285.909999999999
 31
0.0
  0
LINE
  5
8B2
330
1F
100
AcDbEntity
  8
DETAIL
100
AcDbLine
 10
420.9999999999977
 20
-1266.909999999999
 30
0.0
 11
434.9999999999977
 21
-1266.909999999999
 31
0.0
  0
LINE
  5
8B3
330
1F
100
AcDbEntity
  8
DETAIL
100
AcDbLine
 10
423.3218781927457
 20
-1268.601406994845
 30
0.0
 11
423.3218781927457
 21
-1259.601406994845
 31
0.0
  0
LINE
  5
8B4
330
1F
100
AcDbEntity
  8
DETAIL
  6
HIDDEN
100
AcDbLine
 10
414.8218781927457
 20
-1264.961406994845
 30
0.0
 11
423.3218781927457
 21
-1268.601406994845
 31
0.0
  0
LINE
  5
8B5
330
1F
100
AcDbEntity
  8
DETAIL
100
AcDbLine
 10
406.3218781927457
 20
-1268.601406994845
 30
0.0
 11
414.8218781927457
 21
-1264.961406994845
 31
0.0
  0
LINE
  5
8B6
330
1F
100
AcDbEntity
  8
DETAIL
100
AcDbLine
 10
406.3218781927457
 20
-1259.601406994845
 30
0.0
 11
406.3218781927457
 21
-1268.601406994845
 31
0.0
  0
LINE
  5
8B7
330
1F
100
AcDbEntity
  8
DETAIL
100
AcDbLine
 10
414.8218781927457
 20
-1255.971406994845
 30
0.0
 11
406.3218781927457
 21
-1259.601406994845
 31
0.0
  0
LINE
  5
8B8
330
1F
100
AcDbEntity
  8
DETAIL
100
AcDbLine
 10
423.3218781927457
 20
-1259.601406994845
 30
0.0
 11
414.8218781927457
 21
-1255.971406994845
 31
0.0
  0
LINE
  5
8B9
330
1F
100
AcDbEntity
  8
DETAIL
100
AcDbLine
 10
438.9999999999977
 20
-1281.909999999999
 30
0.0
 11
434.9999999999977
 21
-1285.909999999999
 31
0.0
  0
LINE
  5
8BA
330
1F
100
AcDbEntity
  8
DETAIL
100
AcDbLine
 10
438.9999999999977
 20
-1270.909999999999
 30
0.0
 11
438.9999999999977
 21
-1281.909999999999
 31
0.0
  0
LINE
  5
8BB
330
1F
100
AcDbEntity
  8
DETAIL
100
AcDbLine
 10
434.9999999999977
 20
-1266.909999999999
 30
0.0
 11
438.9999999999977
 21
-1270.909999999999
 31
0.0
  0
LINE
  5
8BC
330
1F
100
AcDbEntity
  8
DETAIL
100
AcDbLine
 10
2044.636337021447
 20
-172.0000000000018
 30
0.0
 11
2044.636337021447
 21
-145.0000000000018
 31
0.0
  0
LINE
  5
8BD
330
1F
100
AcDbEntity
  8
DETAIL
100
AcDbLine
 10
1562.636337021445
 20
-172.0000000000011
 30
0.0
 11
2044.636337021447
 21
-172.0000000000018
 31
0.0
  0
LINE
  5
8BE
330
1F
100
AcDbEntity
  8
DETAIL
100
AcDbLine
 10
1562.636337021445
 20
-145.0000000000011
 30
0.0
 11
1562.636337021445
 21
-172.0000000000011
 31
0.0
  0
LINE
  5
8BF
330
1F
100
AcDbEntity
  8
DETAIL
100
AcDbLine
 10
2065.636337021446
 20
-145.0000000000018
 30
0.0
 11
1536.636337021445
 21
-145.0000000000006
 31
0.0
  0
LINE
  5
8C0
330
1F
100
AcDbEntity
  8
DETAIL
100
AcDbLine
 10
2065.636337021447
 20
144.9999999999981
 30
0.0
 11
2065.636337021446
 21
-145.0000000000018
 31
0.0
  0
LINE
  5
8C1
330
1F
100
AcDbEntity
  8
DETAIL
100
AcDbLine
 10
1536.636337021445
 20
144.999999999999
 30
0.0
 11
2065.636337021447
 21
144.9999999999981
 31
0.0
  0
LINE
  5
8C2
330
1F
100
AcDbEntity
  8
DETAIL
100
AcDbLine
 10
1571.636337021445
 20
65.99999999999955
 30
0.0
 11
2065.636337021446
 21
65.99999999999863
 31
0.0
  0
LINE
  5
8C3
330
1F
100
AcDbEntity
  8
DETAIL
100
AcDbLine
 10
1571.636337021445
 20
-64.00000000000068
 30
0.0
 11
1571.636337021445
 21
65.99999999999955
 31
0.0
  0
LINE
  5
8C4
330
1F
100
AcDbEntity
  8
DETAIL
100
AcDbLine
 10
2065.636337021446
 20
-64.00000000000137
 30
0.0
 11
1571.636337021445
 21
-64.00000000000068
 31
0.0
  0
LINE
  5
8C5
330
1F
100
AcDbEntity
  8
DETAIL
100
AcDbLine
 10
416.2499999999999
 20
-51.53686906104121
 30
0.0
 11
420.5
 21
-48.43686906104085
 31
0.0
  0
LINE
  5
8C6
330
1F
100
AcDbEntity
  8
DETAIL
100
AcDbLine
 10
407.7399999999998
 20
-51.53686906104121
 30
0.0
 11
416.2499999999999
 21
-51.53686906104121
 31
0.0
  0
LINE
  5
8C7
330
1F
100
AcDbEntity
  8
DETAIL
100
AcDbLine
 10
403.5
 20
-48.43686906104085
 30
0.0
 11
407.7399999999998
 21
-51.53686906104121
 31
0.0
  0
LINE
  5
8C8
330
1F
100
AcDbEntity
  8
DETAIL
100
AcDbLine
 10
398.0
 20
-53.49909971251372
 30
0.0
 11
390.0
 21
-56.49909971251372
 31
0.0
  0
LINE
  5
8C9
330
1F
100
AcDbEntity
  8
DETAIL
100
AcDbLine
 10
398.0
 20
23.01090028748603
 30
0.0
 11
398.0
 21
-53.49909971251372
 31
0.0
  0
LINE
  5
8CA
330
1F
100
AcDbEntity
  8
DETAIL
100
AcDbLine
 10
390.0
 20
26.00090028748581
 30
0.0
 11
398.0
 21
23.01090028748603
 31
0.0
  0
LINE
  5
8CB
330
1F
100
AcDbEntity
  8
DETAIL
100
AcDbLine
 10
420.2499999999999
 20
-6.594099712514434
 30
0.0
 11
425.4999999999999
 21
-10.07613256672357
 31
0.0
  0
LINE
  5
8CC
330
1F
100
AcDbEntity
  8
DETAIL
100
AcDbLine
 10
409.75
 20
-6.594099712514434
 30
0.0
 11
420.2499999999999
 21
-6.594099712514434
 31
0.0
  0
LINE
  5
8CD
330
1F
100
AcDbEntity
  8
DETAIL
100
AcDbLine
 10
404.4899999999997
 20
-10.07561610595667
 30
0.0
 11
409.75
 21
-6.594099712514434
 31
0.0
  0
LINE
  5
8CE
330
1F
100
AcDbEntity
  8
DETAIL
100
AcDbLine
 10
409.75
 20
-15.57409971251445
 30
0.0
 11
404.4899999999997
 21
-19.63409971251439
 31
0.0
  0
LINE
  5
8CF
330
1F
100
AcDbEntity
  8
DETAIL
100
AcDbLine
 10
420.2499999999999
 20
-15.57409971251445
 30
0.0
 11
409.75
 21
-15.57409971251445
 31
0.0
  0
LINE
  5
8D0
330
1F
100
AcDbEntity
  8
DETAIL
100
AcDbLine
 10
425.4999999999999
 20
-19.63409971251439
 30
0.0
 11
420.2499999999999
 21
-15.57409971251445
 31
0.0
  0
LINE
  5
8D1
330
1F
100
AcDbEntity
  8
DETAIL
100
AcDbLine
 10
420.2499999999999
 20
-23.02409971251427
 30
0.0
 11
425.4999999999999
 21
-19.63409971251439
 31
0.0
  0
LINE
  5
8D2
330
1F
100
AcDbEntity
  8
DETAIL
100
AcDbLine
 10
409.75
 20
-23.02409971251427
 30
0.0
 11
420.2499999999999
 21
-23.02409971251427
 31
0.0
  0
LINE
  5
8D3
330
1F
100
AcDbEntity
  8
DETAIL
100
AcDbLine
 10
404.4899999999997
 20
-19.63409971251439
 30
0.0
 11
409.75
 21
-23.02409971251427
 31
0.0
  0
LINE
  5
8D4
330
1F
100
AcDbEntity
  8
DETAIL
100
AcDbLine
 10
421.0100000000002
 20
-19.50686906104147
 30
0.0
 11
421.0
 21
-38.49686906104125
 31
0.0
  0
LINE
  5
8D5
330
1F
100
AcDbEntity
  8
DETAIL
100
AcDbLine
 10
435.0
 20
-19.50686906104147
 30
0.0
 11
421.0100000000002
 21
-19.50686906104147
 31
0.0
  0
LINE
  5
8D6
330
1F
100
AcDbEntity
  8
DETAIL
100
AcDbLine
 10
435.0
 20
-38.49686906104125
 30
0.0
 11
435.0
 21
-19.50686906104147
 31
0.0
  0
LINE
  5
8D7
330
1F
100
AcDbEntity
  8
DETAIL
100
AcDbLine
 10
421.0
 20
-38.49686906104125
 30
0.0
 11
435.0
 21
-38.49686906104125
 31
0.0
  0
LINE
  5
8D8
330
1F
100
AcDbEntity
  8
DETAIL
100
AcDbLine
 10
416.2499999999999
 20
-37.6568690610411
 30
0.0
 11
420.5
 21
-40.01686906104168
 31
0.0
  0
LINE
  5
8D9
330
1F
100
AcDbEntity
  8
DETAIL
100
AcDbLine
 10
407.7399999999998
 20
-37.6568690610411
 30
0.0
 11
416.2499999999999
 21
-37.6568690610411
 31
0.0
  0
LINE
  5
8DA
330
1F
100
AcDbEntity
  8
DETAIL
100
AcDbLine
 10
403.5
 20
-39.42686906104154
 30
0.0
 11
407.7399999999998
 21
-37.6568690610411
 31
0.0
  0
LINE
  5
8DB
330
1F
100
AcDbEntity
  8
DETAIL
100
AcDbLine
 10
416.2499999999999
 20
-45.78686906104121
 30
0.0
 11
420.5
 21
-48.43686906104085
 31
0.0
  0
LINE
  5
8DC
330
1F
100
AcDbEntity
  8
DETAIL
100
AcDbLine
 10
407.7399999999998
 20
-45.78686906104121
 30
0.0
 11
416.2499999999999
 21
-45.78686906104121
 31
0.0
  0
LINE
  5
8DD
330
1F
100
AcDbEntity
  8
DETAIL
100
AcDbLine
 10
403.5
 20
-48.43686906104085
 30
0.0
 11
407.7399999999998
 21
-45.78686906104121
 31
0.0
  0
LINE
  5
8DE
330
1F
100
AcDbEntity
  8
DETAIL
100
AcDbLine
 10
443.0
 20
-3.499099712514635
 30
0.0
 11
439.0
 21
-7.499099712514635
 31
0.0
  0
LINE
  5
8DF
330
1F
100
AcDbEntity
  8
DETAIL
100
AcDbLine
 10
443.0
 20
7.500900287485364
 30
0.0
 11
443.0
 21
-3.499099712514635
 31
0.0
  0
LINE
  5
8E0
330
1F
100
AcDbEntity
  8
DETAIL
100
AcDbLine
 10
439.0
 20
11.50090028748536
 30
0.0
 11
443.0
 21
7.500900287485364
 31
0.0
  0
LINE
  5
8E1
330
1F
100
AcDbEntity
  8
DETAIL
100
AcDbLine
 10
439.0
 20
-23.49686906104216
 30
0.0
 11
435.0
 21
-19.50686906104147
 31
0.0
  0
LINE
  5
8E2
330
1F
100
AcDbEntity
  8
DETAIL
100
AcDbLine
 10
439.0
 20
-34.50686906104192
 30
0.0
 11
439.0
 21
-23.49686906104216
 31
0.0
  0
LINE
  5
8E3
330
1F
100
AcDbEntity
  8
DETAIL
100
AcDbLine
 10
435.0
 20
-38.49686906104125
 30
0.0
 11
439.0
 21
-34.50686906104192
 31
0.0
  0
LINE
  5
8E4
330
1F
100
AcDbEntity
  8
DETAIL
100
AcDbLine
 10
425.0100000000002
 20
11.50090028748582
 30
0.0
 11
425.0
 21
-7.49909971251418
 31
0.0
  0
LINE
  5
8E5
330
1F
100
AcDbEntity
  8
DETAIL
100
AcDbLine
 10
439.0
 20
11.50090028748536
 30
0.0
 11
425.0100000000002
 21
11.50090028748582
 31
0.0
  0
LINE
  5
8E6
330
1F
100
AcDbEntity
  8
DETAIL
100
AcDbLine
 10
439.0
 20
-7.499099712514635
 30
0.0
 11
439.0
 21
11.50090028748536
 31
0.0
  0
LINE
  5
8E7
330
1F
100
AcDbEntity
  8
DETAIL
100
AcDbLine
 10
425.0
 20
-7.49909971251418
 30
0.0
 11
439.0
 21
-7.499099712514635
 31
0.0
  0
LINE
  5
8E8
330
1F
100
AcDbEntity
  8
DETAIL
100
AcDbLine
 10
2072.636337021447
 20
139.9999999999981
 30
0.0
 11
2065.636337021447
 21
139.9999999999981
 31
0.0
  0
LINE
  5
8E9
330
1F
100
AcDbEntity
  8
DETAIL
100
AcDbLine
 10
2072.636337021446
 20
-140.0000000000018
 30
0.0
 11
2072.636337021447
 21
139.9999999999981
 31
0.0
  0
LINE
  5
8EA
330
1F
100
AcDbEntity
  8
DETAIL
100
AcDbLine
 10
2065.636337021446
 20
-140.0000000000018
 30
0.0
 11
2072.636337021446
 21
-140.0000000000018
 31
0.0
  0
LINE
  5
8EB
330
1F
100
AcDbEntity
  8
DETAIL
100
AcDbLine
 10
1929.524958824567
 20
-3.63860586986766
 30
0.0
 11
1935.164958824566
 21
-4.128605869867442
 31
0.0
  0
LINE
  5
8EC
330
1F
100
AcDbEntity
  8
DETAIL
100
AcDbLine
 10
1921.104958824567
 20
-10.70860586986736
 30
0.0
 11
1929.524958824567
 21
-3.63860586986766
 31
0.0
  0
LINE
  5
8ED
330
1F
100
AcDbEntity
  8
DETAIL
100
AcDbLine
 10
1920.604958824567
 20
-16.33860586986656
 30
0.0
 11
1921.104958824567
 21
-10.70860586986736
 31
0.0
  0
LINE
  5
8EE
330
1F
100
AcDbEntity
  8
DETAIL
100
AcDbLine
 10
1944.154958824566
 20
-14.84860586986678
 30
0.0
 11
1929.604958824567
 21
-27.06860586986704
 31
0.0
  0
LINE
  5
8EF
330
1F
100
AcDbEntity
  8
DETAIL
100
AcDbLine
 10
1935.164958824566
 20
-4.128605869867442
 30
0.0
 11
1944.154958824566
 21
-14.84860586986678
 31
0.0
  0
LINE
  5
8F0
330
1F
100
AcDbEntity
  8
DETAIL
100
AcDbLine
 10
1920.604958824567
 20
-16.33860586986656
 30
0.0
 11
1935.164958824566
 21
-4.128605869867442
 31
0.0
  0
LINE
  5
8F1
330
1F
100
AcDbEntity
  8
DETAIL
100
AcDbLine
 10
1929.604958824567
 20
-27.06860586986704
 30
0.0
 11
1920.604958824567
 21
-16.33860586986656
 31
0.0
  0
LINE
  5
8F2
330
1F
100
AcDbEntity
  8
DETAIL
100
AcDbLine
 10
2080.636337021446
 20
-97.00000000000182
 30
0.0
 11
2072.636337021446
 21
-97.00000000000182
 31
0.0
  0
LINE
  5
8F3
330
1F
100
AcDbEntity
  8
DETAIL
100
AcDbLine
 10
2080.636337021446
 20
-171.0000000000018
 30
0.0
 11
2080.636337021446
 21
-97.00000000000182
 31
0.0
  0
LINE
  5
8F4
330
1F
100
AcDbEntity
  8
DETAIL
100
AcDbLine
 10
2072.636337021446
 20
-171.0000000000018
 30
0.0
 11
2080.636337021446
 21
-171.0000000000018
 31
0.0
  0
LINE
  5
8F5
330
1F
100
AcDbEntity
  8
DETAIL
100
AcDbLine
 10
2072.636337021446
 20
-136.0000000000018
 30
0.0
 11
2072.636337021446
 21
-171.0000000000018
 31
0.0
  0
LINE
  5
8F6
330
1F
100
AcDbEntity
  8
DETAIL
100
AcDbLine
 10
1973.139635198879
 20
30.94948717058741
 30
0.0
 11
1979.799635198879
 21
30.00948717058781
 31
0.0
  0
LINE
  5
8F7
330
1F
100
AcDbEntity
  8
DETAIL
100
AcDbLine
 10
1961.649635198879
 20
21.30948717058799
 30
0.0
 11
1973.139635198879
 21
30.94948717058741
 31
0.0
  0
LINE
  5
8F8
330
1F
100
AcDbEntity
  8
DETAIL
100
AcDbLine
 10
1961.409635198877
 20
14.57948717058843
 30
0.0
 11
1961.649635198879
 21
21.30948717058799
 31
0.0
  0
LINE
  5
8F9
330
1F
100
AcDbEntity
  8
DETAIL
100
AcDbLine
 10
1989.439635198878
 20
18.51948717058803
 30
0.0
 11
1971.049635198878
 21
3.089487170587744
 31
0.0
  0
LINE
  5
8FA
330
1F
100
AcDbEntity
  8
DETAIL
100
AcDbLine
 10
1979.799635198879
 20
30.00948717058781
 30
0.0
 11
1989.439635198878
 21
18.51948717058803
 31
0.0
  0
LINE
  5
8FB
330
1F
100
AcDbEntity
  8
DETAIL
100
AcDbLine
 10
1961.409635198877
 20
14.57948717058843
 30
0.0
 11
1979.799635198879
 21
30.00948717058781
 31
0.0
  0
LINE
  5
8FC
330
1F
100
AcDbEntity
  8
DETAIL
100
AcDbLine
 10
1971.049635198878
 20
3.089487170587744
 30
0.0
 11
1961.409635198877
 21
14.57948717058843
 31
0.0
  0
LINE
  5
8FD
330
1F
100
AcDbEntity
  8
DETAIL
100
AcDbLine
 10
2072.636337021447
 20
170.9999999999981
 30
0.0
 11
2072.636337021447
 21
139.9999999999981
 31
0.0
  0
LINE
  5
8FE
330
1F
100
AcDbEntity
  8
DETAIL
100
AcDbLine
 10
2080.636337021447
 20
170.9999999999981
 30
0.0
 11
2072.636337021447
 21
170.9999999999981
 31
0.0
  0
LINE
  5
8FF
330
1F
100
AcDbEntity
  8
DETAIL
100
AcDbLine
 10
2080.636337021446
 20
96.99999999999818
 30
0.0
 11
2080.636337021447
 21
170.9999999999981
 31
0.0
  0
LINE
  5
900
330
1F
100
AcDbEntity
  8
DETAIL
100
AcDbLine
 10
2072.636337021446
 20
96.99999999999818
 30
0.0
 11
2080.636337021446
 21
96.99999999999818
 31
0.0
  0
CIRCLE
  5
901
330
1F
100
AcDbEntity
  8
DETAIL
100
AcDbCircle
 10
2033.781337021447
 20
35.29999999999823
 30
0.0
 40
2.5
  0
CIRCLE
  5
902
330
1F
100
AcDbEntity
  8
DETAIL
100
AcDbCircle
 10
1958.954958824565
 20
-16.14860586986709
 30
0.0
 40
3.0
  0
ARC
  5
903
330
1F
100
AcDbEntity
  8
DETAIL
100
AcDbCircle
 10
1958.954958824565
 20
-16.14860586986709
 30
0.0
 40
7.0
100
AcDbArc
 50
309.989850999982
 51
129.994783999995
  0
CIRCLE
  5
904
330
1F
100
AcDbEntity
  8
DETAIL
100
AcDbCircle
 10
1928.304958824566
 20
-41.8486058698669
 30
0.0
 40
3.0
  0
ARC
  5
905
330
1F
100
AcDbEntity
  8
DETAIL
100
AcDbCircle
 10
1928.304958824566
 20
-41.8486058698669
 30
0.0
 40
7.0
100
AcDbArc
 50
129.989850999982
 51
309.994783999995
  0
CIRCLE
  5
906
330
1F
100
AcDbEntity
  8
DETAIL
100
AcDbCircle
 10
1943.634958824565
 20
-28.99860586986745
 30
0.0
 40
6.0
  0
LINE
  5
907
330
1F
100
AcDbEntity
  8
DETAIL
100
AcDbLine
 10
1937.844958824566
 20
-22.108605869867
 30
0.0
 11
1946.714958824565
 21
-20.54860586986751
 31
0.0
  0
LINE
  5
908
330
1F
100
AcDbEntity
  8
DETAIL
100
AcDbLine
 10
1934.764958824567
 20
-30.56860586986704
 30
0.0
 11
1937.844958824566
 21
-22.108605869867
 31
0.0
  0
LINE
  5
909
330
1F
100
AcDbEntity
  8
DETAIL
100
AcDbLine
 10
1940.544958824565
 20
-37.45860586986736
 30
0.0
 11
1934.764958824567
 21
-30.56860586986704
 31
0.0
  0
LINE
  5
90A
330
1F
100
AcDbEntity
  8
DETAIL
100
AcDbLine
 10
1949.414958824566
 20
-35.88860586986766
 30
0.0
 11
1940.544958824565
 21
-37.45860586986736
 31
0.0
  0
LINE
  5
90B
330
1F
100
AcDbEntity
  8
DETAIL
100
AcDbLine
 10
1952.494958824566
 20
-27.43860586986693
 30
0.0
 11
1949.414958824566
 21
-35.88860586986766
 31
0.0
  0
LINE
  5
90C
330
1F
100
AcDbEntity
  8
DETAIL
100
AcDbLine
 10
1946.714958824565
 20
-20.54860586986751
 30
0.0
 11
1952.494958824566
 21
-27.43860586986693
 31
0.0
  0
LINE
  5
90D
330
1F
100
AcDbEntity
  8
DETAIL
100
AcDbLine
 10
1963.453522177037
 20
-21.51171390195077
 30
0.0
 11
1950.773522177039
 21
-32.15171390195109
 31
0.0
  0
LINE
  5
90E
330
1F
100
AcDbEntity
  8
DETAIL
100
AcDbLine
 10
1932.814958824566
 20
-47.21860586986759
 30
0.0
 11
1945.484958824566
 21
-36.58860586986657
 31
0.0
  0
LINE
  5
90F
330
1F
100
AcDbEntity
  8
DETAIL
100
AcDbLine
 10
1941.094958824566
 20
-17.42860586986671
 30
0.0
 11
1944.094958824567
 21
-20.99860586986733
 31
0.0
  0
LINE
  5
910
330
1F
100
AcDbEntity
  8
DETAIL
100
AcDbLine
 10
1932.674958824567
 20
-24.49860586986733
 30
0.0
 11
1935.674958824566
 21
-28.07860586986726
 31
0.0
  0
LINE
  5
911
330
1F
100
AcDbEntity
  8
DETAIL
100
AcDbLine
 10
1943.344958824567
 20
-20.108605869867
 30
0.0
 11
1954.454958824565
 21
-10.78860586986729
 31
0.0
  0
LINE
  5
912
330
1F
100
AcDbEntity
  8
DETAIL
100
AcDbLine
 10
1934.914958824567
 20
-27.17860586986671
 30
0.0
 11
1923.814958824566
 21
-36.48860586986711
 31
0.0
  0
LINE
  5
913
330
1F
100
AcDbEntity
  8
DETAIL
100
AcDbLine
 10
1931.524958824567
 20
-7.178605869866714
 30
0.0
 11
1940.524958824567
 21
-17.89860586986697
 31
0.0
  0
LINE
  5
914
330
1F
100
AcDbEntity
  8
DETAIL
100
AcDbLine
 10
1924.244958824567
 20
-13.28860586986729
 30
0.0
 11
1933.244958824566
 21
-24.01860586986686
 31
0.0
  0
CIRCLE
  5
915
330
1F
100
AcDbEntity
  8
DETAIL
100
AcDbCircle
 10
1987.639635198877
 20
1.999487170587477
 30
0.0
 40
7.5
  0
CIRCLE
  5
916
330
1F
100
AcDbEntity
  8
DETAIL
100
AcDbCircle
 10
1987.639635198877
 20
1.999487170587477
 30
0.0
 40
9.0
  0
LINE
  5
917
330
1F
100
AcDbEntity
  8
DETAIL
100
AcDbLine
 10
1980.889635198878
 20
10.03948717058756
 30
0.0
 11
1991.229635198879
 21
11.85948717058727
 31
0.0
  0
LINE
  5
918
330
1F
100
AcDbEntity
  8
DETAIL
100
AcDbLine
 10
1977.299635198878
 20
0.1794871705878904
 30
0.0
 11
1980.889635198878
 21
10.03948717058756
 31
0.0
  0
LINE
  5
919
330
1F
100
AcDbEntity
  8
DETAIL
100
AcDbLine
 10
1984.049635198878
 20
-7.860512829412073
 30
0.0
 11
1977.299635198878
 21
0.1794871705878904
 31
0.0
  0
LINE
  5
91A
330
1F
100
AcDbEntity
  8
DETAIL
100
AcDbLine
 10
1994.389635198878
 20
-6.040512829412364
 30
0.0
 11
1984.049635198878
 21
-7.860512829412073
 31
0.0
  0
LINE
  5
91B
330
1F
100
AcDbEntity
  8
DETAIL
100
AcDbLine
 10
1997.979635198878
 20
3.819487170588217
 30
0.0
 11
1994.389635198878
 21
-6.040512829412364
 31
0.0
  0
LINE
  5
91C
330
1F
100
AcDbEntity
  8
DETAIL
100
AcDbLine
 10
1991.229635198879
 20
11.85948717058727
 30
0.0
 11
1997.979635198878
 21
3.819487170588217
 31
0.0
  0
LINE
  5
91D
330
1F
100
AcDbEntity
  8
DETAIL
100
AcDbLine
 10
1966.009635198878
 20
18.4394871705872
 30
0.0
 11
1975.649635198878
 21
6.949487170587417
 31
0.0
  0
LINE
  5
91E
330
1F
100
AcDbEntity
  8
DETAIL
100
AcDbLine
 10
1975.199635198878
 20
26.14948717058814
 30
0.0
 11
1984.849635198878
 21
14.66948717058767
 31
0.0
  0
LINE
  5
91F
330
1F
100
AcDbEntity
  8
DETAIL
100
AcDbLine
 10
1987.739635198879
 20
11.21948717058785
 30
0.0
 11
1998.459635198878
 21
20.21948717058785
 31
0.0
  0
CIRCLE
  5
920
330
1F
100
AcDbEntity
  8
DETAIL
100
AcDbCircle
 10
1972.319635198878
 20
-10.86051282941128
 30
0.0
 40
3.0
  0
ARC
  5
921
330
1F
100
AcDbEntity
  8
DETAIL
100
AcDbCircle
 10
1972.319635198878
 20
-10.86051282941128
 30
0.0
 40
7.0
100
AcDbArc
 50
129.9641710000001
 51
310.0204679999974
  0
LINE
  5
922
330
1F
100
AcDbEntity
  8
DETAIL
100
AcDbLine
 10
1978.539635198877
 20
3.509487170587817
 30
0.0
 11
1967.819635198878
 21
-5.490512829412182
 31
0.0
  0
LINE
  5
923
330
1F
100
AcDbEntity
  8
DETAIL
100
AcDbLine
 10
1976.819635198878
 20
-16.22051282941265
 30
0.0
 11
1987.539635198877
 21
-7.220512829412655
 31
0.0
  0
LINE
  5
924
330
1F
100
AcDbEntity
  8
DETAIL
100
AcDbLine
 10
1974.879635198877
 20
6.309487170587999
 30
0.0
 11
1978.129635198877
 21
2.439487170587199
 31
0.0
  0
LINE
  5
925
330
1F
100
AcDbEntity
  8
DETAIL
100
AcDbLine
 10
1985.609635198878
 20
15.309487170588
 30
0.0
 11
1988.849635198878
 21
11.43948717058719
 31
0.0
  0
CIRCLE
  5
926
330
1F
100
AcDbEntity
  8
DETAIL
100
AcDbCircle
 10
2002.959635198877
 20
14.85948717058805
 30
0.0
 40
3.0
  0
ARC
  5
927
330
1F
100
AcDbEntity
  8
DETAIL
100
AcDbCircle
 10
2002.959635198877
 20
14.85948717058805
 30
0.0
 40
7.0
100
AcDbArc
 50
309.9641710000001
 51
130.0204679999974
  0
LINE
  5
928
330
1F
100
AcDbEntity
  8
DETAIL
100
AcDbLine
 10
2007.459635198878
 20
9.48948717058829
 30
0.0
 11
1996.739635198878
 21
0.4894871705882906
 31
0.0
  0
ARC
  5
929
330
1F
100
AcDbEntity
  8
DETAIL
100
AcDbCircle
 10
1536.636337021446
 20
138.9999999999994
 30
0.0
 40
6.0
100
AcDbArc
 50
90.0
 51
180.0
  0
ARC
  5
92A
330
1F
100
AcDbEntity
  8
DETAIL
100
AcDbCircle
 10
375.0000000000004
 20
130.0000000000018
 30
0.0
 40
15.0
100
AcDbArc
 50
0.0
 51
90.0
  0
ARC
  5
92B
330
1F
100
AcDbEntity
  8
DETAIL
100
AcDbCircle
 10
1536.636337021446
 20
-139.0000000000005
 30
0.0
 40
6.0
100
AcDbArc
 50
180.0
 51
270.0
  0
LINE
  5
92C
330
1F
100
AcDbEntity
  8
DETAIL
100
AcDbLine
 10
459.0
 20
46.93999999999959
 30
0.0
 11
459.0
 21
-46.93999999999959
 31
0.0
  0
LINE
  5
92D
330
1F
100
AcDbEntity
  8
DETAIL
100
AcDbLine
 10
425.4999999999999
 20
-19.63409971251439
 30
0.0
 11
425.4999999999999
 21
-10.15409971251438
 31
0.0
  0
LINE
  5
92E
330
1F
100
AcDbEntity
  8
DETAIL
100
AcDbLine
 10
422.0000013538156
 20
-4.350000000001273
 30
0.0
 11
439.0000013538151
 21
-4.350000000001273
 31
0.0
  0
LINE
  5
92F
330
1F
100
AcDbEntity
  8
DETAIL
100
AcDbLine
 10
422.0
 20
1.99590028748571
 30
0.0
 11
422.0
 21
-7.764099712514507
 31
0.0
  0
LINE
  5
930
330
1F
100
AcDbEntity
  8
DETAIL
100
AcDbLine
 10
398.0
 20
-18.37909971251383
 30
0.0
 11
403.4899999999997
 21
-18.37909971251383
 31
0.0
  0
LINE
  5
931
330
1F
100
AcDbEntity
  8
DETAIL
100
AcDbLine
 10
421.0100000000002
 20
-25.79782734740001
 30
0.0
 11
403.4899999999997
 21
-25.79782734740001
 31
0.0
  0
LINE
  5
932
330
1F
100
AcDbEntity
  8
DETAIL
100
AcDbLine
 10
403.4899999999997
 20
-51.49909971251372
 30
0.0
 11
403.4899999999997
 21
21.00090028748581
 31
0.0
  0
LINE
  5
933
330
1F
100
AcDbEntity
  8
DETAIL
100
AcDbLine
 10
398.0
 20
21.00090028748581
 30
0.0
 11
403.4899999999997
 21
21.00090028748581
 31
0.0
  0
LINE
  5
934
330
1F
100
AcDbEntity
  8
DETAIL
100
AcDbLine
 10
403.4899999999997
 20
-51.49909971251372
 30
0.0
 11
398.0
 21
-51.49909971251372
 31
0.0
  0
LINE
  5
935
330
1F
100
AcDbEntity
  8
DETAIL
100
AcDbLine
 10
403.5
 20
-51.93909971251333
 30
0.0
 11
403.5
 21
-43.51909971251416
 31
0.0
  0
ARC
  5
936
330
1F
100
AcDbEntity
  8
DETAIL
100
AcDbCircle
 10
412.0000000000004
 20
-52.50686906104056
 30
0.0
 40
5.70623
100
AcDbArc
 50
45.51991099999963
 51
134.4800890000003
  0
LINE
  5
937
330
1F
100
AcDbEntity
  8
DETAIL
100
AcDbLine
 10
420.5
 20
-40.01686906104168
 30
0.0
 11
420.5
 21
-48.43686906104085
 31
0.0
  0
LINE
  5
938
330
1F
100
AcDbEntity
  8
DETAIL
100
AcDbLine
 10
404.4899999999997
 20
-10.15409971251438
 30
0.0
 11
404.4899999999997
 21
-19.63409971251439
 31
0.0
  0
ARC
  5
939
330
1F
100
AcDbEntity
  8
DETAIL
100
AcDbCircle
 10
415.0000000000004
 20
-16.3940997125137
 30
0.0
 40
5.95591
100
AcDbArc
 50
212.9214799999999
 51
327.0785200000001
  0
ARC
  5
93A
330
1F
100
AcDbEntity
  8
DETAIL
100
AcDbCircle
 10
415.0000000000004
 20
-21.87409971251372
 30
0.0
 40
5.47988
100
AcDbArc
 50
24.14393500000786
 51
155.8560649999921
  0
LINE
  5
93B
330
1F
100
AcDbEntity
  8
DETAIL
100
AcDbLine
 10
409.75
 20
-6.594099712514434
 30
0.0
 11
409.75
 21
-15.57409971251445
 31
0.0
  0
LINE
  5
93C
330
1F
100
AcDbEntity
  8
DETAIL
100
AcDbLine
 10
420.2499999999999
 20
-6.594099712514434
 30
0.0
 11
420.2499999999999
 21
-15.57409971251445
 31
0.0
  0
LINE
  5
93D
330
1F
100
AcDbEntity
  8
DETAIL
100
AcDbLine
 10
416.2499999999999
 20
-37.6568690610411
 30
0.0
 11
416.2499999999999
 21
-45.78686906104121
 31
0.0
  0
LINE
  5
93E
330
1F
100
AcDbEntity
  8
DETAIL
100
AcDbLine
 10
407.7399999999998
 20
-37.6568690610411
 30
0.0
 11
407.7399999999998
 21
-45.78686906104121
 31
0.0
  0
LINE
  5
93F
330
1F
100
AcDbEntity
  8
DETAIL
100
AcDbLine
 10
403.5
 20
-42.92909971251401
 30
0.0
 11
403.5
 21
-43.51909971251416
 31
0.0
  0
LINE
  5
940
330
1F
100
AcDbEntity
  8
DETAIL
100
AcDbLine
 10
403.4899999999997
 20
-4.350000000000818
 30
0.0
 11
408.0
 21
-4.350000000001273
 31
0.0
  0
LINE
  5
941
330
1F
100
AcDbEntity
  8
DETAIL
100
AcDbLine
 10
408.0
 20
2.005900287485474
 30
0.0
 11
408.0
 21
-7.754099712514289
 31
0.0
  0
LINE
  5
942
330
1F
100
AcDbEntity
  8
DETAIL
100
AcDbLine
 10
416.2499999999999
 20
-45.78686906104121
 30
0.0
 11
416.2499999999999
 21
-37.6568690610411
 31
0.0
  0
LINE
  5
943
330
1F
100
AcDbEntity
  8
DETAIL
100
AcDbLine
 10
406.5
 20
-32.1978273474001
 30
0.0
 11
403.4899999999997
 21
-32.19782734740102
 31
0.0
  0
LINE
  5
944
330
1F
100
AcDbEntity
  8
DETAIL
100
AcDbLine
 10
421.0018167456555
 20
-32.19782734740102
 30
0.0
 11
417.4899999999998
 21
-32.19782734740102
 31
0.0
  0
LINE
  5
945
330
1F
100
AcDbEntity
  8
DETAIL
100
AcDbLine
 10
406.5
 20
-38.17686906104154
 30
0.0
 11
406.5
 21
-28.99686906104125
 31
0.0
  0
LINE
  5
946
330
1F
100
AcDbEntity
  8
DETAIL
100
AcDbLine
 10
417.4899999999998
 20
-38.34686906104161
 30
0.0
 11
417.4899999999998
 21
-29.00686906104147
 31
0.0
  0
ARC
  5
947
330
1F
100
AcDbEntity
  8
DETAIL
100
AcDbCircle
 10
412.0000000000004
 20
-34.75686906104056
 30
0.0
 40
7.963919999999999
100
AcDbArc
 50
46.31719799999716
 51
133.6585400000067
  0
LINE
  5
948
330
1F
100
AcDbEntity
  8
DETAIL
100
AcDbLine
 10
403.4900013538154
 20
8.349999999998999
 30
0.0
 11
439.0000013538156
 21
8.349999999998999
 31
0.0
  0
LINE
  5
949
330
1F
100
AcDbEntity
  8
DETAIL
100
AcDbLine
 10
435.0100000000002
 20
-24.25686906104147
 30
0.0
 11
421.0075039466273
 21
-24.24687441717788
 31
0.0
  0
LINE
  5
94A
330
1F
100
AcDbEntity
  8
DETAIL
100
AcDbLine
 10
435.0100000000002
 20
-33.75686906104147
 30
0.0
 11
421.0024960505534
 21
-33.75686906104147
 31
0.0
  0
ARC
  5
94B
330
1F
100
AcDbEntity
  8
DETAIL
100
AcDbCircle
 10
415.0000000000004
 20
-5.834099712513761
 30
0.0
 40
10.5135
100
AcDbArc
 50
48.22055199999334
 51
131.7617180000126
  0
ARC
  5
94C
330
1F
100
AcDbEntity
  8
DETAIL
100
AcDbCircle
 10
375.0000000000004
 20
-129.9999999999995
 30
0.0
 40
15.0
100
AcDbArc
 50
270.0
 51
0.0
  0
LINE
  5
94D
330
1F
100
AcDbEntity
  8
DETAIL
100
AcDbLine
 10
447.9800000000004
 20
-58.89999999999964
 30
0.0
 11
390.0
 21
-63.65626250500162
 31
0.0
  0
ARC
  5
94E
330
1F
100
AcDbEntity
  8
DETAIL
100
AcDbCircle
 10
447.0000000000005
 20
-46.93999999999959
 30
0.0
 40
12.0
100
AcDbArc
 50
274.6919949999898
 51
0.0
  0
ARC
  5
94F
330
1F
100
AcDbEntity
  8
DETAIL
100
AcDbCircle
 10
412.0000000000004
 20
-46.02686906104099
 30
0.0
 40
4.6673
100
AcDbArc
 50
211.0459890000011
 51
328.9540109999989
  0
LINE
  5
950
330
1F
100
AcDbEntity
  8
DETAIL
100
AcDbLine
 10
390.0
 20
130.0000000000009
 30
0.0
 11
390.0
 21
-129.999999999999
 31
0.0
  0
LINE
  5
951
330
1F
100
AcDbEntity
  8
DETAIL
100
AcDbLine
 10
390.0
 20
63.65626250500206
 30
0.0
 11
447.9800000000004
 21
58.89999999999964
 31
0.0
  0
ARC
  5
952
330
1F
100
AcDbEntity
  8
DETAIL
100
AcDbCircle
 10
447.0000000000005
 20
46.94000000000051
 30
0.0
 40
12.0
100
AcDbArc
 50
0.0
 51
85.3080050000101
  0
LINE
  5
953
330
1F
100
AcDbEntity
  8
DETAIL
100
AcDbLine
 10
1556.636337021445
 20
-145.0000000000011
 30
0.0
 11
1556.636337021445
 21
144.9999999999986
 31
0.0
  0
LINE
  5
954
330
1F
100
AcDbEntity
  8
DETAIL
100
AcDbLine
 10
1530.636337021445
 20
-139.0000000000011
 30
0.0
 11
1530.636337021445
 21
139.0
 31
0.0
  0
LINE
  5
955
330
1F
100
AcDbEntity
  8
DETAIL
100
AcDbLine
 10
439.0099999999979
 20
-1325.154999999999
 30
0.0
 11
424.9999999999976
 21
-1325.165
 31
0.0
  0
LINE
  5
956
330
1F
100
AcDbEntity
  8
DETAIL
100
AcDbLine
 10
439.0099999999979
 20
-1315.654999999999
 30
0.0
 11
424.9999999999976
 21
-1315.654999999999
 31
0.0
  0
LINE
  5
957
330
1F
100
AcDbEntity
  8
DETAIL
100
AcDbLine
 10
422.4999999999977
 20
-1299.925845117111
 30
0.0
 11
422.4999999999977
 21
-1309.56584511711
 31
0.0
  0
LINE
  5
958
330
1F
100
AcDbEntity
  8
DETAIL
100
AcDbLine
 10
397.9999999999977
 20
-1302.54
 30
0.0
 11
403.4899999999975
 21
-1302.54
 31
0.0
  0
LINE
  5
959
330
1F
100
AcDbEntity
  8
DETAIL
100
AcDbLine
 10
420.9999999999977
 20
-1273.209999999999
 30
0.0
 11
403.4899999999975
 21
-1273.209999999999
 31
0.0
  0
LINE
  5
95A
330
1F
100
AcDbEntity
  8
DETAIL
100
AcDbLine
 10
421.0099999999979
 20
-1279.609999999999
 30
0.0
 11
403.4899999999975
 21
-1279.609999999999
 31
0.0
  0
LINE
  5
95B
330
1F
100
AcDbEntity
  8
DETAIL
  6
HIDDEN
100
AcDbLine
 10
401.4899999999975
 20
-1309.56584511711
 30
0.0
 11
403.7599999999979
 21
-1314.055845117111
 31
0.0
  0
ARC
  5
95C
330
1F
100
AcDbEntity
  8
DETAIL
100
AcDbCircle
 10
414.8218781927466
 20
-1274.191406994845
 30
0.0
 40
5.58474
100
AcDbArc
 50
10.12114900001783
 51
169.8788509999821
  0
LINE
  5
95D
330
1F
100
AcDbEntity
  8
DETAIL
100
AcDbLine
 10
406.3218781927457
 20
-1268.601406994845
 30
0.0
 11
408.100633387718
 21
-1273.209999999999
 31
0.0
  0
LINE
  5
95E
330
1F
100
AcDbEntity
  8
DETAIL
100
AcDbLine
 10
423.3218781927457
 20
-1268.601406994845
 30
0.0
 11
422.9065974265799
 21
-1269.749999999999
 31
0.0
  0
LINE
  5
95F
330
1F
100
AcDbEntity
  8
DETAIL
100
AcDbLine
 10
403.4899999999975
 20
-1314.054999999999
 30
0.0
 11
424.9999999999976
 21
-1314.054999999999
 31
0.0
  0
LINE
  5
960
330
1F
100
AcDbEntity
  8
DETAIL
100
AcDbLine
 10
403.4899999999975
 20
-1326.755
 30
0.0
 11
425.0099999999979
 21
-1326.755
 31
0.0
  0
LINE
  5
961
330
1F
100
AcDbEntity
  8
DETAIL
100
AcDbLine
 10
434.9999999999977
 20
-1281.159999999999
 30
0.0
 11
421.0074999999979
 21
-1281.159999999999
 31
0.0
  0
LINE
  5
962
330
1F
100
AcDbEntity
  8
DETAIL
100
AcDbLine
 10
434.9999999999977
 20
-1271.66
 30
0.0
 11
421.0024999999977
 21
-1271.659999999999
 31
0.0
  0
ARC
  5
963
330
1F
100
AcDbEntity
  8
DETAIL
100
AcDbCircle
 10
411.9999999999977
 20
-1316.095845117111
 30
0.0
 40
7.292749999999999
100
AcDbArc
 50
16.25099900001343
 51
163.7490009999865
  0
ARC
  5
964
330
1F
100
AcDbEntity
  8
DETAIL
100
AcDbCircle
 10
377.999999999999
 20
-875.4100000000002
 30
0.0
 40
12.0
100
AcDbArc
 50
0.0
 51
90.0
  0
ARC
  5
965
330
1F
100
AcDbEntity
  8
DETAIL
100
AcDbCircle
 10
300.0000000000004
 20
158.5000000000009
 30
0.0
 40
5.5
100
AcDbArc
 50
270.0
 51
0.0
  0
ARC
  5
966
330
1F
100
AcDbEntity
  8
DETAIL
100
AcDbCircle
 10
300.0000000000004
 20
158.5000000000009
 30
0.0
 40
5.5
100
AcDbArc
 50
180.0
 51
270.0
  0
LINE
  5
967
330
1F
100
AcDbEntity
  8
DETAIL
100
AcDbLine
 10
305.5
 20
170.999999999999
 30
0.0
 11
305.5
 21
158.4999999999999
 31
0.0
  0
LINE
  5
968
330
1F
100
AcDbEntity
  8
DETAIL
100
AcDbLine
 10
294.4999999999999
 20
158.4999999999999
 30
0.0
 11
294.4999999999999
 21
170.999999999999
 31
0.0
  0
LINE
  5
969
330
1F
100
AcDbEntity
  8
DETAIL
100
AcDbLine
 10
327.0
 20
145.0000000000004
 30
0.0
 11
327.0
 21
156.0
 31
0.0
  0
ARC
  5
96A
330
1F
100
AcDbEntity
  8
DETAIL
100
AcDbCircle
 10
312.0000000000004
 20
156.0000000000009
 30
0.0
 40
15.0
100
AcDbArc
 50
0.0
 51
90.0
  0
LINE
  5
96B
330
1F
100
AcDbEntity
  8
DETAIL
100
AcDbLine
 10
311.0
 20
170.999999999999
 30
0.0
 11
305.5
 21
170.999999999999
 31
0.0
  0
LINE
  5
96C
330
1F
100
AcDbEntity
  8
DETAIL
100
AcDbLine
 10
294.4999999999999
 20
170.999999999999
 30
0.0
 11
289.0
 21
170.999999999999
 31
0.0
  0
ARC
  5
96D
330
1F
100
AcDbEntity
  8
DETAIL
100
AcDbCircle
 10
288.0000000000004
 20
156.0
 30
0.0
 40
15.0
100
AcDbArc
 50
90.0
 51
180.0
  0
LINE
  5
96E
330
1F
100
AcDbEntity
  8
DETAIL
100
AcDbLine
 10
272.9999999999995
 20
155.999999999999
 30
0.0
 11
272.9999999999995
 21
145.0000000000004
 31
0.0
  0
ARC
  5
96F
330
1F
100
AcDbEntity
  8
DETAIL
100
AcDbCircle
 10
-299.9999999999993
 20
158.5000000000009
 30
0.0
 40
5.5
100
AcDbArc
 50
180.0
 51
270.0
  0
ARC
  5
970
330
1F
100
AcDbEntity
  8
DETAIL
100
AcDbCircle
 10
-299.9999999999993
 20
158.5000000000009
 30
0.0
 40
5.5
100
AcDbArc
 50
270.0
 51
0.0
  0
LINE
  5
971
330
1F
100
AcDbEntity
  8
DETAIL
100
AcDbLine
 10
-305.5000000000004
 20
170.9999999999986
 30
0.0
 11
-305.5000000000004
 21
158.4999999999999
 31
0.0
  0
LINE
  5
972
330
1F
100
AcDbEntity
  8
DETAIL
100
AcDbLine
 10
-294.5000000000004
 20
158.4999999999999
 30
0.0
 11
-294.5000000000004
 21
170.9999999999986
 31
0.0
  0
LINE
  5
973
330
1F
100
AcDbEntity
  8
DETAIL
100
AcDbLine
 10
-294.5000000000004
 20
170.9999999999986
 30
0.0
 11
-288.0000000000004
 21
170.9999999999986
 31
0.0
  0
ARC
  5
974
330
1F
100
AcDbEntity
  8
DETAIL
100
AcDbCircle
 10
-287.9999999999993
 20
155.9999999999995
 30
0.0
 40
15.0
100
AcDbArc
 50
0.0
 51
90.0
  0
LINE
  5
975
330
1F
100
AcDbEntity
  8
DETAIL
100
AcDbLine
 10
-273.0000000000004
 20
155.9999999999986
 30
0.0
 11
-273.0000000000004
 21
145.0000000000004
 31
0.0
  0
LINE
  5
976
330
1F
100
AcDbEntity
  8
DETAIL
100
AcDbLine
 10
-312.0000000000004
 20
170.9999999999986
 30
0.0
 11
-305.5000000000004
 21
170.9999999999986
 31
0.0
  0
LINE
  5
977
330
1F
100
AcDbEntity
  8
DETAIL
100
AcDbLine
 10
-327.0000000000004
 20
145.0000000000004
 30
0.0
 11
-327.0000000000004
 21
155.9999999999981
 31
0.0
  0
ARC
  5
978
330
1F
100
AcDbEntity
  8
DETAIL
100
AcDbCircle
 10
-374.9999999999993
 20
130.0000000000018
 30
0.0
 40
15.0
100
AcDbArc
 50
90.0
 51
180.0
  0
ARC
  5
979
330
1F
100
AcDbEntity
  8
DETAIL
100
AcDbCircle
 10
-311.9999999999993
 20
155.999999999999
 30
0.0
 40
15.0
100
AcDbArc
 50
90.0
 51
180.0
  0
LINE
  5
97A
330
1F
100
AcDbEntity
  8
DETAIL
100
AcDbLine
 10
305.4999999999995
 20
-161.499999999999
 30
0.0
 11
305.4999999999995
 21
-158.499999999999
 31
0.0
  0
ARC
  5
97B
330
1F
100
AcDbEntity
  8
DETAIL
100
AcDbCircle
 10
300.0000000000004
 20
-158.4999999999995
 30
0.0
 40
5.5
100
AcDbArc
 50
0.0
 51
90.0
  0
ARC
  5
97C
330
1F
100
AcDbEntity
  8
DETAIL
100
AcDbCircle
 10
300.0000000000004
 20
-158.4999999999995
 30
0.0
 40
5.5
100
AcDbArc
 50
90.0
 51
180.0
  0
LINE
  5
97D
330
1F
100
AcDbEntity
  8
DETAIL
100
AcDbLine
 10
294.4999999999995
 20
-158.499999999999
 30
0.0
 11
294.4999999999995
 21
-161.499999999999
 31
0.0
  0
ARC
  5
97E
330
1F
100
AcDbEntity
  8
DETAIL
100
AcDbCircle
 10
300.0000000000004
 20
-161.4999999999995
 30
0.0
 40
5.5
100
AcDbArc
 50
180.0
 51
270.0
  0
ARC
  5
97F
330
1F
100
AcDbEntity
  8
DETAIL
100
AcDbCircle
 10
300.0000000000004
 20
-161.4999999999995
 30
0.0
 40
5.5
100
AcDbArc
 50
270.0
 51
0.0
  0
LINE
  5
980
330
1F
100
AcDbEntity
  8
DETAIL
100
AcDbLine
 10
327.0
 20
-144.999999999999
 30
0.0
 11
327.0
 21
-156.0000000000009
 31
0.0
  0
ARC
  5
981
330
1F
100
AcDbEntity
  8
DETAIL
100
AcDbCircle
 10
312.0000000000004
 20
-156.0000000000009
 30
0.0
 40
15.0
100
AcDbArc
 50
270.0
 51
0.0
  0
LINE
  5
982
330
1F
100
AcDbEntity
  8
DETAIL
100
AcDbLine
 10
312.0
 20
-171.0000000000009
 30
0.0
 11
288.0
 21
-171.0000000000009
 31
0.0
  0
ARC
  5
983
330
1F
100
AcDbEntity
  8
DETAIL
100
AcDbCircle
 10
288.0000000000004
 20
-156.0000000000009
 30
0.0
 40
15.0
100
AcDbArc
 50
180.0
 51
270.0
  0
LINE
  5
984
330
1F
100
AcDbEntity
  8
DETAIL
100
AcDbLine
 10
272.9999999999995
 20
-156.0000000000009
 30
0.0
 11
272.9999999999995
 21
-144.999999999999
 31
0.0
  0
LINE
  5
985
330
1F
100
AcDbEntity
  8
DETAIL
100
AcDbLine
 10
-305.5000000000004
 20
-161.499999999999
 30
0.0
 11
-305.5000000000004
 21
-158.499999999999
 31
0.0
  0
ARC
  5
986
330
1F
100
AcDbEntity
  8
DETAIL
100
AcDbCircle
 10
-299.9999999999993
 20
-158.4999999999986
 30
0.0
 40
5.5
100
AcDbArc
 50
90.0
 51
180.0
  0
ARC
  5
987
330
1F
100
AcDbEntity
  8
DETAIL
100
AcDbCircle
 10
-299.9999999999993
 20
-158.4999999999986
 30
0.0
 40
5.5
100
AcDbArc
 50
0.0
 51
90.0
  0
LINE
  5
988
330
1F
100
AcDbEntity
  8
DETAIL
100
AcDbLine
 10
-294.5000000000004
 20
-158.499999999999
 30
0.0
 11
-294.5000000000004
 21
-161.499999999999
 31
0.0
  0
ARC
  5
989
330
1F
100
AcDbEntity
  8
DETAIL
100
AcDbCircle
 10
-299.9999999999993
 20
-161.4999999999986
 30
0.0
 40
5.5
100
AcDbArc
 50
270.0
 51
0.0
  0
ARC
  5
98A
330
1F
100
AcDbEntity
  8
DETAIL
100
AcDbCircle
 10
-299.9999999999993
 20
-161.4999999999986
 30
0.0
 40
5.5
100
AcDbArc
 50
180.0
 51
270.0
  0
ARC
  5
98B
330
1F
100
AcDbEntity
  8
DETAIL
100
AcDbCircle
 10
-374.9999999999993
 20
-129.9999999999986
 30
0.0
 40
15.0
100
AcDbArc
 50
180.0
 51
270.0
  0
LINE
  5
98C
330
1F
100
AcDbEntity
  8
DETAIL
100
AcDbLine
 10
-390.0000000000004
 20
-129.999999999999
 30
0.0
 11
-390.0000000000004
 21
130.0000000000013
 31
0.0
  0
CIRCLE
  5
98D
330
1F
100
AcDbEntity
  8
DETAIL
100
AcDbCircle
 10
-108.0000000000022
 20
-1136.909999999999
 30
0.0
 40
50.0
  0
ARC
  5
98E
330
1F
100
AcDbEntity
  8
DETAIL
100
AcDbCircle
 10
-108.4997407984133
 20
-1136.91
 30
0.0
 40
241.5005181345764
100
AcDbArc
 50
90.1186861280072
 51
269.8813138719927
  0
CIRCLE
  5
98F
330
1F
100
AcDbEntity
  8
DETAIL
100
AcDbCircle
 10
-108.0000000000022
 20
-1136.909999999999
 30
0.0
 40
232.0
  0
ARC
  5
990
330
1F
100
AcDbEntity
  8
DETAIL
100
AcDbCircle
 10
-378.0000000000015
 20
-875.4099999999985
 30
0.0
 40
12.0
100
AcDbArc
 50
90.0
 51
180.0
  0
LINE
  5
991
330
1F
100
AcDbEntity
  8
DETAIL
100
AcDbLine
 10
-390.000000000002
 20
-889.4099999999989
 30
0.0
 11
389.9999999999991
 21
-889.4099999999994
 31
0.0
  0
LINE
  5
992
330
1F
100
AcDbEntity
  8
DETAIL
100
AcDbLine
 10
-378.000000000002
 20
-863.4099999999989
 30
0.0
 11
377.999999999999
 21
-863.4099999999994
 31
0.0
  0
LINE
  5
993
330
1F
100
AcDbEntity
  8
DETAIL
100
AcDbLine
 10
-375.0000000000004
 20
145.0000000000013
 30
0.0
 11
375.0
 21
145.0000000000009
 31
0.0
  0
LINE
  5
994
330
1F
100
AcDbEntity
  8
DETAIL
100
AcDbLine
 10
375.0
 20
-144.999999999999
 30
0.0
 11
-375.0000000000004
 21
-144.999999999999
 31
0.0
  0
LINE
  5
995
330
1F
100
AcDbEntity
  8
DETAIL
100
AcDbLine
 10
-375.0
 20
-1935.636337021447
 30
0.0
 11
375.0000000000004
 21
-1935.636337021447
 31
0.0
  0
LINE
  5
996
330
1F
100
AcDbEntity
  8
DETAIL
100
AcDbLine
 10
132.7000000000007
 20
-2252.636337021447
 30
0.0
 11
-249.9999999999981
 21
-2252.636337021447
 31
0.0
  0
LINE
  5
997
330
1F
100
AcDbEntity
  8
DETAIL
100
AcDbLine
 10
375.0000000000004
 20
-2225.636337021447
 30
0.0
 11
-375.0
 21
-2225.636337021447
 31
0.0
  0
ARC
  5
998
330
1F
100
AcDbEntity
  8
DETAIL
100
AcDbCircle
 10
-287.9999999999988
 20
-1924.636337021448
 30
0.0
 40
15.0
100
AcDbArc
 50
0.0
 51
90.0
  0
CIRCLE
  5
999
330
1F
100
AcDbEntity
  8
DETAIL
100
AcDbCircle
 10
-280.9999999999988
 20
-1927.636337021447
 30
0.0
 40
3.0
  0
ARC
  5
99A
330
1F
100
AcDbEntity
  8
DETAIL
100
AcDbCircle
 10
-283.0
 20
-2241.636337021448
 30
0.0
 40
10.0
100
AcDbArc
 50
270.0
 51
0.0
  0
CIRCLE
  5
99B
330
1F
100
AcDbEntity
  8
DETAIL
100
AcDbCircle
 10
-280.9999999999991
 20
-2233.636337021447
 30
0.0
 40
3.0
  0
LINE
  5
99C
330
1F
100
AcDbEntity
  8
DETAIL
100
AcDbLine
 10
-390.0
 20
-2210.636337021447
 30
0.0
 11
-390.0
 21
-1950.636337021447
 31
0.0
  0
LINE
  5
99D
330
1F
100
AcDbEntity
  8
DETAIL
100
AcDbLine
 10
-349.5
 20
-2225.636337021447
 30
0.0
 11
-349.5
 21
-2251.636337021448
 31
0.0
  0
LINE
  5
99E
330
1F
100
AcDbEntity
  8
DETAIL
100
AcDbLine
 10
-332.6999999999998
 20
-2241.956337021447
 30
0.0
 11
-329.1799999999994
 21
-2225.606337021447
 31
0.0
  0
LINE
  5
99F
330
1F
100
AcDbEntity
  8
DETAIL
100
AcDbLine
 10
-327.0
 20
-2225.636337021447
 30
0.0
 11
-327.0
 21
-2241.636337021449
 31
0.0
  0
ARC
  5
9A0
330
1F
100
AcDbEntity
  8
DETAIL
100
AcDbCircle
 10
-299.9999999999991
 20
-2239.136337021446
 30
0.0
 40
5.5
100
AcDbArc
 50
0.0
 51
90.0
  0
ARC
  5
9A1
330
1F
100
AcDbEntity
  8
DETAIL
100
AcDbCircle
 10
-299.9999999999991
 20
-2239.136337021446
 30
0.0
 40
5.5
100
AcDbArc
 50
90.0
 51
180.0
  0
CIRCLE
  5
9A2
330
1F
100
AcDbEntity
  8
DETAIL
100
AcDbCircle
 10
-318.9999999999991
 20
-2233.636337021447
 30
0.0
 40
3.0
  0
ARC
  5
9A3
330
1F
100
AcDbEntity
  8
DETAIL
100
AcDbCircle
 10
-317.0
 20
-2241.636337021449
 30
0.0
 40
10.0
100
AcDbArc
 50
180.0
 51
270.0
  0
LINE
  5
9A4
330
1F
100
AcDbEntity
  8
DETAIL
100
AcDbLine
 10
-349.5
 20
-2251.636337021448
 30
0.0
 11
-334.6099999999996
 21
-2251.636337021448
 31
0.0
  0
LINE
  5
9A5
330
1F
100
AcDbEntity
  8
DETAIL
100
AcDbLine
 10
-334.6099999999996
 20
-2251.636337021448
 30
0.0
 11
-332.2999999999992
 21
-2247.076337021447
 31
0.0
  0
LINE
  5
9A6
330
1F
100
AcDbEntity
  8
DETAIL
100
AcDbLine
 10
-332.2999999999992
 20
-2247.076337021447
 30
0.0
 11
-332.6999999999998
 21
-2241.956337021447
 31
0.0
  0
ARC
  5
9A7
330
1F
100
AcDbEntity
  8
DETAIL
100
AcDbCircle
 10
-299.9999999999991
 20
-2242.136337021447
 30
0.0
 40
5.5
100
AcDbArc
 50
180.0
 51
270.0
  0
ARC
  5
9A8
330
1F
100
AcDbEntity
  8
DETAIL
100
AcDbCircle
 10
-299.9999999999991
 20
-2242.136337021447
 30
0.0
 40
5.5
100
AcDbArc
 50
270.0
 51
0.0
  0
LINE
  5
9A9
330
1F
100
AcDbEntity
  8
DETAIL
100
AcDbLine
 10
-294.4999999999999
 20
-2239.136337021447
 30
0.0
 11
-294.4999999999999
 21
-2242.136337021447
 31
0.0
  0
LINE
  5
9AA
330
1F
100
AcDbEntity
  8
DETAIL
100
AcDbLine
 10
-305.5
 20
-2242.136337021447
 30
0.0
 11
-305.5
 21
-2239.136337021447
 31
0.0
  0
LINE
  5
9AB
330
1F
100
AcDbEntity
  8
DETAIL
100
AcDbLine
 10
-317.0
 20
-2251.636337021449
 30
0.0
 11
-283.0
 21
-2251.636337021448
 31
0.0
  0
ARC
  5
9AC
330
1F
100
AcDbEntity
  8
DETAIL
100
AcDbCircle
 10
-374.9999999999991
 20
-2210.636337021447
 30
0.0
 40
15.0
100
AcDbArc
 50
180.0
 51
270.0
  0
LINE
  5
9AD
330
1F
100
AcDbEntity
  8
DETAIL
100
AcDbLine
 10
-294.4999999999999
 20
-1922.136337021448
 30
0.0
 11
-294.4999999999999
 21
-1909.63633702145
 31
0.0
  0
LINE
  5
9AE
330
1F
100
AcDbEntity
  8
DETAIL
100
AcDbLine
 10
-305.5
 20
-1909.63633702145
 30
0.0
 11
-305.5
 21
-1922.136337021448
 31
0.0
  0
ARC
  5
9AF
330
1F
100
AcDbEntity
  8
DETAIL
100
AcDbCircle
 10
-311.9999999999988
 20
-1924.636337021449
 30
0.0
 40
15.0
100
AcDbArc
 50
90.0
 51
180.0
  0
ARC
  5
9B0
330
1F
100
AcDbEntity
  8
DETAIL
100
AcDbCircle
 10
-374.9999999999988
 20
-1950.636337021446
 30
0.0
 40
15.0
100
AcDbArc
 50
90.0
 51
180.0
  0
LINE
  5
9B1
330
1F
100
AcDbEntity
  8
DETAIL
100
AcDbLine
 10
-327.0
 20
-1935.636337021448
 30
0.0
 11
-327.0
 21
-1924.63633702145
 31
0.0
  0
ARC
  5
9B2
330
1F
100
AcDbEntity
  8
DETAIL
100
AcDbCircle
 10
-299.9999999999988
 20
-1922.136337021447
 30
0.0
 40
5.5
100
AcDbArc
 50
270.0
 51
0.0
  0
ARC
  5
9B3
330
1F
100
AcDbEntity
  8
DETAIL
100
AcDbCircle
 10
-299.9999999999988
 20
-1922.136337021447
 30
0.0
 40
5.5
100
AcDbArc
 50
180.0
 51
270.0
  0
CIRCLE
  5
9B4
330
1F
100
AcDbEntity
  8
DETAIL
100
AcDbCircle
 10
-318.9999999999988
 20
-1927.636337021447
 30
0.0
 40
3.0
  0
LINE
  5
9B5
330
1F
100
AcDbEntity
  8
DETAIL
100
AcDbLine
 10
-312.0
 20
-1909.63633702145
 30
0.0
 11
-305.5
 21
-1909.63633702145
 31
0.0
  0
LINE
  5
9B6
330
1F
100
AcDbEntity
  8
DETAIL
100
AcDbLine
 10
-294.4999999999999
 20
-1909.63633702145
 30
0.0
 11
-288.0
 21
-1909.63633702145
 31
0.0
  0
LINE
  5
9B7
330
1F
100
AcDbEntity
  8
DETAIL
100
AcDbLine
 10
-257.1300000000001
 20
-2240.776337021447
 30
0.0
 11
-262.8299999999999
 21
-2225.636337021447
 31
0.0
  0
LINE
  5
9B8
330
1F
100
AcDbEntity
  8
DETAIL
100
AcDbLine
 10
-273.0
 20
-2241.636337021448
 30
0.0
 11
-273.0
 21
-2225.636337021447
 31
0.0
  0
LINE
  5
9B9
330
1F
100
AcDbEntity
  8
DETAIL
100
AcDbLine
 10
-249.9999999999986
 20
-2252.636337021447
 30
0.0
 11
-257.1300000000001
 21
-2248.993837021446
 31
0.0
  0
LINE
  5
9BA
330
1F
100
AcDbEntity
  8
DETAIL
100
AcDbLine
 10
-257.1300000000001
 20
-2248.993837021446
 30
0.0
 11
-257.1299999999996
 21
-2240.776337021447
 31
0.0
  0
LINE
  5
9BB
330
1F
100
AcDbEntity
  8
DETAIL
100
AcDbLine
 10
-273.0
 20
-1924.63633702145
 30
0.0
 11
-273.0
 21
-1935.636337021448
 31
0.0
  0
ARC
  5
9BC
330
1F
100
AcDbEntity
  8
DETAIL
100
AcDbCircle
 10
415.0000000000009
 20
-2102.510436733962
 30
0.0
 40
5.47988
100
AcDbArc
 50
24.14393500000786
 51
155.8560649999921
  0
LINE
  5
9BD
330
1F
100
AcDbEntity
  8
DETAIL
100
AcDbLine
 10
403.4900013538158
 20
-2073.87754749202
 30
0.0
 11
439.000001353816
 21
-2073.87754749202
 31
0.0
  0
LINE
  5
9BE
330
1F
100
AcDbEntity
  8
DETAIL
100
AcDbLine
 10
409.7500000000004
 20
-2087.230436733963
 30
0.0
 11
420.2500000000005
 21
-2087.230436733963
 31
0.0
  0
LINE
  5
9BF
330
1F
100
AcDbEntity
  8
DETAIL
100
AcDbLine
 10
420.2500000000005
 20
-2096.210436733963
 30
0.0
 11
409.7500000000004
 21
-2096.210436733963
 31
0.0
  0
ARC
  5
9C0
330
1F
100
AcDbEntity
  8
DETAIL
100
AcDbCircle
 10
415.0000000000009
 20
-2086.470436733962
 30
0.0
 40
10.5135
100
AcDbArc
 50
48.22055199999334
 51
131.7617180000126
  0
LINE
  5
9C1
330
1F
100
AcDbEntity
  8
DETAIL
100
AcDbLine
 10
390.0000000000004
 20
-2016.980074516446
 30
0.0
 11
447.9799999999991
 21
-2021.736337021449
 31
0.0
  0
LINE
  5
9C2
330
1F
100
AcDbEntity
  8
DETAIL
100
AcDbLine
 10
409.7500000000004
 20
-2103.660436733962
 30
0.0
 11
420.2500000000005
 21
-2103.660436733962
 31
0.0
  0
LINE
  5
9C3
330
1F
100
AcDbEntity
  8
DETAIL
100
AcDbLine
 10
407.7400000000002
 20
-2126.42320608249
 30
0.0
 11
416.2500000000004
 21
-2126.42320608249
 31
0.0
  0
ARC
  5
9C4
330
1F
100
AcDbEntity
  8
DETAIL
100
AcDbCircle
 10
412.0000000000008
 20
-2133.143206082489
 30
0.0
 40
5.70623
100
AcDbArc
 50
45.51991099999963
 51
134.4800890000003
  0
ARC
  5
9C5
330
1F
100
AcDbEntity
  8
DETAIL
100
AcDbCircle
 10
412.0000000000008
 20
-2126.663206082489
 30
0.0
 40
4.6673
100
AcDbArc
 50
211.0459890000011
 51
328.9540109999989
  0
LINE
  5
9C6
330
1F
100
AcDbEntity
  8
DETAIL
100
AcDbLine
 10
407.7400000000002
 20
-2132.173206082489
 30
0.0
 11
416.2500000000004
 21
-2132.173206082489
 31
0.0
  0
LINE
  5
9C7
330
1F
100
AcDbEntity
  8
DETAIL
100
AcDbLine
 10
407.7400000000002
 20
-2118.293206082489
 30
0.0
 11
416.2500000000004
 21
-2118.293206082489
 31
0.0
  0
ARC
  5
9C8
330
1F
100
AcDbEntity
  8
DETAIL
100
AcDbCircle
 10
412.0000000000008
 20
-2115.393206082489
 30
0.0
 40
7.963919999999999
100
AcDbArc
 50
46.31719799999716
 51
133.6585400000067
  0
LINE
  5
9C9
330
1F
100
AcDbEntity
  8
DETAIL
100
AcDbLine
 10
421.0100000000006
 20
-2106.464157926506
 30
0.0
 11
403.4900000000002
 21
-2106.464157926506
 31
0.0
  0
LINE
  5
9CA
330
1F
100
AcDbEntity
  8
DETAIL
100
AcDbLine
 10
447.9799999999991
 20
-2139.536337021448
 30
0.0
 11
390.0000000000004
 21
-2144.292599526449
 31
0.0
  0
ARC
  5
9CB
330
1F
100
AcDbEntity
  8
DETAIL
100
AcDbCircle
 10
415.0000000000009
 20
-2097.030436733962
 30
0.0
 40
5.95591
100
AcDbArc
 50
212.9214799999999
 51
327.0785200000001
  0
LINE
  5
9CC
330
1F
100
AcDbEntity
  8
DETAIL
100
AcDbLine
 10
403.4900000000002
 20
-2132.135436733962
 30
0.0
 11
403.4900000000002
 21
-2059.635436733962
 31
0.0
  0
LINE
  5
9CD
330
1F
100
AcDbEntity
  8
DETAIL
100
AcDbLine
 10
398.0000000000004
 20
-2057.625436733962
 30
0.0
 11
398.0000000000004
 21
-2134.135436733962
 31
0.0
  0
LINE
  5
9CE
330
1F
100
AcDbEntity
  8
DETAIL
100
AcDbLine
 10
390.0000000000004
 20
-1950.636337021447
 30
0.0
 11
390.0000000000004
 21
-2210.636337021447
 31
0.0
  0
LINE
  5
9CF
330
1F
100
AcDbEntity
  8
DETAIL
100
AcDbLine
 10
132.7000000000007
 20
-2225.636337021447
 30
0.0
 11
132.7000000000007
 21
-2252.636337021447
 31
0.0
  0
ARC
  5
9D0
330
1F
100
AcDbEntity
  8
DETAIL
100
AcDbCircle
 10
300.0000000000009
 20
-2239.136337021448
 30
0.0
 40
5.5
100
AcDbArc
 50
90.0
 51
180.0
  0
ARC
  5
9D1
330
1F
100
AcDbEntity
  8
DETAIL
100
AcDbCircle
 10
300.0000000000009
 20
-2239.136337021448
 30
0.0
 40
5.5
100
AcDbArc
 50
0.0
 51
90.0
  0
LINE
  5
9D2
330
1F
100
AcDbEntity
  8
DETAIL
100
AcDbLine
 10
273.0
 20
-2236.636337021449
 30
0.0
 11
273.0
 21
-2225.636337021447
 31
0.0
  0
CIRCLE
  5
9D3
330
1F
100
AcDbEntity
  8
DETAIL
100
AcDbCircle
 10
281.0000000000009
 20
-2233.636337021448
 30
0.0
 40
3.0
  0
LINE
  5
9D4
330
1F
100
AcDbEntity
  8
DETAIL
100
AcDbLine
 10
327.0000000000004
 20
-2225.636337021447
 30
0.0
 11
327.0000000000004
 21
-2236.636337021449
 31
0.0
  0
CIRCLE
  5
9D5
330
1F
100
AcDbEntity
  8
DETAIL
100
AcDbCircle
 10
319.0000000000009
 20
-2233.636337021448
 30
0.0
 40
3.0
  0
ARC
  5
9D6
330
1F
100
AcDbEntity
  8
DETAIL
100
AcDbCircle
 10
312.0000000000008
 20
-2236.636337021449
 30
0.0
 40
15.0
100
AcDbArc
 50
270.0
 51
0.0
  0
ARC
  5
9D7
330
1F
100
AcDbEntity
  8
DETAIL
100
AcDbCircle
 10
288.0000000000009
 20
-2236.636337021449
 30
0.0
 40
15.0
100
AcDbArc
 50
180.0
 51
270.0
  0
LINE
  5
9D8
330
1F
100
AcDbEntity
  8
DETAIL
100
AcDbLine
 10
312.0000000000004
 20
-2251.636337021449
 30
0.0
 11
288.0000000000004
 21
-2251.636337021449
 31
0.0
  0
ARC
  5
9D9
330
1F
100
AcDbEntity
  8
DETAIL
100
AcDbCircle
 10
300.0000000000009
 20
-2242.136337021448
 30
0.0
 40
5.5
100
AcDbArc
 50
270.0
 51
0.0
  0
ARC
  5
9DA
330
1F
100
AcDbEntity
  8
DETAIL
100
AcDbCircle
 10
300.0000000000009
 20
-2242.136337021448
 30
0.0
 40
5.5
100
AcDbArc
 50
180.0
 51
270.0
  0
LINE
  5
9DB
330
1F
100
AcDbEntity
  8
DETAIL
100
AcDbLine
 10
294.4999999999999
 20
-2239.136337021447
 30
0.0
 11
294.4999999999999
 21
-2242.136337021447
 31
0.0
  0
LINE
  5
9DC
330
1F
100
AcDbEntity
  8
DETAIL
100
AcDbLine
 10
305.5
 20
-2242.136337021447
 30
0.0
 11
305.5
 21
-2239.136337021447
 31
0.0
  0
ARC
  5
9DD
330
1F
100
AcDbEntity
  8
DETAIL
100
AcDbCircle
 10
375.0000000000009
 20
-2210.636337021448
 30
0.0
 40
15.0
100
AcDbArc
 50
270.0
 51
0.0
  0
LINE
  5
9DE
330
1F
100
AcDbEntity
  8
DETAIL
100
AcDbLine
 10
409.7500000000004
 20
-2096.210436733963
 30
0.0
 11
404.4900000000002
 21
-2100.270436733962
 31
0.0
  0
LINE
  5
9DF
330
1F
100
AcDbEntity
  8
DETAIL
100
AcDbLine
 10
404.4900000000002
 20
-2090.790436733962
 30
0.0
 11
404.4900000000002
 21
-2100.270436733962
 31
0.0
  0
LINE
  5
9E0
330
1F
100
AcDbEntity
  8
DETAIL
100
AcDbLine
 10
398.0000000000004
 20
-2099.015436733962
 30
0.0
 11
403.4900000000002
 21
-2099.015436733962
 31
0.0
  0
LINE
  5
9E1
330
1F
100
AcDbEntity
  8
DETAIL
100
AcDbLine
 10
404.4900000000002
 20
-2090.711953127405
 30
0.0
 11
409.7500000000004
 21
-2087.230436733963
 31
0.0
  0
LINE
  5
9E2
330
1F
100
AcDbEntity
  8
DETAIL
100
AcDbLine
 10
409.7500000000004
 20
-2087.230436733963
 30
0.0
 11
409.7500000000004
 21
-2096.210436733963
 31
0.0
  0
LINE
  5
9E3
330
1F
100
AcDbEntity
  8
DETAIL
100
AcDbLine
 10
403.4900000000002
 20
-2083.405119741981
 30
0.0
 11
407.9050000000002
 21
-2083.405119741982
 31
0.0
  0
LINE
  5
9E4
330
1F
100
AcDbEntity
  8
DETAIL
100
AcDbLine
 10
408.0000000000004
 20
-2078.630436733963
 30
0.0
 11
408.0000000000004
 21
-2088.390436733962
 31
0.0
  0
LINE
  5
9E5
330
1F
100
AcDbEntity
  8
DETAIL
100
AcDbLine
 10
403.4900000000002
 20
-2132.135436733962
 30
0.0
 11
398.0000000000004
 21
-2132.135436733962
 31
0.0
  0
LINE
  5
9E6
330
1F
100
AcDbEntity
  8
DETAIL
100
AcDbLine
 10
403.5000000000004
 20
-2132.575436733961
 30
0.0
 11
403.5000000000004
 21
-2124.155436733962
 31
0.0
  0
LINE
  5
9E7
330
1F
100
AcDbEntity
  8
DETAIL
100
AcDbLine
 10
403.5000000000004
 20
-2123.565436733962
 30
0.0
 11
403.5000000000004
 21
-2124.155436733962
 31
0.0
  0
LINE
  5
9E8
330
1F
100
AcDbEntity
  8
DETAIL
100
AcDbLine
 10
403.5000000000004
 20
-2129.073206082489
 30
0.0
 11
407.7400000000002
 21
-2132.173206082489
 31
0.0
  0
LINE
  5
9E9
330
1F
100
AcDbEntity
  8
DETAIL
100
AcDbLine
 10
403.5000000000004
 20
-2129.073206082489
 30
0.0
 11
407.7400000000002
 21
-2126.42320608249
 31
0.0
  0
LINE
  5
9EA
330
1F
100
AcDbEntity
  8
DETAIL
100
AcDbLine
 10
403.5000000000004
 20
-2120.06320608249
 30
0.0
 11
407.7400000000002
 21
-2118.293206082489
 31
0.0
  0
LINE
  5
9EB
330
1F
100
AcDbEntity
  8
DETAIL
100
AcDbLine
 10
406.5000000000004
 20
-2118.81320608249
 30
0.0
 11
406.5000000000004
 21
-2109.633206082489
 31
0.0
  0
LINE
  5
9EC
330
1F
100
AcDbEntity
  8
DETAIL
100
AcDbLine
 10
407.7400000000002
 20
-2118.293206082489
 30
0.0
 11
407.7400000000002
 21
-2126.42320608249
 31
0.0
  0
LINE
  5
9ED
330
1F
100
AcDbEntity
  8
DETAIL
100
AcDbLine
 10
406.5000000000004
 20
-2112.814157926505
 30
0.0
 11
403.4900000000002
 21
-2112.814157926506
 31
0.0
  0
LINE
  5
9EE
330
1F
100
AcDbEntity
  8
DETAIL
100
AcDbLine
 10
398.0000000000004
 20
-2134.135436733962
 30
0.0
 11
390.0000000000004
 21
-2137.135436733962
 31
0.0
  0
LINE
  5
9EF
330
1F
100
AcDbEntity
  8
DETAIL
100
AcDbLine
 10
404.4900000000002
 20
-2100.270436733962
 30
0.0
 11
409.7500000000004
 21
-2103.660436733962
 31
0.0
  0
ARC
  5
9F0
330
1F
100
AcDbEntity
  8
DETAIL
100
AcDbCircle
 10
288.0000000000009
 20
-1924.636337021448
 30
0.0
 40
15.0
100
AcDbArc
 50
90.0
 51
180.0
  0
LINE
  5
9F1
330
1F
100
AcDbEntity
  8
DETAIL
100
AcDbLine
 10
294.5000000000004
 20
-1922.136337021448
 30
0.0
 11
294.5000000000004
 21
-1909.636337021449
 31
0.0
  0
LINE
  5
9F2
330
1F
100
AcDbEntity
  8
DETAIL
100
AcDbLine
 10
305.5000000000004
 20
-1909.636337021449
 30
0.0
 11
305.5000000000004
 21
-1922.136337021448
 31
0.0
  0
ARC
  5
9F3
330
1F
100
AcDbEntity
  8
DETAIL
100
AcDbCircle
 10
312.0000000000008
 20
-1924.636337021447
 30
0.0
 40
15.0
100
AcDbArc
 50
0.0
 51
90.0
  0
LINE
  5
9F4
330
1F
100
AcDbEntity
  8
DETAIL
100
AcDbLine
 10
273.0
 20
-1924.636337021449
 30
0.0
 11
273.0
 21
-1935.636337021448
 31
0.0
  0
CIRCLE
  5
9F5
330
1F
100
AcDbEntity
  8
DETAIL
100
AcDbCircle
 10
281.0000000000009
 20
-1927.636337021447
 30
0.0
 40
3.0
  0
ARC
  5
9F6
330
1F
100
AcDbEntity
  8
DETAIL
100
AcDbCircle
 10
300.0000000000009
 20
-1922.136337021447
 30
0.0
 40
5.5
100
AcDbArc
 50
180.0
 51
270.0
  0
ARC
  5
9F7
330
1F
100
AcDbEntity
  8
DETAIL
100
AcDbCircle
 10
300.0000000000009
 20
-1922.136337021447
 30
0.0
 40
5.5
100
AcDbArc
 50
270.0
 51
0.0
  0
LINE
  5
9F8
330
1F
100
AcDbEntity
  8
DETAIL
100
AcDbLine
 10
327.0000000000004
 20
-1935.636337021448
 30
0.0
 11
327.0000000000004
 21
-1924.636337021448
 31
0.0
  0
CIRCLE
  5
9F9
330
1F
100
AcDbEntity
  8
DETAIL
100
AcDbCircle
 10
319.0000000000009
 20
-1927.636337021447
 30
0.0
 40
3.0
  0
LINE
  5
9FA
330
1F
100
AcDbEntity
  8
DETAIL
100
AcDbLine
 10
398.0000000000004
 20
-2059.635436733962
 30
0.0
 11
403.4900000000002
 21
-2059.635436733962
 31
0.0
  0
LINE
  5
9FB
330
1F
100
AcDbEntity
  8
DETAIL
100
AcDbLine
 10
390.0000000000004
 20
-2054.635436733962
 30
0.0
 11
398.0000000000004
 21
-2057.625436733962
 31
0.0
  0
ARC
  5
9FC
330
1F
100
AcDbEntity
  8
DETAIL
100
AcDbCircle
 10
375.0000000000009
 20
-1950.636337021446
 30
0.0
 40
15.0
100
AcDbArc
 50
0.0
 51
90.0
  0
LINE
  5
9FD
330
1F
100
AcDbEntity
  8
DETAIL
100
AcDbLine
 10
294.5000000000004
 20
-1909.636337021449
 30
0.0
 11
289.0000000000004
 21
-1909.636337021449
 31
0.0
  0
LINE
  5
9FE
330
1F
100
AcDbEntity
  8
DETAIL
100
AcDbLine
 10
311.0000000000004
 20
-1909.636337021449
 30
0.0
 11
305.5000000000004
 21
-1909.636337021449
 31
0.0
  0
LINE
  5
9FF
330
1F
100
AcDbEntity
  8
DETAIL
100
AcDbLine
 10
443.0000000000005
 20
-2073.135436733962
 30
0.0
 11
443.0000000000005
 21
-2084.135436733963
 31
0.0
  0
LINE
  5
A00
330
1F
100
AcDbEntity
  8
DETAIL
100
AcDbLine
 10
439.0000000000005
 20
-2088.135436733963
 30
0.0
 11
439.0000000000005
 21
-2069.135436733963
 31
0.0
  0
LINE
  5
A01
330
1F
100
AcDbEntity
  8
DETAIL
100
AcDbLine
 10
425.0100000000006
 20
-2069.135436733962
 30
0.0
 11
425.0000000000004
 21
-2088.135436733963
 31
0.0
  0
LINE
  5
A02
330
1F
100
AcDbEntity
  8
DETAIL
100
AcDbLine
 10
458.9999999999986
 20
-2033.696337021449
 30
0.0
 11
458.9999999999986
 21
-2127.576337021447
 31
0.0
  0
LINE
  5
A03
330
1F
100
AcDbEntity
  8
DETAIL
100
AcDbLine
 10
425.5000000000004
 20
-2100.270436733962
 30
0.0
 11
420.2500000000005
 21
-2096.210436733963
 31
0.0
  0
LINE
  5
A04
330
1F
100
AcDbEntity
  8
DETAIL
100
AcDbLine
 10
425.5000000000004
 20
-2100.270436733962
 30
0.0
 11
425.5000000000004
 21
-2090.790436733962
 31
0.0
  0
LINE
  5
A05
330
1F
100
AcDbEntity
  8
DETAIL
100
AcDbLine
 10
422.000001353816
 20
-2083.397547492019
 30
0.0
 11
439.0000013538156
 21
-2083.397547492019
 31
0.0
  0
LINE
  5
A06
330
1F
100
AcDbEntity
  8
DETAIL
100
AcDbLine
 10
420.2500000000005
 20
-2087.230436733963
 30
0.0
 11
425.5000000000004
 21
-2090.712469588172
 31
0.0
  0
LINE
  5
A07
330
1F
100
AcDbEntity
  8
DETAIL
100
AcDbLine
 10
443.0000000000005
 20
-2084.135436733963
 30
0.0
 11
439.0000000000005
 21
-2088.135436733963
 31
0.0
  0
LINE
  5
A08
330
1F
100
AcDbEntity
  8
DETAIL
100
AcDbLine
 10
425.0000000000004
 20
-2088.135436733963
 30
0.0
 11
439.0000000000005
 21
-2088.135436733963
 31
0.0
  0
LINE
  5
A09
330
1F
100
AcDbEntity
  8
DETAIL
100
AcDbLine
 10
422.0000000000004
 20
-2078.640436733962
 30
0.0
 11
422.0000000000004
 21
-2088.400436733963
 31
0.0
  0
LINE
  5
A0A
330
1F
100
AcDbEntity
  8
DETAIL
100
AcDbLine
 10
420.2500000000005
 20
-2087.230436733963
 30
0.0
 11
420.2500000000005
 21
-2096.210436733963
 31
0.0
  0
LINE
  5
A0B
330
1F
100
AcDbEntity
  8
DETAIL
100
AcDbLine
 10
435.0000000000004
 20
-2100.14320608249
 30
0.0
 11
421.0100000000006
 21
-2100.14320608249
 31
0.0
  0
ARC
  5
A0C
330
1F
100
AcDbEntity
  8
DETAIL
100
AcDbCircle
 10
446.999999999999
 20
-2127.576337021447
 30
0.0
 40
12.0
100
AcDbArc
 50
274.6919949999898
 51
0.0
  0
LINE
  5
A0D
330
1F
100
AcDbEntity
  8
DETAIL
100
AcDbLine
 10
416.2500000000004
 20
-2132.173206082489
 30
0.0
 11
420.5000000000004
 21
-2129.073206082489
 31
0.0
  0
LINE
  5
A0E
330
1F
100
AcDbEntity
  8
DETAIL
100
AcDbLine
 10
416.2500000000004
 20
-2126.42320608249
 30
0.0
 11
420.5000000000004
 21
-2129.073206082489
 31
0.0
  0
LINE
  5
A0F
330
1F
100
AcDbEntity
  8
DETAIL
100
AcDbLine
 10
416.2500000000004
 20
-2126.42320608249
 30
0.0
 11
416.2500000000004
 21
-2118.293206082489
 31
0.0
  0
LINE
  5
A10
330
1F
100
AcDbEntity
  8
DETAIL
100
AcDbLine
 10
416.2500000000004
 20
-2118.293206082489
 30
0.0
 11
416.2500000000004
 21
-2126.42320608249
 31
0.0
  0
LINE
  5
A11
330
1F
100
AcDbEntity
  8
DETAIL
100
AcDbLine
 10
417.4900000000002
 20
-2118.98320608249
 30
0.0
 11
417.4900000000002
 21
-2109.643206082489
 31
0.0
  0
LINE
  5
A12
330
1F
100
AcDbEntity
  8
DETAIL
100
AcDbLine
 10
421.001816745656
 20
-2112.814157926506
 30
0.0
 11
417.4900000000002
 21
-2112.814157926506
 31
0.0
  0
LINE
  5
A13
330
1F
100
AcDbEntity
  8
DETAIL
100
AcDbLine
 10
416.2500000000004
 20
-2118.293206082489
 30
0.0
 11
420.5000000000004
 21
-2120.65320608249
 31
0.0
  0
LINE
  5
A14
330
1F
100
AcDbEntity
  8
DETAIL
100
AcDbLine
 10
420.5000000000004
 20
-2120.65320608249
 30
0.0
 11
420.5000000000004
 21
-2129.073206082489
 31
0.0
  0
LINE
  5
A15
330
1F
100
AcDbEntity
  8
DETAIL
100
AcDbLine
 10
435.0100000000006
 20
-2114.39320608249
 30
0.0
 11
421.0024960505538
 21
-2114.39320608249
 31
0.0
  0
LINE
  5
A16
330
1F
100
AcDbEntity
  8
DETAIL
100
AcDbLine
 10
435.0100000000006
 20
-2104.893206082489
 30
0.0
 11
421.0075039466278
 21
-2104.883211438626
 31
0.0
  0
LINE
  5
A17
330
1F
100
AcDbEntity
  8
DETAIL
100
AcDbLine
 10
421.0000000000004
 20
-2119.133206082489
 30
0.0
 11
435.0000000000004
 21
-2119.133206082489
 31
0.0
  0
LINE
  5
A18
330
1F
100
AcDbEntity
  8
DETAIL
100
AcDbLine
 10
435.0000000000004
 20
-2119.133206082489
 30
0.0
 11
439.0000000000005
 21
-2115.14320608249
 31
0.0
  0
LINE
  5
A19
330
1F
100
AcDbEntity
  8
DETAIL
100
AcDbLine
 10
439.0000000000005
 20
-2115.14320608249
 30
0.0
 11
439.0000000000005
 21
-2104.13320608249
 31
0.0
  0
LINE
  5
A1A
330
1F
100
AcDbEntity
  8
DETAIL
100
AcDbLine
 10
420.2500000000005
 20
-2103.660436733962
 30
0.0
 11
425.5000000000004
 21
-2100.270436733962
 31
0.0
  0
LINE
  5
A1B
330
1F
100
AcDbEntity
  8
DETAIL
100
AcDbLine
 10
421.0100000000006
 20
-2100.14320608249
 30
0.0
 11
421.0000000000004
 21
-2119.133206082489
 31
0.0
  0
LINE
  5
A1C
330
1F
100
AcDbEntity
  8
DETAIL
100
AcDbLine
 10
435.0000000000004
 20
-2119.133206082489
 30
0.0
 11
435.0000000000004
 21
-2100.14320608249
 31
0.0
  0
LINE
  5
A1D
330
1F
100
AcDbEntity
  8
DETAIL
100
AcDbLine
 10
439.0000000000005
 20
-2104.13320608249
 30
0.0
 11
435.0000000000004
 21
-2100.14320608249
 31
0.0
  0
ARC
  5
A1E
330
1F
100
AcDbEntity
  8
DETAIL
100
AcDbCircle
 10
446.999999999999
 20
-2033.696337021448
 30
0.0
 40
12.0
100
AcDbArc
 50
0.0
 51
85.3080050000101
  0
LINE
  5
A1F
330
1F
100
AcDbEntity
  8
DETAIL
100
AcDbLine
 10
439.0000000000005
 20
-2069.135436733963
 30
0.0
 11
425.0100000000006
 21
-2069.135436733962
 31
0.0
  0
LINE
  5
A20
330
1F
100
AcDbEntity
  8
DETAIL
100
AcDbLine
 10
439.0000000000005
 20
-2069.135436733963
 30
0.0
 11
443.0000000000005
 21
-2073.135436733962
 31
0.0
  0
ARC
  5
A21
330
1F
100
AcDbEntity
  8
DETAIL
100
AcDbCircle
 10
91.00000000000409
 20
114.70219608055
 30
0.0
 40
10.0
100
AcDbArc
 50
180.0
 51
270.0
  0
ARC
  5
A22
330
1F
100
AcDbEntity
  8
DETAIL
100
AcDbCircle
 10
91.00000000000409
 20
114.70219608055
 30
0.0
 40
10.0
100
AcDbArc
 50
90.0
 51
180.0
  0
ARC
  5
A23
330
1F
100
AcDbEntity
  8
DETAIL
100
AcDbCircle
 10
159.0000000000045
 20
114.7021960805509
 30
0.0
 40
10.0
100
AcDbArc
 50
270.0
 51
0.0
  0
ARC
  5
A24
330
1F
100
AcDbEntity
  8
DETAIL
100
AcDbCircle
 10
159.0000000000036
 20
114.70219608055
 30
0.0
 40
10.0
100
AcDbArc
 50
0.0
 51
90.0
  0
LINE
  5
A25
330
1F
100
AcDbEntity
  8
DETAIL
100
AcDbLine
 10
91.00000000000319
 20
124.7021960805513
 30
0.0
 11
159.0000000000031
 21
124.7021960805513
 31
0.0
  0
LINE
  5
A26
330
1F
100
AcDbEntity
  8
DETAIL
100
AcDbLine
 10
159.0000000000036
 20
104.7021960805514
 30
0.0
 11
91.00000000000319
 21
104.7021960805514
 31
0.0
  0
CIRCLE
  5
A27
330
1F
100
AcDbEntity
  8
DETAIL
100
AcDbCircle
 10
-107.9999999999968
 20
85.0000000000009
 30
0.0
 40
12.5
  0
LINE
  5
A28
330
1F
100
AcDbEntity
  8
DETAIL
100
AcDbLine
 10
458.9999999999995
 20
-1188.33
 30
0.0
 11
458.9999999999995
 21
-1348.409999999999
 31
0.0
  0
TEXT
  5
A29
330
1F
100
AcDbEntity
  8
NOTE
100
AcDbText
 10
1514.97192949586
 20
-1627.35306077901
 30
0.0
 40
40.0
  1
RAV-SM564ATP-E
  7
ARIAL
100
AcDbText
  0
TEXT
  5
A2A
330
1F
100
AcDbEntity
  8
NOTE
100
AcDbText
 10
1516.226805432096
 20
-1706.812724212256
 30
0.0
 40
40.0
  1
RAV-SM564ATJP-E
  7
ARIAL
100
AcDbText
  0
TEXT
  5
A2D
330
1F
100
AcDbEntity
  8
NOTE
100
AcDbText
 10
-651.853440042818
 20
-116.1061146182091
 30
0.0
 40
25.0
  1
For anchor bolt)
 50
90.0
  7
ARIAL
100
AcDbText
  0
LINE
  5
A2E
330
1F
100
AcDbEntity
  8
SIZE
100
AcDbLine
 10
-1369.65918107208
 20
145.0000000000018
 30
0.0
 11
-1369.65918107208
 21
-144.9999999999984
 31
0.0
  0
LINE
  5
A2F
330
1F
100
AcDbEntity
  8
SIZE
100
AcDbLine
 10
-1445.883218845747
 20
-71.49999999999796
 30
0.0
 11
-1445.883218845747
 21
75.50000000000228
 31
0.0
  0
LINE
  5
A30
330
1F
100
AcDbEntity
  8
SIZE
100
AcDbLine
 10
-2080.636337021448
 20
-359.9224857504359
 30
0.0
 11
-1530.636337021445
 21
-359.9224857504363
 31
0.0
  0
LINE
  5
A31
330
1F
100
AcDbEntity
  8
SIZE
100
AcDbLine
 10
390.0000000000007
 20
1041.528109014292
 30
0.0
 11
-389.999999999999
 21
1041.528109014292
 31
0.0
  0
LINE
  5
A32
330
1F
100
AcDbEntity
  8
SIZE
100
AcDbLine
 10
-537.5260287907948
 20
1153.423561899652
 30
0.0
 11
-537.5260287907931
 21
1703.410000000002
 31
0.0
  0
LINE
  5
A33
330
1F
100
AcDbEntity
  8
SIZE
100
AcDbLine
 10
-456.0140920561175
 20
-144.999999999999
 30
0.0
 11
-456.0140920561175
 21
145.0000000000013
 31
0.0
  0
LINE
  5
A34
330
1F
100
AcDbEntity
  8
SIZE
100
AcDbLine
 10
-564.6981887791266
 20
153.0000000000004
 30
0.0
 11
-564.6981887791266
 21
-152.999999999999
 31
0.0
  0
LINE
  5
A35
330
1F
100
AcDbEntity
  8
SIZE
100
AcDbLine
 10
-734.6872798106565
 20
-159.999999999999
 30
0.0
 11
-734.6872798106565
 21
160.0000000000004
 31
0.0
  0
LINE
  5
A36
330
1F
100
AcDbEntity
  8
SIZE
100
AcDbLine
 10
299.9999999999995
 20
359.7335214911254
 30
0.0
 11
-300.0000000000004
 21
359.7335214911258
 31
0.0
  0
LINE
  5
A37
330
1F
100
AcDbEntity
  8
SIZE
100
AcDbLine
 10
141.9999999999977
 20
-1490.441579953494
 30
0.0
 11
-358.0000000000022
 21
-1490.441579953494
 31
0.0
  0
LINE
  5
A38
330
1F
100
AcDbEntity
  8
SIZE
100
AcDbLine
 10
-553.9435560324293
 20
-1378.409999999998
 30
0.0
 11
-553.9435560324291
 21
-895.4099999999982
 31
0.0
  0
LINE
  5
A39
330
1F
100
AcDbEntity
  8
SIZE
100
AcDbLine
 10
563.2519766667487
 20
-1360.404229081556
 30
0.0
 11
556.5853100000822
 21
-1320.404229081556
 31
0.0
  0
LINE
  5
A3A
330
1F
100
AcDbEntity
  8
SIZE
100
AcDbLine
 10
549.9186433334152
 20
-1360.404229081556
 30
0.0
 11
556.5853100000822
 21
-1320.404229081556
 31
0.0
  0
LINE
  5
A3B
330
1F
100
AcDbEntity
  8
SIZE
100
AcDbLine
 10
549.9186433334152
 20
-1373.41
 30
0.0
 11
556.5853100000818
 21
-1413.41
 31
0.0
  0
LINE
  5
A3C
330
1F
100
AcDbEntity
  8
SIZE
100
AcDbLine
 10
563.2519766667483
 20
-1373.41
 30
0.0
 11
556.5853100000818
 21
-1413.41
 31
0.0
  0
LINE
  5
A3D
330
1F
100
AcDbEntity
  8
SIZE
100
AcDbLine
 10
-390.0000000000009
 20
-1403.409999999999
 30
0.0
 11
-390.0000000000009
 21
-1567.685313684435
 31
0.0
  0
LINE
  5
A3E
330
1F
100
AcDbEntity
  8
SIZE
100
AcDbLine
 10
-350.0000000000047
 20
-1551.018647017766
 30
0.0
 11
-390.0000000000047
 21
-1557.685313684432
 31
0.0
  0
LINE
  5
A3F
330
1F
100
AcDbEntity
  8
SIZE
100
AcDbLine
 10
-350.0000000000048
 20
-1564.351980351099
 30
0.0
 11
-390.0000000000047
 21
-1557.685313684432
 31
0.0
  0
TEXT
  5
A40
330
1F
100
AcDbEntity
  8
SIZE
100
AcDbText
 10
-76.34931939061925
 20
-1551.331132426748
 30
0.0
 40
30.0
  1
780
  7
ARIAL
100
AcDbText
  0
LINE
  5
A41
330
1F
100
AcDbEntity
  8
SIZE
100
AcDbLine
 10
654.2244003690139
 20
-1276.41
 30
0.0
 11
654.2244003690134
 21
-1413.41
 31
0.0
  0
LINE
  5
A42
330
1F
100
AcDbEntity
  8
SIZE
100
AcDbLine
 10
-454.0818833278994
 20
-1361.409999999999
 30
0.0
 11
-454.0818833278993
 21
-912.4099999999989
 31
0.0
  0
LINE
  5
A43
330
1F
100
AcDbEntity
  8
SIZE
100
AcDbLine
 10
389.9999999999991
 20
-773.2169982901937
 30
0.0
 11
132.9999999999981
 21
-773.2169982901939
 31
0.0
  0
LINE
  5
A44
330
1F
100
AcDbEntity
  8
SIZE
100
AcDbLine
 10
132.9999999999981
 20
-773.2169982901939
 30
0.0
 11
-350.000258932989
 21
-773.2169982901933
 31
0.0
  0
LINE
  5
A45
330
1F
100
AcDbEntity
  8
SIZE
100
AcDbLine
 10
-0.0000000000009095
 20
-838.9472969085213
 30
0.0
 11
-108.0000000000013
 21
-838.9472969085213
 31
0.0
  0
LINE
  5
A46
330
1F
100
AcDbEntity
  8
DETAIL
100
AcDbLine
 10
-1536.636337021445
 20
145.0000000000022
 30
0.0
 11
-2065.636337021447
 21
145.0000000000027
 31
0.0
  0
LINE
  5
A47
330
1F
100
AcDbEntity
  8
SIZE
100
AcDbLine
 10
1496.556811677047
 20
-90.99999999999978
 30
0.0
 11
1496.556811677047
 21
66.0
 31
0.0
  0
LINE
  5
A48
330
1F
100
AcDbEntity
  8
SIZE
100
AcDbLine
 10
1496.556811677047
 20
144.999999999999
 30
0.0
 11
1496.556811677047
 21
213.9240747179824
 31
0.0
  0
LINE
  5
A49
330
1F
100
AcDbEntity
  8
SIZE
 62
    30
100
AcDbLine
 10
1917.844893336529
 20
2.378596447686959
 30
0.0
 11
1866.321508162192
 21
75.49724606434529
 31
0.0
  0
LINE
  5
A4A
330
1F
100
AcDbEntity
  8
SIZE
 62
    30
100
AcDbLine
 10
1961.849569710842
 20
33.38668948814211
 30
0.0
 11
1910.326184536504
 21
106.5053391048008
 31
0.0
  0
LINE
  5
A4B
330
1F
100
AcDbEntity
  8
SIZE
100
AcDbLine
 10
1877.841770114338
 20
59.14843679412888
 30
0.0
 11
1836.969746938797
 21
30.34778191376199
 31
0.0
  0
LINE
  5
A4C
330
1F
100
AcDbEntity
  8
SIZE
100
AcDbLine
 10
1921.846446488651
 20
90.15652983458403
 30
0.0
 11
2037.483746673614
 21
171.2639206248418
 31
0.0
  0
LINE
  5
A4D
330
1F
100
AcDbEntity
  8
SIZE
 62
    30
100
AcDbLine
 10
1877.841770114338
 20
59.14843679412888
 30
0.0
 11
1921.846446488651
 21
90.15652983458403
 31
0.0
  0
TEXT
  5
A4E
330
1F
100
AcDbEntity
  8
SIZE
 62
    30
100
AcDbText
 10
1987.728789149955
 20
143.9105752724407
 30
0.0
 40
30.0
  1
54
 50
35.1706109520421
  7
ARIAL
100
AcDbText
  0
LINE
  5
A4F
330
1F
100
AcDbEntity
  8
SIZE
100
AcDbLine
 10
1946.141014149753
 20
99.08104452299404
 30
0.0
 11
1921.846446488651
 21
90.15652983458403
 31
0.0
  0
LINE
  5
A50
330
1F
100
AcDbEntity
  8
SIZE
100
AcDbLine
 10
1921.846446488651
 20
90.15652983458403
 30
0.0
 11
1938.42390200309
 21
110.0326700265413
 31
0.0
  0
LINE
  5
A51
330
1F
100
AcDbEntity
  8
SIZE
100
AcDbLine
 10
1853.547202453236
 20
50.22392210571888
 30
0.0
 11
1877.841770114338
 21
59.14843679412888
 31
0.0
  0
LINE
  5
A52
330
1F
100
AcDbEntity
  8
SIZE
100
AcDbLine
 10
1877.841770114338
 20
59.14843679412888
 30
0.0
 11
1861.2643145999
 21
39.27229660217154
 31
0.0
  0
TEXT
  5
A53
330
1F
100
AcDbEntity
  8
NOTE
100
AcDbText
 10
539.8860149773322
 20
-182.3983768228549
 30
0.0
 40
25.0
  1
(dia.6.4 flare at liquid side)
  7
ARIAL
100
AcDbText
  0
TEXT
  5
A54
330
1F
100
AcDbEntity
  8
NOTE
100
AcDbText
 10
542.8670580588555
 20
-115.3912941120902
 30
0.0
 40
25.0
  1
Refrigerant pipe
  7
ARIAL
100
AcDbText
  0
TEXT
  5
A55
330
1F
100
AcDbEntity
  8
NOTE
100
AcDbText
 10
539.7606317951435
 20
-148.9453973188096
 30
0.0
 40
25.0
  1
Connecting pipe port
  7
ARIAL
100
AcDbText
  0
TEXT
  5
A56
330
1F
100
AcDbEntity
  8
NOTE
100
AcDbText
 10
562.2441597337569
 20
157.9255874967875
 30
0.0
 40
25.0
  1
(dia.12.7 flare at gas side)
  7
ARIAL
100
AcDbText
  0
TEXT
  5
A57
330
1F
100
AcDbEntity
  8
NOTE
100
AcDbText
 10
566.6299660480294
 20
228.0876829344488
 30
0.0
 40
25.0
  1
Refrigerant pipe
  7
ARIAL
100
AcDbText
  0
TEXT
  5
A58
330
1F
100
AcDbEntity
  8
NOTE
100
AcDbText
 10
562.1187765515683
 20
194.1060968673136
 30
0.0
 40
25.0
  1
Connecting pipe port
  7
ARIAL
100
AcDbText
  0
TEXT
  5
A59
330
1F
100
AcDbEntity
  8
NOTE
100
AcDbText
 10
479.3001494384011
 20
321.0988059019455
 30
0.0
 40
25.0
  1
(For dia.8-dia.10 anchor bolts)
  7
ARIAL
100
AcDbText
  0
TEXT
  5
A5A
330
1F
100
AcDbEntity
  8
NOTE
100
AcDbText
 10
501.9503274279161
 20
361.3091541360772
 30
0.0
 40
25.0
  1
2-dia.11×14 U-shape hole
  7
ARIAL
100
AcDbText
  0
LINE
  5
A5B
330
1F
100
AcDbEntity
  8
NOTE
100
AcDbLine
 10
321.102481163467
 20
-155.190799794509
 30
0.0
 11
343.1143685005518
 21
-177.101845124183
 31
0.0
  0
LINE
  5
A5C
330
1F
100
AcDbEntity
  8
NOTE
100
AcDbLine
 10
329.2098122537991
 20
-185.1722653052424
 30
0.0
 11
321.102481163467
 21
-155.190799794509
 31
0.0
  0
LINE
  5
A5D
330
1F
100
AcDbEntity
  8
NOTE
100
AcDbLine
 10
321.102481163467
 20
-155.190799794509
 30
0.0
 11
410.6281718803147
 21
-309.4349375437837
 31
0.0
1001
ACAD
1000
DSTYLE
1002
{
1070
   147
1040
10.0
1070
    77
1070
     0
1002
}
  0
LINE
  5
A5E
330
1F
100
AcDbEntity
  8
NOTE
100
AcDbLine
 10
410.6281718803147
 20
-309.4349375437837
 30
0.0
 11
851.5560021132424
 21
-309.4349375437837
 31
0.0
1001
ACAD
1000
DSTYLE
1002
{
1070
   147
1040
10.0
1070
    77
1070
     0
1002
}
  0
TEXT
  5
A5F
330
1F
100
AcDbEntity
  8
NOTE
100
AcDbText
 10
416.1803445983207
 20
-299.0256629790615
 30
0.0
 40
25.0
  1
8-dia.6 hole
  7
ARIAL
100
AcDbText
  0
TEXT
  5
A60
330
1F
100
AcDbEntity
  8
NOTE
100
AcDbText
 10
417.0460604659568
 20
-340.4495087345285
 30
0.0
 40
25.0
  1
(For flxing outdoor unit)
  7
ARIAL
100
AcDbText
  0
LINE
  5
A61
330
1F
100
AcDbEntity
  8
NOTE
100
AcDbLine
 10
294.5000000000005
 20
-161.4999999999983
 30
0.0
 11
277.69440995759
 21
-187.6187525526358
 31
0.0
  0
LINE
  5
A62
330
1F
100
AcDbEntity
  8
NOTE
100
AcDbLine
 10
293.0053082332712
 20
-192.5222982401666
 30
0.0
 11
294.5000000000005
 21
-161.4999999999983
 31
0.0
  0
LINE
  5
A63
330
1F
100
AcDbEntity
  8
NOTE
100
AcDbLine
 10
294.4999999999995
 20
-161.5000000000184
 30
0.0
 11
247.1216090025154
 21
-309.4349375437837
 31
0.0
1001
ACAD
1000
DSTYLE
1002
{
1070
   147
1040
10.0
1070
    77
1070
     0
1002
}
  0
LINE
  5
A64
330
1F
100
AcDbEntity
  8
SIZE
100
AcDbLine
 10
1776.084446587388
 20
-29.00000000000114
 30
0.0
 11
1776.084446587388
 21
1.999999999998181
 31
0.0
  0
LINE
  5
A65
330
1F
100
AcDbEntity
  8
SIZE
100
AcDbLine
 10
1776.084446587388
 20
1.999999999998181
 30
0.0
 11
1776.084446587388
 21
144.9999999999986
 31
0.0
  0
LINE
  5
A66
330
1F
100
AcDbEntity
  8
SIZE
100
AcDbLine
 10
2207.815794154204
 20
-0.000000000001819
 30
0.0
 11
2207.815794154205
 21
144.9999999999981
 31
0.0
  0
LINE
  5
A67
330
1F
100
AcDbEntity
  8
SIZE
100
AcDbLine
 10
2284.906432443585
 20
-171.0000000000018
 30
0.0
 11
2284.906432443585
 21
170.9999999999981
 31
0.0
  0
TEXT
  5
A68
330
1F
100
AcDbEntity
  8
NOTE
100
AcDbText
 10
-222.9130856474398
 20
-340.8989643360273
 30
0.0
 40
25.0
  1
(For dia.8-dia.10 anchor bolts)
  7
ARIAL
100
AcDbText
  0
TEXT
  5
A69
330
1F
100
AcDbEntity
  8
NOTE
100
AcDbText
 10
-200.2629076579248
 20
-300.6886161018956
 30
0.0
 40
25.0
  1
2-dia.11×14 long hole
  7
ARIAL
100
AcDbText
  0
TEXT
  5
A6A
330
1F
100
AcDbEntity
  8
NOTE
100
AcDbText
 10
-836.4973782032604
 20
279.2344801298359
 30
0.0
 40
25.0
  1
Drain hole
  7
ARIAL
100
AcDbText
  0
TEXT
  5
A6B
330
1F
100
AcDbEntity
  8
NOTE
100
AcDbText
 10
-845.3314528007684
 20
246.7466327686888
 30
0.0
 40
25.0
  1
(2-dia.20×88 long hole)
  7
ARIAL
100
AcDbText
  0
LINE
  5
A6C
330
1F
100
AcDbEntity
  8
SIZE
100
AcDbLine
 10
-107.9999999999968
 20
193.362887434182
 30
0.0
 11
0.0000000000031832
 21
193.362887434182
 31
0.0
  0
LINE
  5
A6D
330
1F
100
AcDbEntity
  8
SIZE
100
AcDbLine
 10
0.0000000000031832
 20
193.362887434182
 30
0.0
 11
125.0000000000031
 21
193.362887434182
 31
0.0
  0
TEXT
  5
A6E
330
1F
100
AcDbEntity
  8
NOTE
100
AcDbText
 10
-531.7233805038559
 20
-122.0479635705014
 30
0.0
 40
25.0
  1
(dia.6 hole pitch
 50
90.0
  7
ARIAL
100
AcDbText
  0
VIEWPORT
  5
6B
330
50
100
AcDbEntity
 67
     1
  8
0
100
AcDbViewport
 10
133.3499908447265
 20
101.5999970436096
 30
0.0
 40
381.3957395593834
 41
218.2856291881582
 68
     1
 69
     1
1001
ACAD
1000
MVIEW
1002
{
1070
    16
1010
0.0
1020
0.0
1030
0.0
1010
0.0
1020
0.0
1030
1.0
1040
0.0
1040
218.2856291881582
1040
133.3499908447265
1040
101.5999970436096
1040
50.0
1040
0.0
1040
0.0
1070
     0
1070
   100
1070
     1
1070
     1
1070
     0
1070
     0
1070
     0
1070
     0
1040
0.0
1040
0.0
1040
0.0
1040
10.0
1040
10.0
1040
10.0
1040
10.0
1070
     0
1002
{
1002
}
1002
}
  0
VIEWPORT
  5
6D
330
50
100
AcDbEntity
 67
     1
  8
0
100
AcDbViewport
 10
133.349993944168
 20
101.599993944168
 30
0.0
 40
213.3599903106689
 41
162.5599903106689
 68
    -1
 69
     2
1001
ACAD
1000
MVIEW
1002
{
1070
    16
1010
0.0
1020
0.0
1030
0.0
1010
0.0
1020
0.0
1030
1.0
1040
0.0
1040
324.0677920111345
1040
210.0
1040
148.5
1040
50.0
1040
0.0
1040
0.0
1070
     0
1070
   100
1070
     1
1070
     3
1070
     0
1070
     0
1070
     0
1070
     0
1040
0.0
1040
0.0
1040
0.0
1040
10.0
1040
10.0
1040
10.0
1040
10.0
1070
     0
1002
{
1002
}
1002
}
  0
ENDSEC
  0
SECTION
  2
OBJECTS
  0
DICTIONARY
  5
C
330
0
100
AcDbDictionary
  3
ACAD_GROUP
350
D
  3
ACAD_LAYOUT
350
1A
  3
ACAD_MLINESTYLE
350
17
  3
ACAD_PLOTSETTINGS
350
19
1001
ACAD
1000
TREAT_AS_HARD
1070
     0
  0
DICTIONARY
  5
86
330
2
100
AcDbDictionary
  3
ACAD_LAYERFILTERS
350
87
  3
ACAD_LAYERSTATES
350
9D
1001
ACAD
1000
TREAT_AS_HARD
1070
     1
  0
DICTIONARY
  5
A8A
330
1F
100
AcDbDictionary
  3
ACAD_LAYOUTSELFREF
350
A8B
  0
DICTIONARY
  5
A8C
330
50
100
AcDbDictionary
  3
ACAD_LAYOUTSELFREF
350
A8D
  0
DICTIONARY
  5
D
102
{ACAD_REACTORS
330
C
102
}
330
C
100
AcDbDictionary
1001
ACAD
1000
TREAT_AS_HARD
1070
     0
  0
DICTIONARY
  5
1A
102
{ACAD_REACTORS
330
C
102
}
330
C
100
AcDbDictionary
1001
ACAD
1000
TREAT_AS_HARD
1070
     0
  0
DICTIONARY
  5
17
102
{ACAD_REACTORS
330
C
102
}
330
C
100
AcDbDictionary
  3
STANDARD
350
18
1001
ACAD
1000
TREAT_AS_HARD
1070
     0
  0
DICTIONARY
  5
19
102
{ACAD_REACTORS
330
C
102
}
330
C
100
AcDbDictionary
1001
ACAD
1000
TREAT_AS_HARD
1070
     0
  0
DICTIONARY
  5
87
102
{ACAD_REACTORS
330
86
102
}
330
86
100
AcDbDictionary
  3
MOTO
350
88
  3
元図
350
89
1001
ACAD
1000
TREAT_AS_HARD
1070
     1
  0
DICTIONARY
  5
9D
102
{ACAD_REACTORS
330
86
102
}
330
86
100
AcDbDictionary
1001
ACAD
1000
TREAT_AS_HARD
1070
     0
  0
XRECORD
  5
A8B
102
{ACAD_REACTORS
330
A8A
102
}
330
A8A
100
AcDbXrecord
340
1F
  0
XRECORD
  5
A8D
102
{ACAD_REACTORS
330
A8C
102
}
330
A8C
100
AcDbXrecord
340
50
  0
MLINESTYLE
  5
18
102
{ACAD_REACTORS
330
17
102
}
330
17
100
AcDbMlineStyle
  2
STANDARD
 70
     0
  3

 62
   256
 51
90.0
 52
90.0
 71
     2
 49
0.5
 62
   256
  6
BYLAYER
 49
-0.5
 62
   256
  6
BYLAYER
  0
XRECORD
  5
88
102
{ACAD_REACTORS
330
87
102
}
330
87
100
AcDbXrecord
  1
MOTO
  1
*
  1
*
  1
*
 70
     0
  1
*
  1
*
  0
XRECORD
  5
89
102
{ACAD_REACTORS
330
87
102
}
330
87
100
AcDbXrecord
  1
元図
  1
*
  1
*
  1
*
 70
     0
  1
*
  1
*
  0
ENDSEC
  0
EOF
