  0
SECTION
  2
HEADER
  9
$ACADVER
  1
AC1012
  9
$DWGCODEPAGE
  3
dos932
  9
$INSBASE
 10
0.0
 20
0.0
 30
0.0
  9
$EXTMIN
 10
-2605.324347736426
 20
-4116.68565054983
 30
0.0
  9
$EXTMAX
 10
3919.940118347883
 20
2895.840417447022
 30
0.0
  9
$LIMMIN
 10
0.0
 20
0.0
  9
$LIMMAX
 10
420.0
 20
297.0
  9
$ORTHOMODE
 70
     0
  9
$REGENMODE
 70
     1
  9
$FILLMODE
 70
     1
  9
$QTEXTMODE
 70
     0
  9
$MIRRTEXT
 70
     1
  9
$DRAGMODE
 70
     2
  9
$LTSCALE
 40
1.0
  9
$OSMODE
 70
    37
  9
$ATTMODE
 70
     1
  9
$TEXTSIZE
 40
2.5
  9
$TRACEWID
 40
1.0
  9
$TEXTSTYLE
  7
STANDARD
  9
$CLAYER
  8
0
  9
$CELTYPE
  6
BYLAYER
  9
$CECOLOR
 62
   256
  9
$CELTSCALE
 40
1.0
  9
$DELOBJ
 70
     1
  9
$DISPSILH
 70
     0
  9
$DIMSCALE
 40
1.0
  9
$DIMASZ
 40
2.5
  9
$DIMEXO
 40
0.625
  9
$DIMDLI
 40
3.75
  9
$DIMRND
 40
0.0
  9
$DIMDLE
 40
0.0
  9
$DIMEXE
 40
1.25
  9
$DIMTP
 40
0.0
  9
$DIMTM
 40
0.0
  9
$DIMTXT
 40
2.5
  9
$DIMCEN
 40
2.5
  9
$DIMTSZ
 40
0.0
  9
$DIMTOL
 70
     0
  9
$DIMLIM
 70
     0
  9
$DIMTIH
 70
     0
  9
$DIMTOH
 70
     0
  9
$DIMSE1
 70
     0
  9
$DIMSE2
 70
     0
  9
$DIMTAD
 70
     1
  9
$DIMZIN
 70
     8
  9
$DIMBLK
  1

  9
$DIMASO
 70
     1
  9
$DIMSHO
 70
     1
  9
$DIMPOST
  1

  9
$DIMAPOST
  1

  9
$DIMALT
 70
     0
  9
$DIMALTD
 70
     3
  9
$DIMALTF
 40
0.03937007874016
  9
$DIMLFAC
 40
1.0
  9
$DIMTOFL
 70
     1
  9
$DIMTVP
 40
0.0
  9
$DIMTIX
 70
     0
  9
$DIMSOXD
 70
     0
  9
$DIMSAH
 70
     0
  9
$DIMBLK1
  1

  9
$DIMBLK2
  1

  9
$DIMSTYLE
  2
ISO-25
  9
$DIMCLRD
 70
     0
  9
$DIMCLRE
 70
     0
  9
$DIMCLRT
 70
     0
  9
$DIMTFAC
 40
1.0
  9
$DIMGAP
 40
0.625
  9
$DIMJUST
 70
     0
  9
$DIMSD1
 70
     0
  9
$DIMSD2
 70
     0
  9
$DIMTOLJ
 70
     0
  9
$DIMTZIN
 70
     8
  9
$DIMALTZ
 70
     0
  9
$DIMALTTZ
 70
     0
  9
$DIMFIT
 70
     3
  9
$DIMUPT
 70
     0
  9
$DIMUNIT
 70
     2
  9
$DIMDEC
 70
     2
  9
$DIMTDEC
 70
     2
  9
$DIMALTU
 70
     2
  9
$DIMALTTD
 70
     3
  9
$DIMTXSTY
  7
STANDARD
  9
$DIMAUNIT
 70
     0
  9
$LUNITS
 70
     2
  9
$LUPREC
 70
     4
  9
$SKETCHINC
 40
1.0
  9
$FILLETRAD
 40
10.0
  9
$AUNITS
 70
     0
  9
$AUPREC
 70
     0
  9
$MENU
  1
.
  9
$ELEVATION
 40
0.0
  9
$PELEVATION
 40
0.0
  9
$THICKNESS
 40
0.0
  9
$LIMCHECK
 70
     0
  9
$BLIPMODE
 70
     0
  9
$CHAMFERA
 40
10.0
  9
$CHAMFERB
 40
10.0
  9
$CHAMFERC
 40
20.0
  9
$CHAMFERD
 40
0.0
  9
$SKPOLY
 70
     0
  9
$TDCREATE
 40
2456288.663166354
  9
$TDUPDATE
 40
2456303.476395520
  9
$TDINDWG
 40
0.0018358102
  9
$TDUSRTIMER
 40
0.0018358102
  9
$USRTIMER
 70
     1
  9
$ANGBASE
 50
0.0
  9
$ANGDIR
 70
     0
  9
$PDMODE
 70
     3
  9
$PDSIZE
 40
10.0
  9
$PLINEWID
 40
0.0
  9
$COORDS
 70
     2
  9
$SPLFRAME
 70
     0
  9
$SPLINETYPE
 70
     6
  9
$SPLINESEGS
 70
     8
  9
$ATTDIA
 70
     0
  9
$ATTREQ
 70
     1
  9
$HANDLING
 70
 22529
  9
$HANDSEED
  5
C4B
  9
$SURFTAB1
 70
     6
  9
$SURFTAB2
 70
     6
  9
$SURFTYPE
 70
     6
  9
$SURFU
 70
     6
  9
$SURFV
 70
     6
  9
$UCSNAME
  2

  9
$UCSORG
 10
0.0
 20
0.0
 30
0.0
  9
$UCSXDIR
 10
1.0
 20
0.0
 30
0.0
  9
$UCSYDIR
 10
0.0
 20
1.0
 30
0.0
  9
$PUCSNAME
  2

  9
$PUCSORG
 10
0.0
 20
0.0
 30
0.0
  9
$PUCSXDIR
 10
1.0
 20
0.0
 30
0.0
  9
$PUCSYDIR
 10
0.0
 20
1.0
 30
0.0
  9
$USERI1
 70
     0
  9
$USERI2
 70
     0
  9
$USERI3
 70
     0
  9
$USERI4
 70
     0
  9
$USERI5
 70
     0
  9
$USERR1
 40
0.0
  9
$USERR2
 40
0.0
  9
$USERR3
 40
0.0
  9
$USERR4
 40
0.0
  9
$USERR5
 40
0.0
  9
$WORLDVIEW
 70
     1
  9
$SHADEDGE
 70
     3
  9
$SHADEDIF
 70
    70
  9
$TILEMODE
 70
     1
  9
$MAXACTVP
 70
    64
  9
$PINSBASE
 10
0.0
 20
0.0
 30
0.0
  9
$PLIMCHECK
 70
     0
  9
$PEXTMIN
 10
1.000000000000000E+20
 20
1.000000000000000E+20
 30
1.000000000000000E+20
  9
$PEXTMAX
 10
-1.000000000000000E+20
 20
-1.000000000000000E+20
 30
-1.000000000000000E+20
  9
$PLIMMIN
 10
0.0
 20
0.0
  9
$PLIMMAX
 10
420.0
 20
297.0
  9
$UNITMODE
 70
     0
  9
$VISRETAIN
 70
     1
  9
$PLINEGEN
 70
     0
  9
$PSLTSCALE
 70
     1
  9
$TREEDEPTH
 70
  3020
  9
$PICKSTYLE
 70
     1
  9
$CMLSTYLE
  2
STANDARD
  9
$CMLJUST
 70
     0
  9
$CMLSCALE
 40
20.0
  9
$SAVEIMAGES
 70
     1
  0
ENDSEC
  0
SECTION
  2
CLASSES
  0
CLASS
  1
ACDBDICTIONARYWDFLT
  2
AcDbDictionaryWithDefault
  3
AutoCAD 2000
 90
    32768
280
     0
281
     0
  0
CLASS
  1
ACDBPLACEHOLDER
  2
AcDbPlaceHolder
  3
AutoCAD 2000
 90
    32768
280
     0
281
     0
  0
CLASS
  1
LAYOUT
  2
AcDbLayout
  3
AutoCAD 2000
 90
    32768
280
     0
281
     0
  0
CLASS
  1
SORTENTSTABLE
  2
AcDbSortentsTable
  3
AutoCAD 2000
 90
    32768
280
     0
281
     0
  0
CLASS
  1
DICTIONARYVAR
  2
AcDbDictionaryVar
  3
AutoCAD 2000
 90
    32768
280
     0
281
     0
  0
CLASS
  1
LONG_TRANSACTION
  2
AcDbLongTransaction
  3
AutoCAD 2000
 90
    32768
280
     0
281
     0
  0
CLASS
  1
LWPOLYLINE
  2
AcDbPolyline
  3
AutoCAD 2000
 90
    32768
280
     0
281
     1
  0
CLASS
  1
HATCH
  2
AcDbHatch
  3
AutoCAD 2000
 90
    32768
280
     0
281
     1
  0
CLASS
  1
XRECORD
  2
AcDbXrecord
  3
AutoCAD 2000
 90
    32768
280
     0
281
     0
  0
ENDSEC
  0
SECTION
  2
TABLES
  0
TABLE
  2
VPORT
  5
8
330
0
100
AcDbSymbolTable
 70
     3
  0
VPORT
  5
BC4
330
8
100
AcDbSymbolTableRecord
100
AcDbViewportTableRecord
  2
*ACTIVE
 70
     0
 10
0.0
 20
0.0
 11
1.0
 21
1.0
 12
454.5078434006809
 22
-1240.743221098196
 13
0.0
 23
0.0
 14
10.0
 24
10.0
 15
10.0
 25
10.0
 16
0.0
 26
0.0
 36
1.0
 17
0.0
 27
0.0
 37
0.0
 40
8770.850016600219
 41
1.207301173402868
 42
50.0
 43
0.0
 44
0.0
 50
0.0
 51
0.0
 71
     0
 72
   100
 73
     1
 74
     3
 75
     0
 76
     0
 77
     0
 78
     0
  0
ENDTAB
  0
TABLE
  2
LTYPE
  5
5
330
0
100
AcDbSymbolTable
 70
     4
  0
LTYPE
  5
14
330
5
100
AcDbSymbolTableRecord
100
AcDbLinetypeTableRecord
  2
BYBLOCK
 70
     0
  3

 72
    65
 73
     0
 40
0.0
  0
LTYPE
  5
15
330
5
100
AcDbSymbolTableRecord
100
AcDbLinetypeTableRecord
  2
BYLAYER
 70
     0
  3

 72
    65
 73
     0
 40
0.0
  0
LTYPE
  5
16
330
5
100
AcDbSymbolTableRecord
100
AcDbLinetypeTableRecord
  2
CONTINUOUS
 70
     0
  3
Solid line
 72
    65
 73
     0
 40
0.0
  0
LTYPE
  5
35
330
5
100
AcDbSymbolTableRecord
100
AcDbLinetypeTableRecord
  2
CENTERX2
 70
     0
  3
Center (2x) ________  __  ________  __  _____
 72
    65
 73
     4
 40
4.0
 49
2.5
 74
     0
 49
-0.5
 74
     0
 49
0.5
 74
     0
 49
-0.5
 74
     0
  0
LTYPE
  5
36
330
5
100
AcDbSymbolTableRecord
100
AcDbLinetypeTableRecord
  2
HIDDEN
 70
     0
  3
Hidden __ __ __ __ __ __ __ __ __ __ __ __ __ _
 72
    65
 73
     2
 40
0.375
 49
0.25
 74
     0
 49
-0.125
 74
     0
  0
LTYPE
  5
37
330
5
100
AcDbSymbolTableRecord
100
AcDbLinetypeTableRecord
  2
PHANTOM
 70
     0
  3
Phantom ______  __  __  ______  __  __  ______
 72
    65
 73
     6
 40
2.5
 49
1.25
 74
     0
 49
-0.25
 74
     0
 49
0.25
 74
     0
 49
-0.25
 74
     0
 49
0.25
 74
     0
 49
-0.25
 74
     0
  0
ENDTAB
  0
TABLE
  2
LAYER
  5
2
102
{ACAD_XDICTIONARY
360
2B
102
}
330
0
100
AcDbSymbolTable
 70
     9
  0
LAYER
  5
10
330
2
100
AcDbSymbolTableRecord
100
AcDbLayerTableRecord
  2
0
 70
     0
 62
     7
  6
CONTINUOUS
  0
LAYER
  5
38
330
2
100
AcDbSymbolTableRecord
100
AcDbLayerTableRecord
  2
OUTLINE
 70
     0
 62
     3
  6
CONTINUOUS
  0
LAYER
  5
39
330
2
100
AcDbSymbolTableRecord
100
AcDbLayerTableRecord
  2
ARRANGE
 70
     0
 62
     1
  6
CONTINUOUS
  0
LAYER
  5
3A
330
2
100
AcDbSymbolTableRecord
100
AcDbLayerTableRecord
  2
FIX
 70
     0
 62
    11
  6
CONTINUOUS
  0
LAYER
  5
3B
330
2
100
AcDbSymbolTableRecord
100
AcDbLayerTableRecord
  2
SIZE
 70
     0
 62
    30
  6
CONTINUOUS
  0
LAYER
  5
3C
330
2
100
AcDbSymbolTableRecord
100
AcDbLayerTableRecord
  2
NOTE
 70
     0
 62
     4
  6
CONTINUOUS
  0
LAYER
  5
3D
330
2
100
AcDbSymbolTableRecord
100
AcDbLayerTableRecord
  2
BASIS
 70
     0
 62
     6
  6
CENTERX2
  0
LAYER
  5
3E
330
2
100
AcDbSymbolTableRecord
100
AcDbLayerTableRecord
  2
DETAIL
 70
     0
 62
     5
  6
CONTINUOUS
  0
LAYER
  5
3F
330
2
100
AcDbSymbolTableRecord
100
AcDbLayerTableRecord
  2
SERVICESPACE
 70
     0
 62
     2
  6
CONTINUOUS
  0
ENDTAB
  0
TABLE
  2
STYLE
  5
3
330
0
100
AcDbSymbolTable
 70
     2
  0
STYLE
  5
11
330
3
100
AcDbSymbolTableRecord
100
AcDbTextStyleTableRecord
  2
STANDARD
 70
     0
 40
0.0
 41
1.0
 50
0.0
 71
     0
 42
2.5
  3
txt.shx
  4
bigfont.shx
  0
STYLE
  5
40
330
3
100
AcDbSymbolTableRecord
100
AcDbTextStyleTableRecord
  2
KAIGAI
 70
     0
 40
40.0
 41
1.0
 50
0.0
 71
     0
 42
2.5
  3
ARIAL.TTF
  4

1001
ACAD
1000
Arial
1071
       34
  0
ENDTAB
  0
TABLE
  2
VIEW
  5
6
330
0
100
AcDbSymbolTable
 70
     0
  0
ENDTAB
  0
TABLE
  2
UCS
  5
7
330
0
100
AcDbSymbolTable
 70
     0
  0
ENDTAB
  0
TABLE
  2
APPID
  5
9
330
0
100
AcDbSymbolTable
 70
     1
  0
APPID
  5
12
330
9
100
AcDbSymbolTableRecord
100
AcDbRegAppTableRecord
  2
ACAD
 70
     0
  0
ENDTAB
  0
TABLE
  2
DIMSTYLE
  5
A
330
0
100
AcDbSymbolTable
 70
     1
  0
DIMSTYLE
105
27
330
A
100
AcDbSymbolTableRecord
100
AcDbDimStyleTableRecord
  2
ISO-25
 70
     0
  3

  4

  5

  6

  7

 40
1.0
 41
2.5
 42
0.625
 43
3.75
 44
1.25
 45
0.0
 46
0.0
 47
0.0
 48
0.0
140
2.5
141
2.5
142
0.0
143
0.03937007874016
144
1.0
145
0.0
146
1.0
147
0.625
 71
     0
 72
     0
 73
     0
 74
     0
 75
     0
 76
     0
 77
     1
 78
     8
170
     0
171
     3
172
     1
173
     0
174
     0
175
     0
176
     0
177
     0
178
     0
270
     2
271
     2
272
     2
273
     2
274
     3
340
11
275
     0
280
     0
281
     0
282
     0
283
     0
284
     8
285
     0
286
     0
287
     3
288
     0
  0
ENDTAB
  0
TABLE
  2
BLOCK_RECORD
  5
1
330
0
100
AcDbSymbolTable
 70
     1
  0
BLOCK_RECORD
  5
1F
102
{ACAD_XDICTIONARY
360
BA9
102
}
330
1
100
AcDbSymbolTableRecord
100
AcDbBlockTableRecord
  2
*MODEL_SPACE
  0
BLOCK_RECORD
  5
1B
102
{ACAD_XDICTIONARY
360
BC5
102
}
330
1
100
AcDbSymbolTableRecord
100
AcDbBlockTableRecord
  2
*PAPER_SPACE
  0
ENDTAB
  0
ENDSEC
  0
SECTION
  2
BLOCKS
  0
BLOCK
  5
20
330
1F
100
AcDbEntity
  8
0
100
AcDbBlockBegin
  2
*MODEL_SPACE
 70
     0
 10
0.0
 20
0.0
 30
0.0
  3
*MODEL_SPACE
  1

  0
ENDBLK
  5
21
330
1F
100
AcDbEntity
  8
0
100
AcDbBlockEnd
  0
BLOCK
  5
1C
330
1B
100
AcDbEntity
 67
     1
  8
0
100
AcDbBlockBegin
  2
*PAPER_SPACE
 70
     0
 10
0.0
 20
0.0
 30
0.0
  3
*PAPER_SPACE
  1

  0
ENDBLK
  5
1D
330
1B
100
AcDbEntity
 67
     1
  8
0
100
AcDbBlockEnd
  0
ENDSEC
  0
SECTION
  2
ENTITIES
  0
TEXT
  5
5F8
330
1F
100
AcDbEntity
  8
NOTE
100
AcDbText
 10
-280.5925212993197
 20
-4103.363686020498
 30
0.0
 40
45.0
  1
Ceiling open dimension
 41
1.04
  7
KAIGAI
100
AcDbText
  0
LINE
  5
5F9
330
1F
100
AcDbEntity
  8
OUTLINE
  6
CONTINUOUS
100
AcDbLine
 10
-335.0000000000072
 20
-2592.227236735093
 30
0.0
 11
334.9999999999927
 21
-2592.227236735093
 31
0.0
  0
LINE
  5
5FA
330
1F
100
AcDbEntity
  8
OUTLINE
  6
CONTINUOUS
100
AcDbLine
 10
-430.0000000000072
 20
-2562.227236735093
 30
0.0
 11
-430.0000000000072
 21
-2550.227236735091
 31
0.0
  0
LINE
  5
5FB
330
1F
100
AcDbEntity
  8
OUTLINE
  6
CONTINUOUS
100
AcDbLine
 10
-430.0000000000072
 20
-2550.227236735091
 30
0.0
 11
429.9999999999926
 21
-2550.227236735093
 31
0.0
  0
LINE
  5
5FC
330
1F
100
AcDbEntity
  8
OUTLINE
  6
CONTINUOUS
100
AcDbLine
 10
429.9999999999926
 20
-2550.227236735093
 30
0.0
 11
429.9999999999926
 21
-2562.227236735095
 31
0.0
  0
LINE
  5
5FD
330
1F
100
AcDbEntity
  8
OUTLINE
100
AcDbLine
 10
-475.0000000000072
 20
-2562.227236735093
 30
0.0
 11
-475.0000000000072
 21
-2569.227236735093
 31
0.0
  0
LINE
  5
5FE
330
1F
100
AcDbEntity
  8
OUTLINE
100
AcDbLine
 10
-475.0000000000072
 20
-2569.227236735093
 30
0.0
 11
-420.0000000000054
 21
-2577.227236735093
 31
0.0
  0
LINE
  5
5FF
330
1F
100
AcDbEntity
  8
OUTLINE
100
AcDbLine
 10
474.9999999999945
 20
-2562.227236735097
 30
0.0
 11
474.9999999999945
 21
-2569.227236735097
 31
0.0
  0
LINE
  5
600
330
1F
100
AcDbEntity
  8
OUTLINE
100
AcDbLine
 10
474.9999999999945
 20
-2569.227236735097
 30
0.0
 11
419.9999999999927
 21
-2577.227236735097
 31
0.0
  0
LINE
  5
601
330
1F
100
AcDbEntity
  8
OUTLINE
100
AcDbLine
 10
420.0000000000145
 20
-2577.227236735093
 30
0.0
 11
-420.0000000000054
 21
-2577.227236735093
 31
0.0
  0
LINE
  5
602
330
1F
100
AcDbEntity
  8
OUTLINE
100
AcDbLine
 10
-345.0000000000045
 20
-2577.227236735093
 30
0.0
 11
-345.0000000000045
 21
-2592.227236735093
 31
0.0
  0
LINE
  5
603
330
1F
100
AcDbEntity
  8
OUTLINE
100
AcDbLine
 10
-345.0000000000045
 20
-2592.227236735093
 30
0.0
 11
344.9999999999954
 21
-2592.227236735093
 31
0.0
  0
LINE
  5
604
330
1F
100
AcDbEntity
  8
OUTLINE
100
AcDbLine
 10
344.9999999999954
 20
-2592.227236735093
 30
0.0
 11
344.9999999999954
 21
-2577.227236735093
 31
0.0
  0
LINE
  5
605
330
1F
100
AcDbEntity
  8
OUTLINE
100
AcDbLine
 10
474.9999999999945
 20
-2562.227236735097
 30
0.0
 11
-475.0000000000072
 21
-2562.227236735093
 31
0.0
  0
LINE
  5
606
330
1F
100
AcDbEntity
  8
OUTLINE
  6
CONTINUOUS
100
AcDbLine
 10
419.9999999999927
 20
-2550.227236735093
 30
0.0
 11
419.9999999999927
 21
-2306.227236735095
 31
0.0
  0
LINE
  5
607
330
1F
100
AcDbEntity
  8
OUTLINE
  6
CONTINUOUS
100
AcDbLine
 10
419.9999999999927
 20
-2306.227236735095
 30
0.0
 11
-420.0000000000073
 21
-2306.227236735093
 31
0.0
  0
LINE
  5
608
330
1F
100
AcDbEntity
  8
OUTLINE
  6
CONTINUOUS
100
AcDbLine
 10
-420.0000000000073
 20
-2306.227236735093
 30
0.0
 11
-420.0000000000073
 21
-2550.227236735091
 31
0.0
  0
LINE
  5
609
330
1F
100
AcDbEntity
  8
OUTLINE
  6
CONTINUOUS
100
AcDbLine
 10
-334.9999999999954
 20
2705.000000000001
 30
0.0
 11
335.0000000000036
 21
2704.999999999997
 31
0.0
  0
LINE
  5
60A
330
1F
100
AcDbEntity
  8
OUTLINE
  6
CONTINUOUS
100
AcDbLine
 10
-429.9999999999954
 20
2675.000000000001
 30
0.0
 11
-429.9999999999954
 21
2662.999999999999
 31
0.0
  0
LINE
  5
60B
330
1F
100
AcDbEntity
  8
OUTLINE
  6
CONTINUOUS
100
AcDbLine
 10
-429.9999999999954
 20
2662.999999999999
 30
0.0
 11
430.0000000000036
 21
2662.999999999997
 31
0.0
  0
LINE
  5
60C
330
1F
100
AcDbEntity
  8
OUTLINE
  6
CONTINUOUS
100
AcDbLine
 10
430.0000000000036
 20
2662.999999999997
 30
0.0
 11
430.0000000000036
 21
2674.999999999999
 31
0.0
  0
LINE
  5
60D
330
1F
100
AcDbEntity
  8
OUTLINE
100
AcDbLine
 10
-474.9999999999963
 20
2675.000000000001
 30
0.0
 11
-474.9999999999963
 21
2682.000000000001
 31
0.0
  0
LINE
  5
60E
330
1F
100
AcDbEntity
  8
OUTLINE
100
AcDbLine
 10
-474.9999999999963
 20
2682.000000000001
 30
0.0
 11
-419.9999999999945
 21
2690.000000000001
 31
0.0
  0
LINE
  5
60F
330
1F
100
AcDbEntity
  8
OUTLINE
100
AcDbLine
 10
475.0000000000055
 20
2675.000000000001
 30
0.0
 11
475.0000000000055
 21
2682.000000000001
 31
0.0
  0
LINE
  5
610
330
1F
100
AcDbEntity
  8
OUTLINE
100
AcDbLine
 10
475.0000000000055
 20
2682.000000000001
 30
0.0
 11
420.0000000000036
 21
2690.000000000001
 31
0.0
  0
LINE
  5
611
330
1F
100
AcDbEntity
  8
OUTLINE
100
AcDbLine
 10
420.0000000000255
 20
2689.999999999997
 30
0.0
 11
-419.9999999999945
 21
2690.000000000001
 31
0.0
  0
LINE
  5
612
330
1F
100
AcDbEntity
  8
OUTLINE
100
AcDbLine
 10
-344.9999999999936
 20
2690.000000000001
 30
0.0
 11
-344.9999999999936
 21
2705.000000000001
 31
0.0
  0
LINE
  5
613
330
1F
100
AcDbEntity
  8
OUTLINE
100
AcDbLine
 10
-344.9999999999936
 20
2705.000000000001
 30
0.0
 11
345.0000000000063
 21
2704.999999999997
 31
0.0
  0
LINE
  5
614
330
1F
100
AcDbEntity
  8
OUTLINE
100
AcDbLine
 10
345.0000000000063
 20
2704.999999999997
 30
0.0
 11
345.0000000000063
 21
2689.999999999997
 31
0.0
  0
LINE
  5
615
330
1F
100
AcDbEntity
  8
OUTLINE
100
AcDbLine
 10
475.0000000000055
 20
2675.000000000001
 30
0.0
 11
-474.9999999999963
 21
2675.000000000001
 31
0.0
  0
LINE
  5
616
330
1F
100
AcDbEntity
  8
OUTLINE
  6
CONTINUOUS
100
AcDbLine
 10
420.0000000000036
 20
2662.999999999997
 30
0.0
 11
420.0000000000027
 21
2418.999999999999
 31
0.0
  0
LINE
  5
617
330
1F
100
AcDbEntity
  8
OUTLINE
  6
CONTINUOUS
100
AcDbLine
 10
420.0000000000027
 20
2418.999999999999
 30
0.0
 11
-419.9999999999972
 21
2419.0
 31
0.0
  0
LINE
  5
618
330
1F
100
AcDbEntity
  8
OUTLINE
  6
CONTINUOUS
100
AcDbLine
 10
-419.9999999999972
 20
2419.0
 30
0.0
 11
-419.9999999999954
 21
2662.999999999999
 31
0.0
  0
LINE
  5
619
330
1F
100
AcDbEntity
  8
OUTLINE
100
AcDbLine
 10
-459.999999999999
 20
475.0000000000027
 30
0.0
 11
460.0000000000027
 21
475.0000000000008
 31
0.0
  0
LINE
  5
61A
330
1F
100
AcDbEntity
  8
OUTLINE
100
AcDbLine
 10
459.9999999999972
 20
-475.0000000000018
 30
0.0
 11
-460.0000000000036
 21
-474.9999999999972
 31
0.0
  0
LINE
  5
61B
330
1F
100
AcDbEntity
  8
OUTLINE
100
AcDbLine
 10
459.9999999999891
 20
-3856.487236735095
 30
0.0
 11
-460.0000000000127
 21
-3856.487236735091
 31
0.0
  0
LINE
  5
61C
330
1F
100
AcDbEntity
  8
OUTLINE
100
AcDbLine
 10
-460.00000000001
 20
-2906.487236735092
 30
0.0
 11
459.9999999999909
 21
-2906.487236735095
 31
0.0
  0
LINE
  5
61D
330
1F
100
AcDbEntity
  8
OUTLINE
100
AcDbLine
 10
-475.0000000000109
 20
-3841.487236735091
 30
0.0
 11
-475.0000000000109
 21
-2921.487236735091
 31
0.0
  0
ARC
  5
61E
330
1F
100
AcDbEntity
  8
OUTLINE
100
AcDbCircle
 10
-460.0000000000108
 20
-3841.487236735093
 30
0.0
 40
15.0
100
AcDbArc
 50
180.0
 51
270.0
  0
ARC
  5
61F
330
1F
100
AcDbEntity
  8
OUTLINE
100
AcDbCircle
 10
-460.00000000001
 20
-2921.487236735091
 30
0.0
 40
15.0
100
AcDbArc
 50
90.0
 51
180.0
  0
LINE
  5
620
330
1F
100
AcDbEntity
  8
OUTLINE
100
AcDbLine
 10
-475.0000000000036
 20
-459.9999999999972
 30
0.0
 11
-474.9999999999972
 21
460.0000000000027
 31
0.0
  0
ARC
  5
621
330
1F
100
AcDbEntity
  8
OUTLINE
100
AcDbCircle
 10
-460.0000000000018
 20
-459.9999999999977
 30
0.0
 40
15.0
100
AcDbArc
 50
180.0
 51
270.0
  0
ARC
  5
622
330
1F
100
AcDbEntity
  8
OUTLINE
100
AcDbCircle
 10
-459.9999999999964
 20
460.0000000000018
 30
0.0
 40
15.0
100
AcDbArc
 50
90.0
 51
180.0
  0
LINE
  5
623
330
1F
100
AcDbEntity
  8
OUTLINE
100
AcDbLine
 10
474.999999999989
 20
-2921.487236735095
 30
0.0
 11
474.9999999999872
 21
-3841.487236735094
 31
0.0
  0
ARC
  5
624
330
1F
100
AcDbEntity
  8
OUTLINE
100
AcDbCircle
 10
459.9999999999872
 20
-3841.487236735094
 30
0.0
 40
15.0
100
AcDbArc
 50
270.0
 51
0.0
  0
ARC
  5
625
330
1F
100
AcDbEntity
  8
OUTLINE
100
AcDbCircle
 10
459.9999999999891
 20
-2921.487236735092
 30
0.0
 40
15.0
100
AcDbArc
 50
0.0
 51
90.0
  0
LINE
  5
626
330
1F
100
AcDbEntity
  8
OUTLINE
100
AcDbLine
 10
475.0000000000027
 20
459.999999999999
 30
0.0
 11
474.9999999999972
 21
-460.0000000000018
 31
0.0
  0
ARC
  5
627
330
1F
100
AcDbEntity
  8
OUTLINE
100
AcDbCircle
 10
459.9999999999972
 20
-460.0000000000009
 30
0.0
 40
15.0
100
AcDbArc
 50
270.0
 51
0.0
  0
ARC
  5
628
330
1F
100
AcDbEntity
  8
OUTLINE
100
AcDbCircle
 10
460.0
 20
459.999999999999
 30
0.0
 40
15.0
100
AcDbArc
 50
0.0
 51
90.0
  0
LINE
  5
629
330
1F
100
AcDbEntity
  8
SIZE
100
AcDbLine
 10
-475.0000000000036
 20
-651.939999999996
 30
0.0
 11
474.9999999999954
 21
-651.9400000000023
 31
0.0
  0
LINE
  5
62A
330
1F
100
AcDbEntity
  8
SIZE
100
AcDbLine
 10
256.4999999999927
 20
-2095.547236735093
 30
0.0
 11
-223.5000000000072
 21
-2095.547236735093
 31
0.0
  0
LINE
  5
62B
330
1F
100
AcDbEntity
  8
BASIS
100
AcDbLine
 10
-1208.643948607911
 20
0.000000000005457
 30
0.0
 11
474.9999999999991
 21
-0.000000000001819
 31
0.0
  0
TEXT
  5
62C
330
1F
100
AcDbEntity
  8
NOTE
100
AcDbText
 10
-930.8479323659986
 20
-2720.544541189718
 30
0.0
 40
45.0
  1
Knockout square hole
  7
KAIGAI
100
AcDbText
  0
LINE
  5
62D
330
1F
100
AcDbEntity
  8
BASIS
100
AcDbLine
 10
-475.0000000000118
 20
-3381.487236735093
 30
0.0
 11
474.999999999989
 21
-3381.487236735095
 31
0.0
  0
LINE
  5
62E
330
1F
100
AcDbEntity
  8
SIZE
100
AcDbLine
 10
-455.0000000000127
 20
-4065.001236735091
 30
0.0
 11
454.9999999999872
 21
-4065.001236735096
 31
0.0
  0
LINE
  5
62F
330
1F
100
AcDbEntity
  8
BASIS
100
AcDbLine
 10
0.000000000001819
 20
475.0000000000008
 30
0.0
 11
-0.0000000000045475
 21
-1171.227036302679
 31
0.0
  0
LINE
  5
630
330
1F
100
AcDbEntity
  8
BASIS
100
AcDbLine
 10
-0.0000000000081855
 20
-2906.487236735092
 30
0.0
 11
-0.0000000000127329
 21
-3856.487236735093
 31
0.0
  0
LINE
  5
631
330
1F
100
AcDbEntity
  8
SIZE
100
AcDbLine
 10
-455.0000000000127
 20
-4085.001236735091
 30
0.0
 11
-455.0000000000127
 21
-3856.486236735092
 31
0.0
  0
TEXT
  5
632
330
1F
100
AcDbEntity
  8
SIZE
100
AcDbText
 10
-131.1675253801604
 20
-4054.461736802343
 30
0.0
 40
40.0
  1
860 to 910
  7
KAIGAI
100
AcDbText
  0
LINE
  5
633
330
1F
100
AcDbEntity
  8
SIZE
100
AcDbLine
 10
-455.0000000000127
 20
-4065.001236735091
 30
0.0
 11
-435.0000000000127
 21
-4061.476236735093
 31
0.0
  0
LINE
  5
634
330
1F
100
AcDbEntity
  8
SIZE
100
AcDbLine
 10
-435.0000000000127
 20
-4068.527236735092
 30
0.0
 11
-455.0000000000127
 21
-4065.001236735091
 31
0.0
  0
CIRCLE
  5
635
330
1F
100
AcDbEntity
  8
ARRANGE
100
AcDbCircle
 10
-0.0000000000109139
 20
-3381.487236735093
 30
0.0
 40
20.0
  0
POINT
  5
636
330
1F
100
AcDbEntity
  8
ARRANGE
100
AcDbPoint
 10
-0.0000000000109139
 20
-3381.487236735093
 30
0.0
  0
LINE
  5
637
330
1F
100
AcDbEntity
  8
BASIS
100
AcDbLine
 10
-345.0000000000018
 20
-2461.202236735097
 30
0.0
 11
-345.0000000000018
 21
-2399.252236735097
 31
0.0
  0
CIRCLE
  5
638
330
1F
100
AcDbEntity
  8
FIX
100
AcDbCircle
 10
-345.0000000000027
 20
-2430.392236735095
 30
0.0
 40
20.0
  0
LINE
  5
639
330
1F
100
AcDbEntity
  8
BASIS
100
AcDbLine
 10
-0.000000000007276
 20
-2592.227236735093
 30
0.0
 11
-0.000000000007276
 21
-2306.217236735093
 31
0.0
  0
CIRCLE
  5
63A
330
1F
100
AcDbEntity
  8
ARRANGE
100
AcDbCircle
 10
-0.0000000000081855
 20
-2562.227236735092
 30
0.0
 40
20.0
  0
POINT
  5
63B
330
1F
100
AcDbEntity
  8
ARRANGE
100
AcDbPoint
 10
-0.000000000007276
 20
-2562.227236735093
 30
0.0
  0
LINE
  5
63C
330
1F
100
AcDbEntity
  8
SIZE
100
AcDbLine
 10
-223.5000000000072
 20
-2325.217236735093
 30
0.0
 11
-223.5000000000072
 21
-2075.547236735093
 31
0.0
  0
LINE
  5
63D
330
1F
100
AcDbEntity
  8
SIZE
100
AcDbLine
 10
-223.5000000000072
 20
-2095.547236735093
 30
0.0
 11
-203.5000000000072
 21
-2092.027236735092
 31
0.0
  0
LINE
  5
63E
330
1F
100
AcDbEntity
  8
SIZE
100
AcDbLine
 10
-203.5000000000072
 20
-2099.077236735094
 30
0.0
 11
-223.5000000000072
 21
-2095.547236735093
 31
0.0
  0
TEXT
  5
63F
330
1F
100
AcDbEntity
  8
SIZE
100
AcDbText
 10
-29.34734367715191
 20
-2091.140081363995
 30
0.0
 40
40.0
  1
480
  7
KAIGAI
100
AcDbText
  0
CIRCLE
  5
640
330
1F
100
AcDbEntity
  8
FIX
100
AcDbCircle
 10
-345.0017935582236
 20
-389.9980912091336
 30
0.0
 40
20.0
  0
TEXT
  5
641
330
1F
100
AcDbEntity
  8
SIZE
100
AcDbText
 10
-382.1205202050096
 20
-647.7505117221367
 30
0.0
 40
40.0
  1
950
  7
KAIGAI
100
AcDbText
  0
LINE
  5
642
330
1F
100
AcDbEntity
  8
SIZE
100
AcDbLine
 10
-475.0000000000036
 20
-681.9399999999959
 30
0.0
 11
-475.0000000000036
 21
-519.9999999999972
 31
0.0
  0
LINE
  5
643
330
1F
100
AcDbEntity
  8
SIZE
100
AcDbLine
 10
-475.0000000000036
 20
-651.939999999996
 30
0.0
 11
-455.0000000000036
 21
-648.4099999999953
 31
0.0
  0
LINE
  5
644
330
1F
100
AcDbEntity
  8
SIZE
100
AcDbLine
 10
-455.0000000000036
 20
-655.4699999999984
 30
0.0
 11
-475.0000000000036
 21
-651.939999999996
 31
0.0
  0
CIRCLE
  5
645
330
1F
100
AcDbEntity
  8
ARRANGE
100
AcDbCircle
 10
-0.0000000000009095
 20
-0.0000000000009095
 30
0.0
 40
20.0
  0
POINT
  5
646
330
1F
100
AcDbEntity
  8
ARRANGE
100
AcDbPoint
 10
-0.0000000000009095
 20
0.0000000000009095
 30
0.0
  0
LINE
  5
647
330
1F
100
AcDbEntity
  8
SIZE
100
AcDbLine
 10
683.5199999999876
 20
-2926.487236735095
 30
0.0
 11
687.039999999989
 21
-2946.487236735095
 31
0.0
  0
LINE
  5
648
330
1F
100
AcDbEntity
  8
SIZE
100
AcDbLine
 10
679.9899999999906
 20
-2946.487236735095
 30
0.0
 11
683.5199999999876
 21
-2926.487236735095
 31
0.0
  0
LINE
  5
649
330
1F
100
AcDbEntity
  8
SIZE
100
AcDbLine
 10
683.5199999999876
 20
-3836.486236735095
 30
0.0
 11
683.5199999999876
 21
-2926.487236735095
 31
0.0
  0
LINE
  5
64A
330
1F
100
AcDbEntity
  8
SIZE
100
AcDbLine
 10
454.999999999989
 20
-3856.486236735095
 30
0.0
 11
454.9999999999872
 21
-4085.001236735096
 31
0.0
  0
LINE
  5
64B
330
1F
100
AcDbEntity
  8
SIZE
100
AcDbLine
 10
454.9999999999872
 20
-4065.001236735095
 30
0.0
 11
434.9999999999891
 21
-4068.527236735095
 31
0.0
  0
LINE
  5
64C
330
1F
100
AcDbEntity
  8
SIZE
100
AcDbLine
 10
434.9999999999891
 20
-4061.476236735095
 30
0.0
 11
454.9999999999872
 21
-4065.001236735095
 31
0.0
  0
TEXT
  5
64D
330
1F
100
AcDbEntity
  8
SIZE
100
AcDbText
 10
670.5624658946017
 20
-3497.465815198006
 30
0.0
 40
40.0
  1
860 to 910
 50
90.0
  7
KAIGAI
100
AcDbText
  0
LINE
  5
64E
330
1F
100
AcDbEntity
  8
SIZE
100
AcDbLine
 10
703.5199999999877
 20
-3836.486236735095
 30
0.0
 11
474.999999999989
 21
-3836.486236735095
 31
0.0
  0
LINE
  5
64F
330
1F
100
AcDbEntity
  8
SIZE
100
AcDbLine
 10
683.5199999999876
 20
-3836.486236735095
 30
0.0
 11
679.989999999987
 21
-3816.486236735095
 31
0.0
  0
LINE
  5
650
330
1F
100
AcDbEntity
  8
SIZE
100
AcDbLine
 10
687.0399999999881
 20
-3816.486236735095
 30
0.0
 11
683.5199999999876
 21
-3836.486236735095
 31
0.0
  0
LINE
  5
651
330
1F
100
AcDbEntity
  8
BASIS
100
AcDbLine
 10
344.9999999999954
 20
-2461.202236735099
 30
0.0
 11
344.9999999999954
 21
-2399.252236735098
 31
0.0
  0
CIRCLE
  5
652
330
1F
100
AcDbEntity
  8
FIX
100
AcDbCircle
 10
344.9999999999927
 20
-2430.392236735095
 30
0.0
 40
20.0
  0
LINE
  5
653
330
1F
100
AcDbEntity
  8
SIZE
100
AcDbLine
 10
474.999999999989
 20
-2926.487236735095
 30
0.0
 11
703.5199999999877
 21
-2926.487236735095
 31
0.0
  0
LINE
  5
654
330
1F
100
AcDbEntity
  8
SIZE
100
AcDbLine
 10
256.4999999999927
 20
-2075.547236735093
 30
0.0
 11
256.4999999999927
 21
-2325.217236735093
 31
0.0
  0
LINE
  5
655
330
1F
100
AcDbEntity
  8
SIZE
100
AcDbLine
 10
256.4999999999927
 20
-2095.547236735093
 30
0.0
 11
236.4999999999927
 21
-2099.077236735094
 31
0.0
  0
LINE
  5
656
330
1F
100
AcDbEntity
  8
SIZE
100
AcDbLine
 10
236.4999999999927
 20
-2092.027236735092
 30
0.0
 11
256.4999999999927
 21
-2095.547236735093
 31
0.0
  0
LINE
  5
657
330
1F
100
AcDbEntity
  8
SIZE
100
AcDbLine
 10
820.6700000000019
 20
474.9999999999991
 30
0.0
 11
820.6699999999955
 21
-475.0000000000018
 31
0.0
  0
LINE
  5
658
330
1F
100
AcDbEntity
  8
SIZE
100
AcDbLine
 10
479.9999999999954
 20
-475.0000000000018
 30
0.0
 11
850.6699999999973
 21
-475.0000000000018
 31
0.0
  0
TEXT
  5
659
330
1F
100
AcDbEntity
  8
SIZE
100
AcDbText
 10
813.5420390826775
 20
-430.2215167253816
 30
0.0
 40
40.0
  1
950
 50
90.0
  7
KAIGAI
100
AcDbText
  0
LINE
  5
65A
330
1F
100
AcDbEntity
  8
SIZE
100
AcDbLine
 10
474.9999999999954
 20
-475.0000000000018
 30
0.0
 11
474.9999999999954
 21
-681.9400000000022
 31
0.0
  0
LINE
  5
65B
330
1F
100
AcDbEntity
  8
SIZE
100
AcDbLine
 10
474.9999999999954
 20
-651.9400000000023
 30
0.0
 11
454.9999999999973
 21
-655.4700000000011
 31
0.0
  0
LINE
  5
65C
330
1F
100
AcDbEntity
  8
SIZE
100
AcDbLine
 10
454.9999999999973
 20
-648.4100000000016
 30
0.0
 11
474.9999999999954
 21
-651.9400000000023
 31
0.0
  0
LINE
  5
65D
330
1F
100
AcDbEntity
  8
SIZE
100
AcDbLine
 10
820.6699999999955
 20
-475.0000000000018
 30
0.0
 11
817.1499999999969
 21
-455.0000000000018
 31
0.0
  0
LINE
  5
65E
330
1F
100
AcDbEntity
  8
SIZE
100
AcDbLine
 10
824.1999999999979
 20
-455.0000000000018
 30
0.0
 11
820.6699999999955
 21
-475.0000000000018
 31
0.0
  0
LINE
  5
65F
330
1F
100
AcDbEntity
  8
SIZE
100
AcDbLine
 10
850.6700000000019
 20
474.9999999999991
 30
0.0
 11
480.0000000000027
 21
474.9999999999991
 31
0.0
  0
LINE
  5
660
330
1F
100
AcDbEntity
  8
BASIS
100
AcDbLine
 10
335.0000000000008
 20
313.5000000000009
 30
0.0
 11
419.5800000000026
 21
313.5000000000009
 31
0.0
  0
LINE
  5
661
330
1F
100
AcDbEntity
  8
BASIS
100
AcDbLine
 10
335.0
 20
241.5000000000009
 30
0.0
 11
424.0800000000026
 21
241.4999999999991
 31
0.0
  0
LINE
  5
662
330
1F
100
AcDbEntity
  8
SIZE
100
AcDbLine
 10
820.6700000000019
 20
474.9999999999991
 30
0.0
 11
824.2000000000007
 21
454.999999999999
 31
0.0
  0
LINE
  5
663
330
1F
100
AcDbEntity
  8
SIZE
100
AcDbLine
 10
817.1500000000014
 20
454.999999999999
 30
0.0
 11
820.6700000000019
 21
474.9999999999991
 31
0.0
  0
LINE
  5
664
330
1F
100
AcDbEntity
  8
BASIS
100
AcDbLine
 10
-345.0000000000018
 20
-364.9999999999991
 30
0.0
 11
-345.0000000000018
 21
-414.999999999999
 31
0.0
  0
LINE
  5
665
330
1F
100
AcDbEntity
  8
BASIS
100
AcDbLine
 10
-320.0000000000018
 20
-389.9999999999991
 30
0.0
 11
-370.0000000000018
 21
-389.9999999999991
 31
0.0
  0
CIRCLE
  5
666
330
1F
100
AcDbEntity
  8
FIX
100
AcDbCircle
 10
345.0017935582209
 20
-389.998091209155
 30
0.0
 40
20.0
  0
LINE
  5
667
330
1F
100
AcDbEntity
  8
BASIS
100
AcDbLine
 10
344.999999999999
 20
-365.0000000000181
 30
0.0
 11
344.9999999999972
 21
-415.0000000000181
 31
0.0
  0
LINE
  5
668
330
1F
100
AcDbEntity
  8
BASIS
100
AcDbLine
 10
319.9999999999972
 20
-390.0000000000181
 30
0.0
 11
369.9999999999972
 21
-390.00000000002
 31
0.0
  0
CIRCLE
  5
669
330
1F
100
AcDbEntity
  8
FIX
100
AcDbCircle
 10
-345.00179355822
 20
389.9980912091377
 30
0.0
 40
20.0
  0
LINE
  5
66A
330
1F
100
AcDbEntity
  8
BASIS
100
AcDbLine
 10
-344.999999999999
 20
365.0000000000036
 30
0.0
 11
-344.999999999999
 21
415.0000000000036
 31
0.0
  0
LINE
  5
66B
330
1F
100
AcDbEntity
  8
BASIS
100
AcDbLine
 10
-319.999999999999
 20
390.0000000000036
 30
0.0
 11
-369.999999999999
 21
390.0000000000036
 31
0.0
  0
LINE
  5
66C
330
1F
100
AcDbEntity
  8
BASIS
 48
0.5
100
AcDbLine
 10
445.0170021075019
 20
-323.0
 30
0.0
 11
321.3710099490081
 21
-323.0
 31
0.0
  0
LINE
  5
66D
330
1F
100
AcDbEntity
  8
SIZE
100
AcDbLine
 10
-345.0000000000018
 20
-394.999999999999
 30
0.0
 11
-345.0000000000018
 21
-605.8599999999996
 31
0.0
  0
LINE
  5
66E
330
1F
100
AcDbEntity
  8
SIZE
100
AcDbLine
 10
344.9999999999972
 20
-395.0000000000181
 30
0.0
 11
344.9999999999972
 21
-605.8600000000015
 31
0.0
  0
LINE
  5
66F
330
1F
100
AcDbEntity
  8
SIZE
100
AcDbLine
 10
-330.0000000000018
 20
-600.8599999999996
 30
0.0
 11
329.9999999999972
 21
-600.8600000000015
 31
0.0
  0
CIRCLE
  5
670
330
1F
100
AcDbEntity
  8
FIX
100
AcDbCircle
 10
345.0017935582236
 20
389.9980912091532
 30
0.0
 40
20.0
  0
LINE
  5
671
330
1F
100
AcDbEntity
  8
BASIS
100
AcDbLine
 10
345.0000000000045
 20
365.0000000000172
 30
0.0
 11
345.0000000000018
 21
415.0000000000172
 31
0.0
  0
LINE
  5
672
330
1F
100
AcDbEntity
  8
BASIS
100
AcDbLine
 10
320.0000000000027
 20
390.0000000000154
 30
0.0
 11
370.0000000000027
 21
390.000000000019
 31
0.0
  0
LINE
  5
673
330
1F
100
AcDbEntity
  8
SIZE
100
AcDbLine
 10
350.0000000000027
 20
390.0000000000173
 30
0.0
 11
741.670000000001
 21
390.0000000000163
 31
0.0
  0
LINE
  5
674
330
1F
100
AcDbEntity
  8
SIZE
100
AcDbLine
 10
349.9999999999972
 20
-390.0000000000181
 30
0.0
 11
741.6699999999973
 21
-390.00000000002
 31
0.0
  0
LINE
  5
675
330
1F
100
AcDbEntity
  8
SIZE
100
AcDbLine
 10
736.6700000000009
 20
375.0000000000163
 30
0.0
 11
736.6699999999973
 21
-375.00000000002
 31
0.0
  0
LINE
  5
676
330
1F
100
AcDbEntity
  8
SIZE
100
AcDbLine
 10
-420.0000000000036
 20
-273.9999999999972
 30
0.0
 11
-420.0000000000036
 21
-569.8628407492715
 31
0.0
  0
LINE
  5
677
330
1F
100
AcDbEntity
  8
SIZE
100
AcDbLine
 10
-265.7041499703809
 20
-423.5383084802242
 30
0.0
 11
-207.4249294824512
 21
-481.9091081616289
 31
0.0
  0
ARC
  5
678
330
1F
100
AcDbEntity
  8
SIZE
100
AcDbCircle
 10
-420.0000000000027
 20
-268.9999999999977
 30
0.0
 40
295.8628407492739
100
AcDbArc
 50
272.9051595767049
 51
312.04985886057
  0
TEXT
  5
679
330
1F
100
AcDbEntity
  8
SIZE
100
AcDbText
 10
-323.8841070377857
 20
-526.4094516232867
 30
0.0
 40
40.0
  1
45°
 50
22.47750921860971
  7
KAIGAI
100
AcDbText
  0
LINE
  5
67A
330
1F
100
AcDbEntity
  8
SIZE
100
AcDbLine
 10
-224.6046475705607
 20
-485.7812470442595
 30
0.0
 11
-210.9576866349834
 21
-478.3707996814018
 31
0.0
  0
LINE
  5
67B
330
1F
100
AcDbEntity
  8
SIZE
100
AcDbLine
 10
-210.9576866349834
 20
-478.3707996814018
 30
0.0
 11
-219.071077868286
 21
-491.6119157820258
 31
0.0
  0
LINE
  5
67C
330
1F
100
AcDbEntity
  8
SIZE
100
AcDbLine
 10
-210.9576866349834
 20
-478.3707996814018
 30
0.0
 11
-221.8378627194233
 21
-488.6965814131427
 31
0.0
  0
LINE
  5
67D
330
1F
100
AcDbEntity
  8
SIZE
100
AcDbLine
 10
-404.9029342767698
 20
-568.500543244424
 30
0.0
 11
-420.0000000000036
 21
-564.8628407492715
 31
0.0
  0
LINE
  5
67E
330
1F
100
AcDbEntity
  8
SIZE
100
AcDbLine
 10
-420.0000000000036
 20
-564.8628407492715
 30
0.0
 11
-405.1067062935508
 21
-560.464650727431
 31
0.0
  0
LINE
  5
67F
330
1F
100
AcDbEntity
  8
SIZE
100
AcDbLine
 10
-420.0000000000036
 20
-564.8628407492715
 30
0.0
 11
-405.0048202851612
 21
-564.4825969859275
 31
0.0
  0
LINE
  5
680
330
1F
100
AcDbEntity
  8
SIZE
100
AcDbLine
 10
0.000000000001819
 20
480.0000000000009
 30
0.0
 11
0.000000000001819
 21
557.2662820657106
 31
0.0
  0
LINE
  5
681
330
1F
100
AcDbEntity
  8
SIZE
100
AcDbLine
 10
408.0000000000027
 20
253.499999999999
 30
0.0
 11
408.0000000000027
 21
557.2662820657106
 31
0.0
  0
LINE
  5
682
330
1F
100
AcDbEntity
  8
SIZE
100
AcDbLine
 10
15.00000000000182
 20
552.2662820657106
 30
0.0
 11
393.0000000000027
 21
552.2662820657106
 31
0.0
  0
LINE
  5
683
330
1F
100
AcDbEntity
  8
SIZE
100
AcDbLine
 10
464.9999999999972
 20
-475.0000000000018
 30
0.0
 11
741.6699999999973
 21
-475.0000000000018
 31
0.0
  0
TEXT
  5
684
330
1F
100
AcDbEntity
  8
SIZE
100
AcDbText
 10
724.2196923641486
 20
-305.6612694954083
 30
0.0
 40
40.0
  1
780
 50
90.0
  7
KAIGAI
100
AcDbText
  0
LINE
  5
685
330
1F
100
AcDbEntity
  8
SIZE
100
AcDbLine
 10
740.689237849997
 20
-375.00000000002
 30
0.0
 11
736.6699999999973
 21
-390.00000000002
 31
0.0
  0
LINE
  5
686
330
1F
100
AcDbEntity
  8
SIZE
100
AcDbLine
 10
736.6699999999973
 20
-390.00000000002
 30
0.0
 11
732.6507621499977
 21
-375.00000000002
 31
0.0
  0
LINE
  5
687
330
1F
100
AcDbEntity
  8
SIZE
100
AcDbLine
 10
736.6699999999973
 20
-390.00000000002
 30
0.0
 11
736.6699999999973
 21
-375.00000000002
 31
0.0
  0
LINE
  5
688
330
1F
100
AcDbEntity
  8
SIZE
100
AcDbLine
 10
732.6507621499995
 20
375.0000000000163
 30
0.0
 11
736.6700000000009
 21
390.0000000000163
 31
0.0
  0
LINE
  5
689
330
1F
100
AcDbEntity
  8
SIZE
100
AcDbLine
 10
736.6700000000009
 20
390.0000000000163
 30
0.0
 11
740.6892378500006
 21
375.0000000000163
 31
0.0
  0
LINE
  5
68A
330
1F
100
AcDbEntity
  8
SIZE
100
AcDbLine
 10
736.6700000000009
 20
390.0000000000163
 30
0.0
 11
736.6700000000009
 21
375.0000000000163
 31
0.0
  0
LINE
  5
68B
330
1F
100
AcDbEntity
  8
SIZE
100
AcDbLine
 10
479.9999999999973
 20
-0.000000000001819
 30
0.0
 11
657.6600000000007
 21
-0.000000000001819
 31
0.0
  0
LINE
  5
68C
330
1F
100
AcDbEntity
  8
SIZE
100
AcDbLine
 10
421.4999999999973
 20
-323.0
 30
0.0
 11
657.6599999999989
 21
-323.0
 31
0.0
  0
LINE
  5
68D
330
1F
100
AcDbEntity
  8
SIZE
100
AcDbLine
 10
652.6600000000008
 20
-15.00000000000182
 30
0.0
 11
652.6599999999989
 21
-308.0
 31
0.0
  0
TEXT
  5
68E
330
1F
100
AcDbEntity
  8
SIZE
100
AcDbText
 10
-289.9701014732836
 20
-595.8600000000001
 30
0.0
 40
40.0
  1
690±20
  7
KAIGAI
100
AcDbText
  0
LINE
  5
68F
330
1F
100
AcDbEntity
  8
SIZE
100
AcDbLine
 10
329.9999999999972
 20
-596.8407621500018
 30
0.0
 11
344.9999999999972
 21
-600.8600000000015
 31
0.0
  0
LINE
  5
690
330
1F
100
AcDbEntity
  8
SIZE
100
AcDbLine
 10
344.9999999999972
 20
-600.8600000000015
 30
0.0
 11
329.9999999999972
 21
-604.8792378500011
 31
0.0
  0
LINE
  5
691
330
1F
100
AcDbEntity
  8
SIZE
100
AcDbLine
 10
344.9999999999972
 20
-600.8600000000015
 30
0.0
 11
329.9999999999972
 21
-600.8600000000015
 31
0.0
  0
LINE
  5
692
330
1F
100
AcDbEntity
  8
SIZE
100
AcDbLine
 10
-330.0000000000018
 20
-604.8792378499992
 30
0.0
 11
-345.0000000000018
 21
-600.8599999999996
 31
0.0
  0
LINE
  5
693
330
1F
100
AcDbEntity
  8
SIZE
100
AcDbLine
 10
-345.0000000000018
 20
-600.8599999999996
 30
0.0
 11
-330.0000000000018
 21
-596.84076215
 31
0.0
  0
LINE
  5
694
330
1F
100
AcDbEntity
  8
SIZE
100
AcDbLine
 10
-345.0000000000018
 20
-600.8599999999996
 30
0.0
 11
-330.0000000000018
 21
-600.8599999999996
 31
0.0
  0
LINE
  5
695
330
1F
100
AcDbEntity
  8
SIZE
100
AcDbLine
 10
-0.000000000003638
 20
-479.9999999999973
 30
0.0
 11
-0.000000000003638
 21
-554.0588572235511
 31
0.0
  0
LINE
  5
696
330
1F
100
AcDbEntity
  8
SIZE
100
AcDbLine
 10
416.4999999999972
 20
-343.0
 30
0.0
 11
416.4999999999972
 21
-554.0588572235519
 31
0.0
  0
LINE
  5
697
330
1F
100
AcDbEntity
  8
SIZE
100
AcDbLine
 10
14.99999999999636
 20
-549.058857223551
 30
0.0
 11
401.4999999999973
 21
-549.058857223552
 31
0.0
  0
LINE
  5
698
330
1F
100
AcDbEntity
  8
SIZE
100
AcDbLine
 10
-479.999999999999
 20
0.000000000003638
 30
0.0
 11
-578.1899999999995
 21
0.000000000003638
 31
0.0
  0
LINE
  5
699
330
1F
100
AcDbEntity
  8
SIZE
100
AcDbLine
 10
-425.0000000000036
 20
-268.9999999999972
 30
0.0
 11
-578.1900000000023
 21
-268.9999999999963
 31
0.0
  0
LINE
  5
69A
330
1F
100
AcDbEntity
  8
SIZE
100
AcDbLine
 10
-573.1899999999995
 20
-14.99999999999636
 30
0.0
 11
-573.1900000000014
 21
-253.9999999999963
 31
0.0
  0
TEXT
  5
69B
330
1F
100
AcDbEntity
  8
SIZE
100
AcDbText
 10
-578.1900000000014
 20
-174.4999999999968
 30
0.0
 40
40.0
  1
269
 50
90.0
  7
KAIGAI
100
AcDbText
  0
LINE
  5
69C
330
1F
100
AcDbEntity
  8
SIZE
100
AcDbLine
 10
-569.1707621500027
 20
-253.9999999999963
 30
0.0
 11
-573.1900000000023
 21
-268.9999999999963
 31
0.0
  0
LINE
  5
69D
330
1F
100
AcDbEntity
  8
SIZE
100
AcDbLine
 10
-573.1900000000023
 20
-268.9999999999963
 30
0.0
 11
-577.209237850001
 21
-253.9999999999963
 31
0.0
  0
LINE
  5
69E
330
1F
100
AcDbEntity
  8
SIZE
100
AcDbLine
 10
-573.1900000000023
 20
-268.9999999999963
 30
0.0
 11
-573.1900000000014
 21
-253.9999999999963
 31
0.0
  0
LINE
  5
69F
330
1F
100
AcDbEntity
  8
SIZE
100
AcDbLine
 10
-577.209237850001
 20
-14.99999999999636
 30
0.0
 11
-573.1899999999995
 21
0.000000000003638
 31
0.0
  0
LINE
  5
6A0
330
1F
100
AcDbEntity
  8
SIZE
100
AcDbLine
 10
-573.1899999999995
 20
0.000000000003638
 30
0.0
 11
-569.1707621499999
 21
-14.99999999999636
 31
0.0
  0
LINE
  5
6A1
330
1F
100
AcDbEntity
  8
SIZE
100
AcDbLine
 10
-573.1899999999995
 20
0.000000000003638
 30
0.0
 11
-573.1899999999995
 21
-14.99999999999636
 31
0.0
  0
TEXT
  5
6A2
330
1F
100
AcDbEntity
  8
SIZE
100
AcDbText
 10
153.2499999999972
 20
-544.0588572235529
 30
0.0
 40
40.0
  1
416.5
  7
KAIGAI
100
AcDbText
  0
LINE
  5
6A3
330
1F
100
AcDbEntity
  8
SIZE
100
AcDbLine
 10
401.4999999999973
 20
-545.0396193735523
 30
0.0
 11
416.4999999999972
 21
-549.058857223552
 31
0.0
  0
LINE
  5
6A4
330
1F
100
AcDbEntity
  8
SIZE
100
AcDbLine
 10
416.4999999999972
 20
-549.058857223552
 30
0.0
 11
401.4999999999973
 21
-553.0780950735516
 31
0.0
  0
LINE
  5
6A5
330
1F
100
AcDbEntity
  8
SIZE
100
AcDbLine
 10
416.4999999999972
 20
-549.058857223552
 30
0.0
 11
401.4999999999973
 21
-549.058857223552
 31
0.0
  0
LINE
  5
6A6
330
1F
100
AcDbEntity
  8
SIZE
100
AcDbLine
 10
14.99999999999636
 20
-553.0780950735507
 30
0.0
 11
-0.000000000003638
 21
-549.058857223551
 31
0.0
  0
LINE
  5
6A7
330
1F
100
AcDbEntity
  8
SIZE
100
AcDbLine
 10
-0.000000000003638
 20
-549.058857223551
 30
0.0
 11
14.99999999999636
 21
-545.0396193735514
 31
0.0
  0
LINE
  5
6A8
330
1F
100
AcDbEntity
  8
SIZE
100
AcDbLine
 10
-0.000000000003638
 20
-549.058857223551
 30
0.0
 11
14.99999999999636
 21
-549.058857223551
 31
0.0
  0
TEXT
  5
6A9
330
1F
100
AcDbEntity
  8
SIZE
100
AcDbText
 10
647.6600000000007
 20
-201.5000000000018
 30
0.0
 40
40.0
  1
323
 50
90.0
  7
KAIGAI
100
AcDbText
  0
LINE
  5
6AA
330
1F
100
AcDbEntity
  8
SIZE
100
AcDbLine
 10
656.6792378499985
 20
-308.0
 30
0.0
 11
652.6599999999989
 21
-323.0
 31
0.0
  0
LINE
  5
6AB
330
1F
100
AcDbEntity
  8
SIZE
100
AcDbLine
 10
652.6599999999989
 20
-323.0
 30
0.0
 11
648.6407621499993
 21
-308.0
 31
0.0
  0
LINE
  5
6AC
330
1F
100
AcDbEntity
  8
SIZE
100
AcDbLine
 10
652.6599999999989
 20
-323.0
 30
0.0
 11
652.6599999999989
 21
-308.0
 31
0.0
  0
LINE
  5
6AD
330
1F
100
AcDbEntity
  8
SIZE
100
AcDbLine
 10
648.6407621500011
 20
-15.00000000000182
 30
0.0
 11
652.6600000000008
 21
-0.000000000001819
 31
0.0
  0
LINE
  5
6AE
330
1F
100
AcDbEntity
  8
SIZE
100
AcDbLine
 10
652.6600000000008
 20
-0.000000000001819
 30
0.0
 11
656.6792378500004
 21
-15.00000000000182
 31
0.0
  0
LINE
  5
6AF
330
1F
100
AcDbEntity
  8
SIZE
100
AcDbLine
 10
652.6600000000008
 20
-0.000000000001819
 30
0.0
 11
652.6600000000008
 21
-15.00000000000182
 31
0.0
  0
TEXT
  5
6B0
330
1F
100
AcDbEntity
  8
SIZE
100
AcDbText
 10
166.5000000000027
 20
557.2662820657114
 30
0.0
 40
40.0
  1
408
  7
KAIGAI
100
AcDbText
  0
LINE
  5
6B1
330
1F
100
AcDbEntity
  8
SIZE
100
AcDbLine
 10
393.0000000000027
 20
556.2855199157102
 30
0.0
 11
408.0000000000027
 21
552.2662820657106
 31
0.0
  0
LINE
  5
6B2
330
1F
100
AcDbEntity
  8
SIZE
100
AcDbLine
 10
408.0000000000027
 20
552.2662820657106
 30
0.0
 11
393.0000000000027
 21
548.2470442157091
 31
0.0
  0
LINE
  5
6B3
330
1F
100
AcDbEntity
  8
SIZE
100
AcDbLine
 10
408.0000000000027
 20
552.2662820657106
 30
0.0
 11
393.0000000000027
 21
552.2662820657106
 31
0.0
  0
LINE
  5
6B4
330
1F
100
AcDbEntity
  8
SIZE
100
AcDbLine
 10
15.00000000000182
 20
548.2470442157091
 30
0.0
 11
0.000000000001819
 21
552.2662820657106
 31
0.0
  0
LINE
  5
6B5
330
1F
100
AcDbEntity
  8
SIZE
100
AcDbLine
 10
0.000000000001819
 20
552.2662820657106
 30
0.0
 11
15.00000000000182
 21
556.2855199157102
 31
0.0
  0
LINE
  5
6B6
330
1F
100
AcDbEntity
  8
SIZE
100
AcDbLine
 10
0.000000000001819
 20
552.2662820657106
 30
0.0
 11
15.00000000000182
 21
552.2662820657106
 31
0.0
  0
LINE
  5
6B7
330
1F
100
AcDbEntity
  8
BASIS
100
AcDbLine
 10
-345.0000000000109
 20
-3746.487236735092
 30
0.0
 11
-345.0000000000109
 21
-3796.487236735092
 31
0.0
  0
LINE
  5
6B8
330
1F
100
AcDbEntity
  8
BASIS
100
AcDbLine
 10
-320.0000000000109
 20
-3771.487236735092
 30
0.0
 11
-370.0000000000109
 21
-3771.487236735092
 31
0.0
  0
LINE
  5
6B9
330
1F
100
AcDbEntity
  8
BASIS
100
AcDbLine
 10
344.9999999999909
 20
-3746.487236735113
 30
0.0
 11
344.9999999999872
 21
-3796.487236735113
 31
0.0
  0
LINE
  5
6BA
330
1F
100
AcDbEntity
  8
BASIS
100
AcDbLine
 10
319.999999999989
 20
-3771.487236735111
 30
0.0
 11
369.999999999989
 21
-3771.487236735113
 31
0.0
  0
LINE
  5
6BB
330
1F
100
AcDbEntity
  8
BASIS
100
AcDbLine
 10
-345.0000000000091
 20
-3016.487236735091
 30
0.0
 11
-345.0000000000091
 21
-2966.487236735091
 31
0.0
  0
LINE
  5
6BC
330
1F
100
AcDbEntity
  8
BASIS
100
AcDbLine
 10
-320.0000000000091
 20
-2991.487236735093
 30
0.0
 11
-370.0000000000091
 21
-2991.487236735091
 31
0.0
  0
LINE
  5
6BD
330
1F
100
AcDbEntity
  8
BASIS
100
AcDbLine
 10
344.9999999999927
 20
-3016.487236735077
 30
0.0
 11
344.999999999989
 21
-2966.487236735077
 31
0.0
  0
LINE
  5
6BE
330
1F
100
AcDbEntity
  8
BASIS
100
AcDbLine
 10
319.9999999999909
 20
-2991.487236735077
 30
0.0
 11
369.9999999999909
 21
-2991.487236735075
 31
0.0
  0
CIRCLE
  5
6BF
330
1F
100
AcDbEntity
  8
FIX
100
AcDbCircle
 10
344.998206441769
 20
-2991.485327944212
 30
0.0
 40
20.0
  0
CIRCLE
  5
6C0
330
1F
100
AcDbEntity
  8
FIX
100
AcDbCircle
 10
-345.0017935582282
 20
-2991.485327944229
 30
0.0
 40
20.0
  0
CIRCLE
  5
6C1
330
1F
100
AcDbEntity
  8
FIX
100
AcDbCircle
 10
-345.0017935582291
 20
-3771.48532794423
 30
0.0
 40
20.0
  0
CIRCLE
  5
6C2
330
1F
100
AcDbEntity
  8
FIX
100
AcDbCircle
 10
344.9982064417708
 20
-3771.485327944248
 30
0.0
 40
20.0
  0
LINE
  5
6C3
330
1F
100
AcDbEntity
  8
SIZE
100
AcDbLine
 10
479.9999999999945
 20
-2562.227236735097
 30
0.0
 11
686.9552249472053
 21
-2562.227236735097
 31
0.0
  0
LINE
  5
6C4
330
1F
100
AcDbEntity
  8
SIZE
100
AcDbLine
 10
424.9999999999927
 20
-2306.227236735095
 30
0.0
 11
686.9552249472053
 21
-2306.227236735095
 31
0.0
  0
LINE
  5
6C5
330
1F
100
AcDbEntity
  8
SIZE
100
AcDbLine
 10
681.9552249472053
 20
-2547.227236735097
 30
0.0
 11
681.9552249472053
 21
-2321.227236735095
 31
0.0
  0
LINE
  5
6C6
330
1F
100
AcDbEntity
  8
SIZE
100
AcDbLine
 10
-228.5000000000072
 20
-2341.227236735093
 30
0.0
 11
-584.4600000000063
 21
-2341.227236735093
 31
0.0
  0
LINE
  5
6C7
330
1F
100
AcDbEntity
  8
SIZE
100
AcDbLine
 10
-425.0000000000072
 20
-2306.227236735093
 30
0.0
 11
-584.4600000000063
 21
-2306.227236735093
 31
0.0
  0
LINE
  5
6C8
330
1F
100
AcDbEntity
  8
SIZE
100
AcDbLine
 10
-579.4600000000063
 20
-2356.227236735093
 30
0.0
 11
-579.4600000000063
 21
-2371.227236735093
 31
0.0
  0
LINE
  5
6C9
330
1F
100
AcDbEntity
  8
SIZE
100
AcDbLine
 10
-579.4600000000063
 20
-2291.227236735093
 30
0.0
 11
-579.4600000000063
 21
-2216.227236735093
 31
0.0
  0
LINE
  5
6CA
330
1F
100
AcDbEntity
  8
SIZE
100
AcDbLine
 10
-579.4600000000063
 20
-2341.227236735093
 30
0.0
 11
-579.4600000000063
 21
-2306.227236735093
 31
0.0
  0
LINE
  5
6CB
330
1F
100
AcDbEntity
  8
SIZE
100
AcDbLine
 10
-228.5000000000072
 20
-2461.227236735093
 30
0.0
 11
-584.4600000000063
 21
-2461.227236735093
 31
0.0
  0
LINE
  5
6CC
330
1F
100
AcDbEntity
  8
SIZE
100
AcDbLine
 10
-228.5000000000072
 20
-2341.227236735093
 30
0.0
 11
-584.4600000000063
 21
-2341.227236735093
 31
0.0
  0
LINE
  5
6CD
330
1F
100
AcDbEntity
  8
SIZE
100
AcDbLine
 10
-579.4600000000063
 20
-2446.227236735093
 30
0.0
 11
-579.4600000000063
 21
-2356.227236735093
 31
0.0
  0
LINE
  5
6CE
330
1F
100
AcDbEntity
  8
SIZE
100
AcDbLine
 10
-480.0000000000072
 20
-2562.227236735093
 30
0.0
 11
-584.4600000000063
 21
-2562.227236735093
 31
0.0
  0
LINE
  5
6CF
330
1F
100
AcDbEntity
  8
SIZE
100
AcDbLine
 10
-228.5000000000072
 20
-2461.227236735093
 30
0.0
 11
-584.4600000000063
 21
-2461.227236735093
 31
0.0
  0
LINE
  5
6D0
330
1F
100
AcDbEntity
  8
SIZE
100
AcDbLine
 10
-579.4600000000063
 20
-2547.227236735093
 30
0.0
 11
-579.4600000000063
 21
-2476.227236735093
 31
0.0
  0
LINE
  5
6D1
330
1F
100
AcDbEntity
  8
SIZE
100
AcDbLine
 10
-480.0000000000072
 20
-2562.227236735093
 30
0.0
 11
-584.4600000000063
 21
-2562.227236735093
 31
0.0
  0
LINE
  5
6D2
330
1F
100
AcDbEntity
  8
SIZE
100
AcDbLine
 10
-350.0000000000045
 20
-2592.227236735093
 30
0.0
 11
-584.4600000000063
 21
-2592.227236735093
 31
0.0
  0
LINE
  5
6D3
330
1F
100
AcDbEntity
  8
SIZE
100
AcDbLine
 10
-579.4600000000063
 20
-2547.227236735093
 30
0.0
 11
-579.4600000000063
 21
-2532.227236735093
 31
0.0
  0
LINE
  5
6D4
330
1F
100
AcDbEntity
  8
SIZE
100
AcDbLine
 10
-579.4600000000063
 20
-2607.227236735093
 30
0.0
 11
-579.4600000000063
 21
-2677.227236735093
 31
0.0
  0
LINE
  5
6D5
330
1F
100
AcDbEntity
  8
SIZE
100
AcDbLine
 10
-579.4600000000063
 20
-2562.227236735093
 30
0.0
 11
-579.4600000000063
 21
-2592.227236735093
 31
0.0
  0
LINE
  5
6D6
330
1F
100
AcDbEntity
  8
SIZE
100
AcDbLine
 10
256.4999999999927
 20
-2336.227236735093
 30
0.0
 11
256.4999999999927
 21
-2090.547236735093
 31
0.0
  0
LINE
  5
6D7
330
1F
100
AcDbEntity
  8
SIZE
100
AcDbLine
 10
419.9999999999954
 20
-2301.217236735094
 30
0.0
 11
419.9999999999954
 21
-2090.547236735093
 31
0.0
  0
LINE
  5
6D8
330
1F
100
AcDbEntity
  8
SIZE
100
AcDbLine
 10
271.4999999999927
 20
-2095.547236735093
 30
0.0
 11
404.9999999999954
 21
-2095.547236735093
 31
0.0
  0
LINE
  5
6D9
330
1F
100
AcDbEntity
  8
SIZE
100
AcDbLine
 10
-223.5000000000072
 20
-2340.217236735093
 30
0.0
 11
-223.5000000000072
 21
-2090.547236735093
 31
0.0
  0
LINE
  5
6DA
330
1F
100
AcDbEntity
  8
SIZE
100
AcDbLine
 10
-420.0000000000054
 20
-2301.217236735093
 30
0.0
 11
-420.0000000000054
 21
-2090.547236735093
 31
0.0
  0
LINE
  5
6DB
330
1F
100
AcDbEntity
  8
SIZE
100
AcDbLine
 10
-238.5000000000072
 20
-2095.547236735093
 30
0.0
 11
-405.0000000000054
 21
-2095.547236735093
 31
0.0
  0
TEXT
  5
6DC
330
1F
100
AcDbEntity
  8
SIZE
100
AcDbText
 10
-376.7500000000072
 20
-2090.547236735092
 30
0.0
 40
40.0
  1
196.5
  7
KAIGAI
100
AcDbText
  0
LINE
  5
6DD
330
1F
100
AcDbEntity
  8
SIZE
100
AcDbLine
 10
-405.0000000000054
 20
-2099.566474585092
 30
0.0
 11
-420.0000000000054
 21
-2095.547236735093
 31
0.0
  0
LINE
  5
6DE
330
1F
100
AcDbEntity
  8
SIZE
100
AcDbLine
 10
-420.0000000000054
 20
-2095.547236735093
 30
0.0
 11
-405.0000000000054
 21
-2091.527998885093
 31
0.0
  0
LINE
  5
6DF
330
1F
100
AcDbEntity
  8
SIZE
100
AcDbLine
 10
-420.0000000000054
 20
-2095.547236735093
 30
0.0
 11
-405.0000000000054
 21
-2095.547236735093
 31
0.0
  0
LINE
  5
6E0
330
1F
100
AcDbEntity
  8
SIZE
100
AcDbLine
 10
-238.5000000000072
 20
-2091.527998885093
 30
0.0
 11
-223.5000000000072
 21
-2095.547236735093
 31
0.0
  0
LINE
  5
6E1
330
1F
100
AcDbEntity
  8
SIZE
100
AcDbLine
 10
-223.5000000000072
 20
-2095.547236735093
 30
0.0
 11
-238.5000000000072
 21
-2099.566474585092
 31
0.0
  0
LINE
  5
6E2
330
1F
100
AcDbEntity
  8
SIZE
100
AcDbLine
 10
-223.5000000000072
 20
-2095.547236735093
 30
0.0
 11
-238.5000000000072
 21
-2095.547236735093
 31
0.0
  0
TEXT
  5
6E3
330
1F
100
AcDbEntity
  8
SIZE
100
AcDbText
 10
283.2499999999936
 20
-2090.547236735092
 30
0.0
 40
40.0
  1
163.5
  7
KAIGAI
100
AcDbText
  0
LINE
  5
6E4
330
1F
100
AcDbEntity
  8
SIZE
100
AcDbLine
 10
404.9999999999954
 20
-2091.527998885093
 30
0.0
 11
419.9999999999954
 21
-2095.547236735093
 31
0.0
  0
LINE
  5
6E5
330
1F
100
AcDbEntity
  8
SIZE
100
AcDbLine
 10
419.9999999999954
 20
-2095.547236735093
 30
0.0
 11
404.9999999999954
 21
-2099.566474585092
 31
0.0
  0
LINE
  5
6E6
330
1F
100
AcDbEntity
  8
SIZE
100
AcDbLine
 10
419.9999999999954
 20
-2095.547236735093
 30
0.0
 11
404.9999999999954
 21
-2095.547236735093
 31
0.0
  0
LINE
  5
6E7
330
1F
100
AcDbEntity
  8
SIZE
100
AcDbLine
 10
271.4999999999927
 20
-2099.566474585092
 30
0.0
 11
256.4999999999927
 21
-2095.547236735093
 31
0.0
  0
LINE
  5
6E8
330
1F
100
AcDbEntity
  8
SIZE
100
AcDbLine
 10
256.4999999999927
 20
-2095.547236735093
 30
0.0
 11
271.4999999999927
 21
-2091.527998885093
 31
0.0
  0
LINE
  5
6E9
330
1F
100
AcDbEntity
  8
SIZE
100
AcDbLine
 10
256.4999999999927
 20
-2095.547236735093
 30
0.0
 11
271.4999999999927
 21
-2095.547236735093
 31
0.0
  0
TEXT
  5
6EA
330
1F
100
AcDbEntity
  8
SIZE
100
AcDbText
 10
-584.4600000000073
 20
-2672.227236735092
 30
0.0
 40
40.0
  1
30
 50
90.0
  7
KAIGAI
100
AcDbText
  0
LINE
  5
6EB
330
1F
100
AcDbEntity
  8
SIZE
100
AcDbLine
 10
-583.4792378500069
 20
-2607.227236735093
 30
0.0
 11
-579.4600000000063
 21
-2592.227236735093
 31
0.0
  0
LINE
  5
6EC
330
1F
100
AcDbEntity
  8
SIZE
100
AcDbLine
 10
-579.4600000000063
 20
-2592.227236735093
 30
0.0
 11
-575.4407621500067
 21
-2607.227236735093
 31
0.0
  0
LINE
  5
6ED
330
1F
100
AcDbEntity
  8
SIZE
100
AcDbLine
 10
-579.4600000000063
 20
-2592.227236735093
 30
0.0
 11
-579.4600000000063
 21
-2607.227236735093
 31
0.0
  0
LINE
  5
6EE
330
1F
100
AcDbEntity
  8
SIZE
100
AcDbLine
 10
-575.4407621500067
 20
-2547.227236735093
 30
0.0
 11
-579.4600000000063
 21
-2562.227236735093
 31
0.0
  0
LINE
  5
6EF
330
1F
100
AcDbEntity
  8
SIZE
100
AcDbLine
 10
-579.4600000000063
 20
-2562.227236735093
 30
0.0
 11
-583.4792378500069
 21
-2547.227236735093
 31
0.0
  0
LINE
  5
6F0
330
1F
100
AcDbEntity
  8
SIZE
100
AcDbLine
 10
-579.4600000000063
 20
-2562.227236735093
 30
0.0
 11
-579.4600000000063
 21
-2547.227236735093
 31
0.0
  0
TEXT
  5
6F1
330
1F
100
AcDbEntity
  8
SIZE
100
AcDbText
 10
-584.4600000000073
 20
-2555.901722116619
 30
0.0
 40
40.0
  1
101
 50
90.0
  7
KAIGAI
100
AcDbText
  0
LINE
  5
6F2
330
1F
100
AcDbEntity
  8
SIZE
100
AcDbLine
 10
-583.4792378500069
 20
-2476.227236735093
 30
0.0
 11
-579.4600000000063
 21
-2461.227236735093
 31
0.0
  0
LINE
  5
6F3
330
1F
100
AcDbEntity
  8
SIZE
100
AcDbLine
 10
-579.4600000000063
 20
-2461.227236735093
 30
0.0
 11
-575.4407621500067
 21
-2476.227236735093
 31
0.0
  0
LINE
  5
6F4
330
1F
100
AcDbEntity
  8
SIZE
100
AcDbLine
 10
-579.4600000000063
 20
-2461.227236735093
 30
0.0
 11
-579.4600000000063
 21
-2476.227236735093
 31
0.0
  0
LINE
  5
6F5
330
1F
100
AcDbEntity
  8
SIZE
100
AcDbLine
 10
-575.4407621500067
 20
-2547.227236735093
 30
0.0
 11
-579.4600000000063
 21
-2562.227236735093
 31
0.0
  0
LINE
  5
6F6
330
1F
100
AcDbEntity
  8
SIZE
100
AcDbLine
 10
-579.4600000000063
 20
-2562.227236735093
 30
0.0
 11
-583.4792378500069
 21
-2547.227236735093
 31
0.0
  0
LINE
  5
6F7
330
1F
100
AcDbEntity
  8
SIZE
100
AcDbLine
 10
-579.4600000000063
 20
-2562.227236735093
 30
0.0
 11
-579.4600000000063
 21
-2547.227236735093
 31
0.0
  0
TEXT
  5
6F8
330
1F
100
AcDbEntity
  8
SIZE
100
AcDbText
 10
-583.4792378500078
 20
-2446.227236735091
 30
0.0
 40
40.0
  1
120
 50
90.0
  7
KAIGAI
100
AcDbText
  0
LINE
  5
6F9
330
1F
100
AcDbEntity
  8
SIZE
100
AcDbLine
 10
-583.479237850006
 20
-2356.227236735093
 30
0.0
 11
-579.4600000000063
 21
-2341.227236735093
 31
0.0
  0
LINE
  5
6FA
330
1F
100
AcDbEntity
  8
SIZE
100
AcDbLine
 10
-579.4600000000063
 20
-2341.227236735093
 30
0.0
 11
-575.4407621500067
 21
-2356.227236735093
 31
0.0
  0
LINE
  5
6FB
330
1F
100
AcDbEntity
  8
SIZE
100
AcDbLine
 10
-579.4600000000063
 20
-2341.227236735093
 30
0.0
 11
-579.4600000000063
 21
-2356.227236735093
 31
0.0
  0
LINE
  5
6FC
330
1F
100
AcDbEntity
  8
SIZE
100
AcDbLine
 10
-575.4407621500067
 20
-2446.227236735093
 30
0.0
 11
-579.4600000000063
 21
-2461.227236735093
 31
0.0
  0
LINE
  5
6FD
330
1F
100
AcDbEntity
  8
SIZE
100
AcDbLine
 10
-579.4600000000063
 20
-2461.227236735093
 30
0.0
 11
-583.4792378500069
 21
-2446.227236735093
 31
0.0
  0
LINE
  5
6FE
330
1F
100
AcDbEntity
  8
SIZE
100
AcDbLine
 10
-579.4600000000063
 20
-2461.227236735093
 30
0.0
 11
-579.4600000000063
 21
-2446.227236735093
 31
0.0
  0
TEXT
  5
6FF
330
1F
100
AcDbEntity
  8
SIZE
100
AcDbText
 10
-583.4792378500069
 20
-2291.227236735091
 30
0.0
 40
40.0
  1
35
 50
90.0
  7
KAIGAI
100
AcDbText
  0
LINE
  5
700
330
1F
100
AcDbEntity
  8
SIZE
100
AcDbLine
 10
-575.4407621500067
 20
-2291.227236735093
 30
0.0
 11
-579.4600000000063
 21
-2306.227236735093
 31
0.0
  0
LINE
  5
701
330
1F
100
AcDbEntity
  8
SIZE
100
AcDbLine
 10
-579.4600000000063
 20
-2306.227236735093
 30
0.0
 11
-583.479237850006
 21
-2291.227236735093
 31
0.0
  0
LINE
  5
702
330
1F
100
AcDbEntity
  8
SIZE
100
AcDbLine
 10
-579.4600000000063
 20
-2306.227236735093
 30
0.0
 11
-579.4600000000063
 21
-2291.227236735093
 31
0.0
  0
LINE
  5
703
330
1F
100
AcDbEntity
  8
SIZE
100
AcDbLine
 10
-583.479237850006
 20
-2356.227236735093
 30
0.0
 11
-579.4600000000063
 21
-2341.227236735093
 31
0.0
  0
LINE
  5
704
330
1F
100
AcDbEntity
  8
SIZE
100
AcDbLine
 10
-579.4600000000063
 20
-2341.227236735093
 30
0.0
 11
-575.4407621500067
 21
-2356.227236735093
 31
0.0
  0
LINE
  5
705
330
1F
100
AcDbEntity
  8
SIZE
100
AcDbLine
 10
-579.4600000000063
 20
-2341.227236735093
 30
0.0
 11
-579.4600000000063
 21
-2356.227236735093
 31
0.0
  0
TEXT
  5
706
330
1F
100
AcDbEntity
  8
SIZE
100
AcDbText
 10
676.9552249472053
 20
-2474.227236735096
 30
0.0
 40
40.0
  1
256
 50
90.0
  7
KAIGAI
100
AcDbText
  0
LINE
  5
707
330
1F
100
AcDbEntity
  8
SIZE
100
AcDbLine
 10
677.9359870972057
 20
-2321.227236735095
 30
0.0
 11
681.9552249472053
 21
-2306.227236735095
 31
0.0
  0
LINE
  5
708
330
1F
100
AcDbEntity
  8
SIZE
100
AcDbLine
 10
681.9552249472053
 20
-2306.227236735095
 30
0.0
 11
685.9744627972059
 21
-2321.227236735095
 31
0.0
  0
LINE
  5
709
330
1F
100
AcDbEntity
  8
SIZE
100
AcDbLine
 10
681.9552249472053
 20
-2306.227236735095
 30
0.0
 11
681.9552249472053
 21
-2321.227236735095
 31
0.0
  0
LINE
  5
70A
330
1F
100
AcDbEntity
  8
SIZE
100
AcDbLine
 10
685.9744627972059
 20
-2547.227236735097
 30
0.0
 11
681.9552249472053
 21
-2562.227236735097
 31
0.0
  0
LINE
  5
70B
330
1F
100
AcDbEntity
  8
SIZE
100
AcDbLine
 10
681.9552249472053
 20
-2562.227236735097
 30
0.0
 11
677.9359870972057
 21
-2547.227236735097
 31
0.0
  0
LINE
  5
70C
330
1F
100
AcDbEntity
  8
SIZE
100
AcDbLine
 10
681.9552249472053
 20
-2562.227236735097
 30
0.0
 11
681.9552249472053
 21
-2547.227236735097
 31
0.0
  0
LINE
  5
70D
330
1F
100
AcDbEntity
  8
BASIS
100
AcDbLine
 10
-79.50000000000727
 20
-2433.227236735095
 30
0.0
 11
112.4999999999927
 21
-2433.227236735093
 31
0.0
  0
LINE
  5
70E
330
1F
100
AcDbEntity
  8
BASIS
100
AcDbLine
 10
16.49999999999272
 20
-2337.227236735095
 30
0.0
 11
16.49999999999272
 21
-2529.227236735095
 31
0.0
  0
LINE
  5
70F
330
1F
100
AcDbEntity
  8
NOTE
100
AcDbLine
 10
908.7415158574703
 20
-2732.228541970859
 30
0.0
 11
251.8033186188395
 21
-2732.228541970859
 31
0.0
  0
LINE
  5
710
330
1F
100
AcDbEntity
  8
NOTE
100
AcDbLine
 10
251.8033186188395
 20
-2732.228541970859
 30
0.0
 11
38.38331861883943
 21
-2450.638541970859
 31
0.0
  0
LINE
  5
711
330
1F
100
AcDbEntity
  8
NOTE
100
AcDbLine
 10
38.38331861883943
 20
-2450.638541970859
 30
0.0
 11
69.96331861883937
 21
-2475.17854197086
 31
0.0
  0
LINE
  5
712
330
1F
100
AcDbEntity
  8
NOTE
100
AcDbLine
 10
38.38331861883943
 20
-2450.638541970859
 30
0.0
 11
53.4736779753357
 21
-2487.676212719597
 31
0.0
  0
LINE
  5
713
330
1F
100
AcDbEntity
  8
NOTE
100
AcDbLine
 10
-1021.560855439797
 20
-2733.557236735097
 30
0.0
 11
-319.2099144865851
 21
-2733.557236735093
 31
0.0
  0
LINE
  5
714
330
1F
100
AcDbEntity
  8
NOTE
100
AcDbLine
 10
-319.2099144865851
 20
-2733.557236735093
 30
0.0
 11
-190.0699144865848
 21
-2460.667236735094
 31
0.0
  0
LINE
  5
715
330
1F
100
AcDbEntity
  8
NOTE
100
AcDbLine
 10
-190.0699144865848
 20
-2460.667236735094
 30
0.0
 11
-215.9599144865851
 21
-2491.167236735094
 31
0.0
  0
LINE
  5
716
330
1F
100
AcDbEntity
  8
NOTE
100
AcDbLine
 10
-190.0699144865848
 20
-2460.667236735094
 30
0.0
 11
-197.2394140535634
 21
-2500.026357354832
 31
0.0
  0
LINE
  5
717
330
1F
100
AcDbEntity
  8
BASIS
100
AcDbLine
 10
-344.9999999999918
 20
2573.975000000005
 30
0.0
 11
-344.9999999999918
 21
2512.025000000004
 31
0.0
  0
CIRCLE
  5
718
330
1F
100
AcDbEntity
  8
FIX
100
AcDbCircle
 10
-344.9999999999927
 20
2543.165000000002
 30
0.0
 40
20.0
  0
LINE
  5
719
330
1F
100
AcDbEntity
  8
BASIS
100
AcDbLine
 10
0.0000000000045475
 20
2704.999999999999
 30
0.0
 11
0.0000000000045475
 21
2418.999999999999
 31
0.0
  0
CIRCLE
  5
71A
330
1F
100
AcDbEntity
  8
ARRANGE
100
AcDbCircle
 10
0.000000000003638
 20
2674.999999999998
 30
0.0
 40
20.0
  0
POINT
  5
71B
330
1F
100
AcDbEntity
  8
ARRANGE
100
AcDbPoint
 10
0.0000000000045475
 20
2674.999999999999
 30
0.0
  0
LINE
  5
71C
330
1F
100
AcDbEntity
  8
BASIS
100
AcDbLine
 10
345.0000000000063
 20
2573.975000000003
 30
0.0
 11
345.0000000000063
 21
2512.025000000002
 31
0.0
  0
CIRCLE
  5
71D
330
1F
100
AcDbEntity
  8
FIX
100
AcDbCircle
 10
345.0000000000036
 20
2543.165000000001
 30
0.0
 40
20.0
  0
LINE
  5
71E
330
1F
100
AcDbEntity
  8
BASIS
100
AcDbLine
 10
-15.99999999999636
 20
2546.000000000001
 30
0.0
 11
176.0000000000036
 21
2545.999999999999
 31
0.0
  0
LINE
  5
71F
330
1F
100
AcDbEntity
  8
BASIS
100
AcDbLine
 10
80.00000000000273
 20
2450.000000000001
 30
0.0
 11
80.00000000000454
 21
2642.000000000001
 31
0.0
  0
LINE
  5
720
330
1F
100
AcDbEntity
  8
SIZE
100
AcDbLine
 10
73.99999999999272
 20
-2380.227236735095
 30
0.0
 11
179.7866635142981
 21
-2380.227236735095
 31
0.0
  0
LINE
  5
721
330
1F
100
AcDbEntity
  8
SIZE
100
AcDbLine
 10
73.99999999999272
 20
-2485.227236735095
 30
0.0
 11
179.7866635142981
 21
-2485.227236735095
 31
0.0
  0
LINE
  5
722
330
1F
100
AcDbEntity
  8
SIZE
100
AcDbLine
 10
169.7866635142982
 20
-2395.227236735095
 30
0.0
 11
169.7866635142982
 21
-2470.227236735095
 31
0.0
  0
LINE
  5
723
330
1F
100
AcDbEntity
  8
SIZE
100
AcDbLine
 10
479.9999999999945
 20
-2562.227236735097
 30
0.0
 11
635.7285419693016
 21
-2562.227236735097
 31
0.0
  0
LINE
  5
724
330
1F
100
AcDbEntity
  8
SIZE
100
AcDbLine
 10
373.018712871275
 20
-2430.227236735097
 30
0.0
 11
635.7285419693016
 21
-2430.227236735097
 31
0.0
  0
LINE
  5
725
330
1F
100
AcDbEntity
  8
SIZE
100
AcDbLine
 10
625.7285419693016
 20
-2547.227236735097
 30
0.0
 11
625.7285419693016
 21
-2445.227236735097
 31
0.0
  0
LINE
  5
726
330
1F
100
AcDbEntity
  8
SIZE
100
AcDbLine
 10
16.49999999999272
 20
-2534.227236735095
 30
0.0
 11
16.49999999999272
 21
-2690.997063390531
 31
0.0
  0
LINE
  5
727
330
1F
100
AcDbEntity
  8
SIZE
100
AcDbLine
 10
-0.000000000007276
 20
-2597.227236735093
 30
0.0
 11
-0.000000000007276
 21
-2690.997063390531
 31
0.0
  0
LINE
  5
728
330
1F
100
AcDbEntity
  8
SIZE
100
AcDbLine
 10
31.49999999999272
 20
-2680.997063390531
 30
0.0
 11
46.49999999999272
 21
-2680.997063390531
 31
0.0
  0
LINE
  5
729
330
1F
100
AcDbEntity
  8
SIZE
100
AcDbLine
 10
-15.00000000000727
 20
-2680.997063390531
 30
0.0
 11
-120.0000000000072
 21
-2680.997063390531
 31
0.0
  0
LINE
  5
72A
330
1F
100
AcDbEntity
  8
SIZE
100
AcDbLine
 10
16.49999999999272
 20
-2680.997063390531
 30
0.0
 11
-0.000000000007276
 21
-2680.997063390531
 31
0.0
  0
LINE
  5
72B
330
1F
100
AcDbEntity
  8
SIZE
100
AcDbLine
 10
-36.00000000000727
 20
-2375.227236735095
 30
0.0
 11
-36.00000000000727
 21
-2206.052875701195
 31
0.0
  0
LINE
  5
72C
330
1F
100
AcDbEntity
  8
SIZE
100
AcDbLine
 10
-420.0000000000073
 20
-2301.227236735093
 30
0.0
 11
-420.0000000000073
 21
-2206.052875701195
 31
0.0
  0
LINE
  5
72D
330
1F
100
AcDbEntity
  8
SIZE
100
AcDbLine
 10
-51.00000000000727
 20
-2216.052875701195
 30
0.0
 11
-405.0000000000072
 21
-2216.052875701195
 31
0.0
  0
LINE
  5
72E
330
1F
100
AcDbEntity
  8
SIZE
100
AcDbLine
 10
68.99999999999272
 20
-2375.227236735095
 30
0.0
 11
68.99999999999272
 21
-2206.052875701195
 31
0.0
  0
LINE
  5
72F
330
1F
100
AcDbEntity
  8
SIZE
100
AcDbLine
 10
-36.00000000000727
 20
-2375.227236735095
 30
0.0
 11
-36.00000000000727
 21
-2206.052875701195
 31
0.0
  0
LINE
  5
730
330
1F
100
AcDbEntity
  8
SIZE
100
AcDbLine
 10
53.99999999999272
 20
-2216.052875701195
 30
0.0
 11
-21.00000000000727
 21
-2216.052875701195
 31
0.0
  0
LINE
  5
731
330
1F
100
AcDbEntity
  8
SIZE
100
AcDbLine
 10
419.9999999999927
 20
-2301.227236735095
 30
0.0
 11
419.9999999999927
 21
-2206.052875701195
 31
0.0
  0
LINE
  5
732
330
1F
100
AcDbEntity
  8
SIZE
100
AcDbLine
 10
68.99999999999272
 20
-2375.227236735095
 30
0.0
 11
68.99999999999272
 21
-2206.052875701195
 31
0.0
  0
LINE
  5
733
330
1F
100
AcDbEntity
  8
SIZE
100
AcDbLine
 10
404.9999999999926
 20
-2216.052875701195
 30
0.0
 11
83.99999999999272
 21
-2216.052875701195
 31
0.0
  0
LINE
  5
734
330
1F
100
AcDbEntity
  8
SIZE
100
AcDbLine
 10
-0.000000000007276
 20
-2301.227236735093
 30
0.0
 11
-0.000000000007276
 21
-2146.794410702141
 31
0.0
  0
LINE
  5
735
330
1F
100
AcDbEntity
  8
SIZE
100
AcDbLine
 10
-223.5000000000072
 20
-2336.227236735093
 30
0.0
 11
-223.5000000000072
 21
-2146.794410702141
 31
0.0
  0
LINE
  5
736
330
1F
100
AcDbEntity
  8
SIZE
100
AcDbLine
 10
-15.00000000000727
 20
-2156.794410702142
 30
0.0
 11
-208.5000000000072
 21
-2156.794410702142
 31
0.0
  0
LINE
  5
737
330
1F
100
AcDbEntity
  8
SIZE
100
AcDbLine
 10
256.4999999999927
 20
-2336.227236735093
 30
0.0
 11
256.4999999999927
 21
-2146.794410702141
 31
0.0
  0
LINE
  5
738
330
1F
100
AcDbEntity
  8
SIZE
100
AcDbLine
 10
-0.000000000007276
 20
-2301.227236735093
 30
0.0
 11
-0.000000000007276
 21
-2146.794410702141
 31
0.0
  0
LINE
  5
739
330
1F
100
AcDbEntity
  8
SIZE
100
AcDbLine
 10
241.4999999999927
 20
-2156.794410702142
 30
0.0
 11
14.99999999999272
 21
-2156.794410702142
 31
0.0
  0
TEXT
  5
73A
330
1F
100
AcDbEntity
  8
SIZE
100
AcDbText
 10
68.24999999999182
 20
-2151.794410702141
 30
0.0
 40
40.0
  1
256.5
  7
KAIGAI
100
AcDbText
  0
LINE
  5
73B
330
1F
100
AcDbEntity
  8
SIZE
100
AcDbLine
 10
14.99999999999272
 20
-2160.813648552141
 30
0.0
 11
-0.000000000007276
 21
-2156.794410702142
 31
0.0
  0
LINE
  5
73C
330
1F
100
AcDbEntity
  8
SIZE
100
AcDbLine
 10
-0.000000000007276
 20
-2156.794410702142
 30
0.0
 11
14.99999999999272
 21
-2152.775172852142
 31
0.0
  0
LINE
  5
73D
330
1F
100
AcDbEntity
  8
SIZE
100
AcDbLine
 10
-0.000000000007276
 20
-2156.794410702142
 30
0.0
 11
14.99999999999272
 21
-2156.794410702142
 31
0.0
  0
LINE
  5
73E
330
1F
100
AcDbEntity
  8
SIZE
100
AcDbLine
 10
241.4999999999927
 20
-2152.775172852142
 30
0.0
 11
256.4999999999927
 21
-2156.794410702142
 31
0.0
  0
LINE
  5
73F
330
1F
100
AcDbEntity
  8
SIZE
100
AcDbLine
 10
256.4999999999927
 20
-2156.794410702142
 30
0.0
 11
241.4999999999927
 21
-2160.813648552141
 31
0.0
  0
LINE
  5
740
330
1F
100
AcDbEntity
  8
SIZE
100
AcDbLine
 10
256.4999999999927
 20
-2156.794410702142
 30
0.0
 11
241.4999999999927
 21
-2156.794410702142
 31
0.0
  0
TEXT
  5
741
330
1F
100
AcDbEntity
  8
SIZE
100
AcDbText
 10
-171.7500000000081
 20
-2151.794410702141
 30
0.0
 40
40.0
  1
223.5
  7
KAIGAI
100
AcDbText
  0
LINE
  5
742
330
1F
100
AcDbEntity
  8
SIZE
100
AcDbLine
 10
-208.5000000000072
 20
-2160.813648552141
 30
0.0
 11
-223.5000000000072
 21
-2156.794410702142
 31
0.0
  0
LINE
  5
743
330
1F
100
AcDbEntity
  8
SIZE
100
AcDbLine
 10
-223.5000000000072
 20
-2156.794410702142
 30
0.0
 11
-208.5000000000072
 21
-2152.775172852142
 31
0.0
  0
LINE
  5
744
330
1F
100
AcDbEntity
  8
SIZE
100
AcDbLine
 10
-223.5000000000072
 20
-2156.794410702142
 30
0.0
 11
-208.5000000000072
 21
-2156.794410702142
 31
0.0
  0
LINE
  5
745
330
1F
100
AcDbEntity
  8
SIZE
100
AcDbLine
 10
-15.00000000000727
 20
-2152.775172852142
 30
0.0
 11
-0.000000000007276
 21
-2156.794410702142
 31
0.0
  0
LINE
  5
746
330
1F
100
AcDbEntity
  8
SIZE
100
AcDbLine
 10
-0.000000000007276
 20
-2156.794410702142
 30
0.0
 11
-15.00000000000727
 21
-2160.813648552141
 31
0.0
  0
LINE
  5
747
330
1F
100
AcDbEntity
  8
SIZE
100
AcDbLine
 10
-0.000000000007276
 20
-2156.794410702142
 30
0.0
 11
-15.00000000000727
 21
-2156.794410702142
 31
0.0
  0
TEXT
  5
748
330
1F
100
AcDbEntity
  8
SIZE
100
AcDbText
 10
273.0703183701543
 20
-2209.259646727505
 30
0.0
 40
40.0
  1
351
  7
KAIGAI
100
AcDbText
  0
LINE
  5
749
330
1F
100
AcDbEntity
  8
SIZE
100
AcDbLine
 10
83.99999999999272
 20
-2220.072113551194
 30
0.0
 11
68.99999999999272
 21
-2216.052875701195
 31
0.0
  0
LINE
  5
74A
330
1F
100
AcDbEntity
  8
SIZE
100
AcDbLine
 10
68.99999999999272
 20
-2216.052875701195
 30
0.0
 11
83.99999999999272
 21
-2212.033637851195
 31
0.0
  0
LINE
  5
74B
330
1F
100
AcDbEntity
  8
SIZE
100
AcDbLine
 10
68.99999999999272
 20
-2216.052875701195
 30
0.0
 11
83.99999999999272
 21
-2216.052875701195
 31
0.0
  0
LINE
  5
74C
330
1F
100
AcDbEntity
  8
SIZE
100
AcDbLine
 10
404.9999999999926
 20
-2212.033637851195
 30
0.0
 11
419.9999999999927
 21
-2216.052875701195
 31
0.0
  0
LINE
  5
74D
330
1F
100
AcDbEntity
  8
SIZE
100
AcDbLine
 10
419.9999999999927
 20
-2216.052875701195
 30
0.0
 11
404.9999999999926
 21
-2220.072113551194
 31
0.0
  0
LINE
  5
74E
330
1F
100
AcDbEntity
  8
SIZE
100
AcDbLine
 10
419.9999999999927
 20
-2216.052875701195
 30
0.0
 11
404.9999999999926
 21
-2216.052875701195
 31
0.0
  0
TEXT
  5
74F
330
1F
100
AcDbEntity
  8
SIZE
100
AcDbText
 10
-36.00000000000818
 20
-2216.052875701194
 30
0.0
 40
40.0
  1
105
  7
KAIGAI
100
AcDbText
  0
LINE
  5
750
330
1F
100
AcDbEntity
  8
SIZE
100
AcDbLine
 10
-21.00000000000727
 20
-2220.072113551194
 30
0.0
 11
-36.00000000000727
 21
-2216.052875701195
 31
0.0
  0
LINE
  5
751
330
1F
100
AcDbEntity
  8
SIZE
100
AcDbLine
 10
-36.00000000000727
 20
-2216.052875701195
 30
0.0
 11
-21.00000000000727
 21
-2212.033637851195
 31
0.0
  0
LINE
  5
752
330
1F
100
AcDbEntity
  8
SIZE
100
AcDbLine
 10
-36.00000000000727
 20
-2216.052875701195
 30
0.0
 11
-21.00000000000727
 21
-2216.052875701195
 31
0.0
  0
LINE
  5
753
330
1F
100
AcDbEntity
  8
SIZE
100
AcDbLine
 10
53.99999999999272
 20
-2212.033637851195
 30
0.0
 11
68.99999999999272
 21
-2216.052875701195
 31
0.0
  0
LINE
  5
754
330
1F
100
AcDbEntity
  8
SIZE
100
AcDbLine
 10
68.99999999999272
 20
-2216.052875701195
 30
0.0
 11
53.99999999999272
 21
-2220.072113551194
 31
0.0
  0
LINE
  5
755
330
1F
100
AcDbEntity
  8
SIZE
100
AcDbLine
 10
68.99999999999272
 20
-2216.052875701195
 30
0.0
 11
53.99999999999272
 21
-2216.052875701195
 31
0.0
  0
TEXT
  5
756
330
1F
100
AcDbEntity
  8
SIZE
100
AcDbText
 10
-345.431845270622
 20
-2208.802536283225
 30
0.0
 40
40.0
  1
384
  7
KAIGAI
100
AcDbText
  0
LINE
  5
757
330
1F
100
AcDbEntity
  8
SIZE
100
AcDbLine
 10
-405.0000000000072
 20
-2220.072113551194
 30
0.0
 11
-420.0000000000073
 21
-2216.052875701195
 31
0.0
  0
LINE
  5
758
330
1F
100
AcDbEntity
  8
SIZE
100
AcDbLine
 10
-420.0000000000073
 20
-2216.052875701195
 30
0.0
 11
-405.0000000000072
 21
-2212.033637851195
 31
0.0
  0
LINE
  5
759
330
1F
100
AcDbEntity
  8
SIZE
100
AcDbLine
 10
-420.0000000000073
 20
-2216.052875701195
 30
0.0
 11
-405.0000000000072
 21
-2216.052875701195
 31
0.0
  0
LINE
  5
75A
330
1F
100
AcDbEntity
  8
SIZE
100
AcDbLine
 10
-51.00000000000727
 20
-2212.033637851195
 30
0.0
 11
-36.00000000000727
 21
-2216.052875701195
 31
0.0
  0
LINE
  5
75B
330
1F
100
AcDbEntity
  8
SIZE
100
AcDbLine
 10
-36.00000000000727
 20
-2216.052875701195
 30
0.0
 11
-51.00000000000727
 21
-2220.072113551194
 31
0.0
  0
LINE
  5
75C
330
1F
100
AcDbEntity
  8
SIZE
100
AcDbLine
 10
-36.00000000000727
 20
-2216.052875701195
 30
0.0
 11
-51.00000000000727
 21
-2216.052875701195
 31
0.0
  0
TEXT
  5
75D
330
1F
100
AcDbEntity
  8
SIZE
100
AcDbText
 10
-115.0000000000081
 20
-2675.99706339053
 30
0.0
 40
40.0
  1
16.5
  7
KAIGAI
100
AcDbText
  0
LINE
  5
75E
330
1F
100
AcDbEntity
  8
SIZE
100
AcDbLine
 10
-15.00000000000727
 20
-2676.977825540531
 30
0.0
 11
-0.000000000007276
 21
-2680.997063390531
 31
0.0
  0
LINE
  5
75F
330
1F
100
AcDbEntity
  8
SIZE
100
AcDbLine
 10
-0.000000000007276
 20
-2680.997063390531
 30
0.0
 11
-15.00000000000727
 21
-2685.016301240531
 31
0.0
  0
LINE
  5
760
330
1F
100
AcDbEntity
  8
SIZE
100
AcDbLine
 10
-0.000000000007276
 20
-2680.997063390531
 30
0.0
 11
-15.00000000000727
 21
-2680.997063390531
 31
0.0
  0
LINE
  5
761
330
1F
100
AcDbEntity
  8
SIZE
100
AcDbLine
 10
31.49999999999272
 20
-2685.016301240531
 30
0.0
 11
16.49999999999272
 21
-2680.997063390531
 31
0.0
  0
LINE
  5
762
330
1F
100
AcDbEntity
  8
SIZE
100
AcDbLine
 10
16.49999999999272
 20
-2680.997063390531
 30
0.0
 11
31.49999999999272
 21
-2676.977825540531
 31
0.0
  0
LINE
  5
763
330
1F
100
AcDbEntity
  8
SIZE
100
AcDbLine
 10
16.49999999999272
 20
-2680.997063390531
 30
0.0
 11
31.49999999999272
 21
-2680.997063390531
 31
0.0
  0
TEXT
  5
764
330
1F
100
AcDbEntity
  8
SIZE
100
AcDbText
 10
621.709304119301
 20
-2547.227236735096
 30
0.0
 40
40.0
  1
132
 50
90.0
  7
KAIGAI
100
AcDbText
  0
LINE
  5
765
330
1F
100
AcDbEntity
  8
SIZE
100
AcDbLine
 10
621.709304119302
 20
-2445.227236735097
 30
0.0
 11
625.7285419693016
 21
-2430.227236735097
 31
0.0
  0
LINE
  5
766
330
1F
100
AcDbEntity
  8
SIZE
100
AcDbLine
 10
625.7285419693016
 20
-2430.227236735097
 30
0.0
 11
629.7477798193021
 21
-2445.227236735097
 31
0.0
  0
LINE
  5
767
330
1F
100
AcDbEntity
  8
SIZE
100
AcDbLine
 10
625.7285419693016
 20
-2430.227236735097
 30
0.0
 11
625.7285419693016
 21
-2445.227236735097
 31
0.0
  0
LINE
  5
768
330
1F
100
AcDbEntity
  8
SIZE
100
AcDbLine
 10
629.7477798193021
 20
-2547.227236735097
 30
0.0
 11
625.7285419693016
 21
-2562.227236735097
 31
0.0
  0
LINE
  5
769
330
1F
100
AcDbEntity
  8
SIZE
100
AcDbLine
 10
625.7285419693016
 20
-2562.227236735097
 30
0.0
 11
621.709304119302
 21
-2547.227236735097
 31
0.0
  0
LINE
  5
76A
330
1F
100
AcDbEntity
  8
SIZE
100
AcDbLine
 10
625.7285419693016
 20
-2562.227236735097
 30
0.0
 11
625.7285419693016
 21
-2547.227236735097
 31
0.0
  0
TEXT
  5
76B
330
1F
100
AcDbEntity
  8
SIZE
100
AcDbText
 10
160.7318569417393
 20
-2482.15376952223
 30
0.0
 40
40.0
  1
105
 50
90.0
  7
KAIGAI
100
AcDbText
  0
LINE
  5
76C
330
1F
100
AcDbEntity
  8
SIZE
100
AcDbLine
 10
173.8059013642987
 20
-2470.227236735095
 30
0.0
 11
169.7866635142982
 21
-2485.227236735095
 31
0.0
  0
LINE
  5
76D
330
1F
100
AcDbEntity
  8
SIZE
100
AcDbLine
 10
169.7866635142982
 20
-2485.227236735095
 30
0.0
 11
165.7674256642985
 21
-2470.227236735095
 31
0.0
  0
LINE
  5
76E
330
1F
100
AcDbEntity
  8
SIZE
100
AcDbLine
 10
169.7866635142982
 20
-2485.227236735095
 30
0.0
 11
169.7866635142982
 21
-2470.227236735095
 31
0.0
  0
LINE
  5
76F
330
1F
100
AcDbEntity
  8
SIZE
100
AcDbLine
 10
165.7674256642985
 20
-2395.227236735095
 30
0.0
 11
169.7866635142982
 21
-2380.227236735095
 31
0.0
  0
LINE
  5
770
330
1F
100
AcDbEntity
  8
SIZE
100
AcDbLine
 10
169.7866635142982
 20
-2380.227236735095
 30
0.0
 11
173.8059013642987
 21
-2395.227236735095
 31
0.0
  0
LINE
  5
771
330
1F
100
AcDbEntity
  8
SIZE
100
AcDbLine
 10
169.7866635142982
 20
-2380.227236735095
 30
0.0
 11
169.7866635142982
 21
-2395.227236735095
 31
0.0
  0
LINE
  5
772
330
1F
100
AcDbEntity
  8
BASIS
100
AcDbLine
 10
-255.9999999999963
 20
2546.000000000001
 30
0.0
 11
-63.99999999999636
 21
2545.999999999999
 31
0.0
  0
LINE
  5
773
330
1F
100
AcDbEntity
  8
BASIS
100
AcDbLine
 10
-159.9999999999972
 20
2450.000000000001
 30
0.0
 11
-159.9999999999963
 21
2642.000000000001
 31
0.0
  0
LINE
  5
774
330
1F
100
AcDbEntity
  8
NOTE
100
AcDbLine
 10
-233.3987666013809
 20
2895.840417447022
 30
0.0
 11
-179.8487666013816
 21
2624.520417447023
 31
0.0
  0
LINE
  5
775
330
1F
100
AcDbEntity
  8
NOTE
100
AcDbLine
 10
-179.8487666013816
 20
2624.520417447023
 30
0.0
 11
-197.4887666013801
 21
2660.430417447024
 31
0.0
  0
LINE
  5
776
330
1F
100
AcDbEntity
  8
NOTE
100
AcDbLine
 10
-420.6825962291577
 20
2895.840417447022
 30
0.0
 11
-233.3987666013809
 21
2895.840417447022
 31
0.0
  0
LINE
  5
777
330
1F
100
AcDbEntity
  8
SIZE
100
AcDbLine
 10
480.0000000000054
 20
2675.000000000001
 30
0.0
 11
631.8712126154178
 21
2675.000000000001
 31
0.0
  0
LINE
  5
778
330
1F
100
AcDbEntity
  8
SIZE
100
AcDbLine
 10
181.0000000000036
 20
2545.999999999999
 30
0.0
 11
542.2880663844707
 21
2545.999999999999
 31
0.0
  0
LINE
  5
779
330
1F
100
AcDbEntity
  8
SIZE
100
AcDbLine
 10
621.8712126154177
 20
2660.000000000001
 30
0.0
 11
621.8712126154177
 21
2560.999999999999
 31
0.0
  0
LINE
  5
77A
330
1F
100
AcDbEntity
  8
SIZE
100
AcDbLine
 10
137.5000000000027
 20
2598.000000000001
 30
0.0
 11
563.2155534181119
 21
2598.000000000001
 31
0.0
  0
LINE
  5
77B
330
1F
100
AcDbEntity
  8
SIZE
100
AcDbLine
 10
480.0000000000054
 20
2674.999999999995
 30
0.0
 11
563.2155534181119
 21
2674.999999999995
 31
0.0
  0
LINE
  5
77C
330
1F
100
AcDbEntity
  8
SIZE
100
AcDbLine
 10
553.215553418112
 20
2613.000000000001
 30
0.0
 11
553.215553418112
 21
2659.999999999995
 31
0.0
  0
LINE
  5
77D
330
1F
100
AcDbEntity
  8
SIZE
100
AcDbLine
 10
137.5000000000027
 20
2493.000000000001
 30
0.0
 11
563.2155534181119
 21
2493.000000000001
 31
0.0
  0
LINE
  5
77E
330
1F
100
AcDbEntity
  8
SIZE
100
AcDbLine
 10
137.5000000000027
 20
2598.000000000001
 30
0.0
 11
563.2155534181119
 21
2598.000000000001
 31
0.0
  0
LINE
  5
77F
330
1F
100
AcDbEntity
  8
SIZE
100
AcDbLine
 10
553.215553418112
 20
2508.0
 30
0.0
 11
553.215553418112
 21
2583.000000000001
 31
0.0
  0
LINE
  5
780
330
1F
100
AcDbEntity
  8
SIZE
100
AcDbLine
 10
425.0000000000027
 20
2418.999999999999
 30
0.0
 11
563.2155534181119
 21
2418.999999999999
 31
0.0
  0
LINE
  5
781
330
1F
100
AcDbEntity
  8
SIZE
100
AcDbLine
 10
137.5000000000027
 20
2493.000000000001
 30
0.0
 11
563.2155534181119
 21
2493.000000000001
 31
0.0
  0
LINE
  5
782
330
1F
100
AcDbEntity
  8
SIZE
100
AcDbLine
 10
553.215553418112
 20
2433.999999999999
 30
0.0
 11
553.215553418112
 21
2478.000000000001
 31
0.0
  0
TEXT
  5
783
330
1F
100
AcDbEntity
  8
SIZE
100
AcDbText
 10
558.2155534181111
 20
2480.999999999999
 30
0.0
 40
40.0
  1
74
 50
270.0
  7
KAIGAI
100
AcDbText
  0
LINE
  5
784
330
1F
100
AcDbEntity
  8
SIZE
100
AcDbLine
 10
549.1963155681124
 20
2478.000000000001
 30
0.0
 11
553.215553418112
 21
2493.000000000001
 31
0.0
  0
LINE
  5
785
330
1F
100
AcDbEntity
  8
SIZE
100
AcDbLine
 10
553.215553418112
 20
2493.000000000001
 30
0.0
 11
557.2347912681116
 21
2478.000000000001
 31
0.0
  0
LINE
  5
786
330
1F
100
AcDbEntity
  8
SIZE
100
AcDbLine
 10
553.215553418112
 20
2493.000000000001
 30
0.0
 11
553.215553418112
 21
2478.000000000001
 31
0.0
  0
LINE
  5
787
330
1F
100
AcDbEntity
  8
SIZE
100
AcDbLine
 10
557.2347912681116
 20
2433.999999999999
 30
0.0
 11
553.215553418112
 21
2418.999999999999
 31
0.0
  0
LINE
  5
788
330
1F
100
AcDbEntity
  8
SIZE
100
AcDbLine
 10
553.215553418112
 20
2418.999999999999
 30
0.0
 11
549.1963155681124
 21
2433.999999999999
 31
0.0
  0
LINE
  5
789
330
1F
100
AcDbEntity
  8
SIZE
100
AcDbLine
 10
553.215553418112
 20
2418.999999999999
 30
0.0
 11
553.215553418112
 21
2433.999999999999
 31
0.0
  0
TEXT
  5
78A
330
1F
100
AcDbEntity
  8
SIZE
100
AcDbText
 10
558.2155534181111
 20
2578.000000000002
 30
0.0
 40
40.0
  1
105
 50
270.0
  7
KAIGAI
100
AcDbText
  0
LINE
  5
78B
330
1F
100
AcDbEntity
  8
SIZE
100
AcDbLine
 10
549.1963155681124
 20
2583.000000000001
 30
0.0
 11
553.215553418112
 21
2598.000000000001
 31
0.0
  0
LINE
  5
78C
330
1F
100
AcDbEntity
  8
SIZE
100
AcDbLine
 10
553.215553418112
 20
2598.000000000001
 30
0.0
 11
557.2347912681116
 21
2583.000000000001
 31
0.0
  0
LINE
  5
78D
330
1F
100
AcDbEntity
  8
SIZE
100
AcDbLine
 10
553.215553418112
 20
2598.000000000001
 30
0.0
 11
553.215553418112
 21
2583.000000000001
 31
0.0
  0
LINE
  5
78E
330
1F
100
AcDbEntity
  8
SIZE
100
AcDbLine
 10
557.2347912681116
 20
2508.0
 30
0.0
 11
553.215553418112
 21
2493.000000000001
 31
0.0
  0
LINE
  5
78F
330
1F
100
AcDbEntity
  8
SIZE
100
AcDbLine
 10
553.215553418112
 20
2493.000000000001
 30
0.0
 11
549.1963155681124
 21
2508.0
 31
0.0
  0
LINE
  5
790
330
1F
100
AcDbEntity
  8
SIZE
100
AcDbLine
 10
553.215553418112
 20
2493.000000000001
 30
0.0
 11
553.215553418112
 21
2508.0
 31
0.0
  0
TEXT
  5
791
330
1F
100
AcDbEntity
  8
SIZE
100
AcDbText
 10
558.2155534181111
 20
2661.499999999998
 30
0.0
 40
40.0
  1
77
 50
270.0
  7
KAIGAI
100
AcDbText
  0
LINE
  5
792
330
1F
100
AcDbEntity
  8
SIZE
100
AcDbLine
 10
549.1963155681124
 20
2659.999999999995
 30
0.0
 11
553.215553418112
 21
2674.999999999995
 31
0.0
  0
LINE
  5
793
330
1F
100
AcDbEntity
  8
SIZE
100
AcDbLine
 10
553.215553418112
 20
2674.999999999995
 30
0.0
 11
557.2347912681125
 21
2659.999999999995
 31
0.0
  0
LINE
  5
794
330
1F
100
AcDbEntity
  8
SIZE
100
AcDbLine
 10
553.215553418112
 20
2674.999999999995
 30
0.0
 11
553.215553418112
 21
2659.999999999995
 31
0.0
  0
LINE
  5
795
330
1F
100
AcDbEntity
  8
SIZE
100
AcDbLine
 10
557.2347912681116
 20
2613.000000000001
 30
0.0
 11
553.215553418112
 21
2598.000000000001
 31
0.0
  0
LINE
  5
796
330
1F
100
AcDbEntity
  8
SIZE
100
AcDbLine
 10
553.215553418112
 20
2598.000000000001
 30
0.0
 11
549.1963155681124
 21
2613.000000000001
 31
0.0
  0
LINE
  5
797
330
1F
100
AcDbEntity
  8
SIZE
100
AcDbLine
 10
553.215553418112
 20
2598.000000000001
 30
0.0
 11
553.215553418112
 21
2613.000000000001
 31
0.0
  0
TEXT
  5
798
330
1F
100
AcDbEntity
  8
SIZE
100
AcDbText
 10
626.8712126154168
 20
2645.499999999998
 30
0.0
 40
40.0
  1
129
 50
270.0
  7
KAIGAI
100
AcDbText
  0
LINE
  5
799
330
1F
100
AcDbEntity
  8
SIZE
100
AcDbLine
 10
625.8904504654174
 20
2560.999999999999
 30
0.0
 11
621.8712126154177
 21
2545.999999999999
 31
0.0
  0
LINE
  5
79A
330
1F
100
AcDbEntity
  8
SIZE
100
AcDbLine
 10
621.8712126154177
 20
2545.999999999999
 30
0.0
 11
617.8519747654181
 21
2560.999999999999
 31
0.0
  0
LINE
  5
79B
330
1F
100
AcDbEntity
  8
SIZE
100
AcDbLine
 10
621.8712126154177
 20
2545.999999999999
 30
0.0
 11
621.8712126154177
 21
2560.999999999999
 31
0.0
  0
LINE
  5
79C
330
1F
100
AcDbEntity
  8
SIZE
100
AcDbLine
 10
617.8519747654181
 20
2660.000000000001
 30
0.0
 11
621.8712126154177
 21
2675.000000000001
 31
0.0
  0
LINE
  5
79D
330
1F
100
AcDbEntity
  8
SIZE
100
AcDbLine
 10
621.8712126154177
 20
2675.000000000001
 30
0.0
 11
625.8904504654183
 21
2660.000000000001
 31
0.0
  0
LINE
  5
79E
330
1F
100
AcDbEntity
  8
SIZE
100
AcDbLine
 10
621.8712126154177
 20
2675.000000000001
 30
0.0
 11
621.8712126154177
 21
2660.000000000001
 31
0.0
  0
LINE
  5
79F
330
1F
100
AcDbEntity
  8
SIZE
100
AcDbLine
 10
593.4349675890598
 20
2545.999999999999
 30
0.0
 11
631.8712126154178
 21
2545.999999999999
 31
0.0
  0
LINE
  5
7A0
330
1F
100
AcDbEntity
  8
SIZE
100
AcDbLine
 10
0.0000000000045475
 20
2413.999999999999
 30
0.0
 11
0.0000000000045475
 21
2308.453997724659
 31
0.0
  0
LINE
  5
7A1
330
1F
100
AcDbEntity
  8
SIZE
100
AcDbLine
 10
80.00000000000273
 20
2482.989999999999
 30
0.0
 11
80.00000000000273
 21
2308.453997724659
 31
0.0
  0
LINE
  5
7A2
330
1F
100
AcDbEntity
  8
SIZE
100
AcDbLine
 10
15.00000000000454
 20
2318.453997724659
 30
0.0
 11
65.00000000000273
 21
2318.453997724659
 31
0.0
  0
LINE
  5
7A3
330
1F
100
AcDbEntity
  8
SIZE
100
AcDbLine
 10
-159.9999999999972
 20
2488.000000000001
 30
0.0
 11
-159.9999999999972
 21
2244.457133704588
 31
0.0
  0
LINE
  5
7A4
330
1F
100
AcDbEntity
  8
SIZE
100
AcDbLine
 10
80.00000000000273
 20
2488.000000000001
 30
0.0
 11
80.00000000000273
 21
2244.457133704588
 31
0.0
  0
LINE
  5
7A5
330
1F
100
AcDbEntity
  8
SIZE
100
AcDbLine
 10
-144.9999999999972
 20
2254.457133704588
 30
0.0
 11
65.00000000000273
 21
2254.457133704588
 31
0.0
  0
LINE
  5
7A6
330
1F
100
AcDbEntity
  8
SIZE
100
AcDbLine
 10
132.5000000000027
 20
2487.989999999999
 30
0.0
 11
132.5000000000018
 21
2179.480340976442
 31
0.0
  0
LINE
  5
7A7
330
1F
100
AcDbEntity
  8
SIZE
100
AcDbLine
 10
420.0000000000027
 20
2413.999999999999
 30
0.0
 11
420.0000000000017
 21
2179.480340976442
 31
0.0
  0
LINE
  5
7A8
330
1F
100
AcDbEntity
  8
SIZE
100
AcDbLine
 10
147.5000000000018
 20
2189.480340976441
 30
0.0
 11
405.0000000000018
 21
2189.480340976441
 31
0.0
  0
LINE
  5
7A9
330
1F
100
AcDbEntity
  8
SIZE
100
AcDbLine
 10
27.50000000000273
 20
2487.989999999999
 30
0.0
 11
27.50000000000273
 21
2340.777752059427
 31
0.0
  0
LINE
  5
7AA
330
1F
100
AcDbEntity
  8
SIZE
100
AcDbLine
 10
132.5000000000027
 20
2488.000000000001
 30
0.0
 11
132.5000000000018
 21
2179.480340976442
 31
0.0
  0
LINE
  5
7AB
330
1F
100
AcDbEntity
  8
SIZE
100
AcDbLine
 10
42.50000000000182
 20
2189.480340976441
 30
0.0
 11
117.5000000000018
 21
2189.480340976441
 31
0.0
  0
LINE
  5
7AC
330
1F
100
AcDbEntity
  8
SIZE
100
AcDbLine
 10
-107.4999999999972
 20
2487.989999999999
 30
0.0
 11
-107.4999999999981
 21
2179.480340976442
 31
0.0
  0
LINE
  5
7AD
330
1F
100
AcDbEntity
  8
SIZE
100
AcDbLine
 10
-92.49999999999818
 20
2189.480340976441
 30
0.0
 11
12.50000000000272
 21
2189.480340976441
 31
0.0
  0
LINE
  5
7AE
330
1F
100
AcDbEntity
  8
SIZE
100
AcDbLine
 10
-212.4999999999972
 20
2487.989999999999
 30
0.0
 11
-212.4999999999981
 21
2179.480340976442
 31
0.0
  0
LINE
  5
7AF
330
1F
100
AcDbEntity
  8
SIZE
100
AcDbLine
 10
-107.4999999999972
 20
2488.000000000001
 30
0.0
 11
-107.4999999999981
 21
2179.480340976442
 31
0.0
  0
LINE
  5
7B0
330
1F
100
AcDbEntity
  8
SIZE
100
AcDbLine
 10
-197.4999999999981
 20
2189.480340976441
 30
0.0
 11
-122.4999999999981
 21
2189.480340976441
 31
0.0
  0
LINE
  5
7B1
330
1F
100
AcDbEntity
  8
SIZE
100
AcDbLine
 10
-419.9999999999972
 20
2414.000000000001
 30
0.0
 11
-419.9999999999972
 21
2179.480340976442
 31
0.0
  0
LINE
  5
7B2
330
1F
100
AcDbEntity
  8
SIZE
100
AcDbLine
 10
-212.4999999999972
 20
2488.000000000001
 30
0.0
 11
-212.4999999999981
 21
2179.480340976442
 31
0.0
  0
LINE
  5
7B3
330
1F
100
AcDbEntity
  8
SIZE
100
AcDbLine
 10
-404.9999999999973
 20
2189.480340976441
 30
0.0
 11
-227.4999999999981
 21
2189.480340976441
 31
0.0
  0
LINE
  5
7B4
330
1F
100
AcDbEntity
  8
SIZE
100
AcDbLine
 10
420.0000000000027
 20
2413.999999999999
 30
0.0
 11
420.0000000000017
 21
2112.411479970239
 31
0.0
  0
LINE
  5
7B5
330
1F
100
AcDbEntity
  8
SIZE
100
AcDbLine
 10
-419.9999999999972
 20
2414.000000000001
 30
0.0
 11
-419.9999999999972
 21
2112.411479970239
 31
0.0
  0
LINE
  5
7B6
330
1F
100
AcDbEntity
  8
SIZE
100
AcDbLine
 10
405.0000000000018
 20
2122.411479970239
 30
0.0
 11
-404.9999999999973
 21
2122.411479970239
 31
0.0
  0
TEXT
  5
7B7
330
1F
100
AcDbEntity
  8
SIZE
100
AcDbText
 10
381.5014224815158
 20
2115.534344240258
 30
0.0
 40
40.0
  1
840
 50
180.0
  7
KAIGAI
100
AcDbText
  0
LINE
  5
7B8
330
1F
100
AcDbEntity
  8
SIZE
100
AcDbLine
 10
-404.9999999999973
 20
2118.392242120239
 30
0.0
 11
-419.9999999999972
 21
2122.411479970239
 31
0.0
  0
LINE
  5
7B9
330
1F
100
AcDbEntity
  8
SIZE
100
AcDbLine
 10
-419.9999999999972
 20
2122.411479970239
 30
0.0
 11
-404.9999999999973
 21
2126.430717820239
 31
0.0
  0
LINE
  5
7BA
330
1F
100
AcDbEntity
  8
SIZE
100
AcDbLine
 10
-419.9999999999972
 20
2122.411479970239
 30
0.0
 11
-404.9999999999973
 21
2122.411479970239
 31
0.0
  0
LINE
  5
7BB
330
1F
100
AcDbEntity
  8
SIZE
100
AcDbLine
 10
405.0000000000018
 20
2126.430717820239
 30
0.0
 11
420.0000000000017
 21
2122.411479970239
 31
0.0
  0
LINE
  5
7BC
330
1F
100
AcDbEntity
  8
SIZE
100
AcDbLine
 10
420.0000000000017
 20
2122.411479970239
 30
0.0
 11
405.0000000000018
 21
2118.392242120239
 31
0.0
  0
LINE
  5
7BD
330
1F
100
AcDbEntity
  8
SIZE
100
AcDbLine
 10
420.0000000000017
 20
2122.411479970239
 30
0.0
 11
405.0000000000018
 21
2122.411479970239
 31
0.0
  0
TEXT
  5
7BE
330
1F
100
AcDbEntity
  8
SIZE
100
AcDbText
 10
-258.7499999999981
 20
2184.480340976441
 30
0.0
 40
40.0
  1
207.5
 50
180.0
  7
KAIGAI
100
AcDbText
  0
LINE
  5
7BF
330
1F
100
AcDbEntity
  8
SIZE
100
AcDbLine
 10
-227.4999999999981
 20
2193.499578826441
 30
0.0
 11
-212.4999999999981
 21
2189.480340976441
 31
0.0
  0
LINE
  5
7C0
330
1F
100
AcDbEntity
  8
SIZE
100
AcDbLine
 10
-212.4999999999981
 20
2189.480340976441
 30
0.0
 11
-227.4999999999981
 21
2185.461103126442
 31
0.0
  0
LINE
  5
7C1
330
1F
100
AcDbEntity
  8
SIZE
100
AcDbLine
 10
-212.4999999999981
 20
2189.480340976441
 30
0.0
 11
-227.4999999999981
 21
2189.480340976441
 31
0.0
  0
LINE
  5
7C2
330
1F
100
AcDbEntity
  8
SIZE
100
AcDbLine
 10
-404.9999999999973
 20
2185.461103126442
 30
0.0
 11
-419.9999999999972
 21
2189.480340976441
 31
0.0
  0
LINE
  5
7C3
330
1F
100
AcDbEntity
  8
SIZE
100
AcDbLine
 10
-419.9999999999972
 20
2189.480340976441
 30
0.0
 11
-404.9999999999973
 21
2193.499578826441
 31
0.0
  0
LINE
  5
7C4
330
1F
100
AcDbEntity
  8
SIZE
100
AcDbLine
 10
-419.9999999999972
 20
2189.480340976441
 30
0.0
 11
-404.9999999999973
 21
2189.480340976441
 31
0.0
  0
TEXT
  5
7C5
330
1F
100
AcDbEntity
  8
SIZE
100
AcDbText
 10
-127.4999999999991
 20
2184.480340976441
 30
0.0
 40
40.0
  1
105
 50
180.0
  7
KAIGAI
100
AcDbText
  0
LINE
  5
7C6
330
1F
100
AcDbEntity
  8
SIZE
100
AcDbLine
 10
-122.4999999999981
 20
2193.499578826441
 30
0.0
 11
-107.4999999999981
 21
2189.480340976441
 31
0.0
  0
LINE
  5
7C7
330
1F
100
AcDbEntity
  8
SIZE
100
AcDbLine
 10
-107.4999999999981
 20
2189.480340976441
 30
0.0
 11
-122.4999999999981
 21
2185.461103126442
 31
0.0
  0
LINE
  5
7C8
330
1F
100
AcDbEntity
  8
SIZE
100
AcDbLine
 10
-107.4999999999981
 20
2189.480340976441
 30
0.0
 11
-122.4999999999981
 21
2189.480340976441
 31
0.0
  0
LINE
  5
7C9
330
1F
100
AcDbEntity
  8
SIZE
100
AcDbLine
 10
-197.4999999999981
 20
2185.461103126442
 30
0.0
 11
-212.4999999999981
 21
2189.480340976441
 31
0.0
  0
LINE
  5
7CA
330
1F
100
AcDbEntity
  8
SIZE
100
AcDbLine
 10
-212.4999999999981
 20
2189.480340976441
 30
0.0
 11
-197.4999999999981
 21
2193.499578826441
 31
0.0
  0
LINE
  5
7CB
330
1F
100
AcDbEntity
  8
SIZE
100
AcDbLine
 10
-212.4999999999981
 20
2189.480340976441
 30
0.0
 11
-197.4999999999981
 21
2189.480340976441
 31
0.0
  0
TEXT
  5
7CC
330
1F
100
AcDbEntity
  8
SIZE
100
AcDbText
 10
-4.999999999998181
 20
2184.480340976441
 30
0.0
 40
40.0
  1
135
 50
180.0
  7
KAIGAI
100
AcDbText
  0
LINE
  5
7CD
330
1F
100
AcDbEntity
  8
SIZE
100
AcDbLine
 10
12.50000000000272
 20
2193.499578826441
 30
0.0
 11
27.50000000000182
 21
2189.480340976441
 31
0.0
  0
LINE
  5
7CE
330
1F
100
AcDbEntity
  8
SIZE
100
AcDbLine
 10
27.50000000000182
 20
2189.480340976441
 30
0.0
 11
12.50000000000272
 21
2185.461103126442
 31
0.0
  0
LINE
  5
7CF
330
1F
100
AcDbEntity
  8
SIZE
100
AcDbLine
 10
27.50000000000182
 20
2189.480340976441
 30
0.0
 11
12.50000000000272
 21
2189.480340976441
 31
0.0
  0
LINE
  5
7D0
330
1F
100
AcDbEntity
  8
SIZE
100
AcDbLine
 10
-92.49999999999818
 20
2185.461103126442
 30
0.0
 11
-107.4999999999981
 21
2189.480340976441
 31
0.0
  0
LINE
  5
7D1
330
1F
100
AcDbEntity
  8
SIZE
100
AcDbLine
 10
-107.4999999999981
 20
2189.480340976441
 30
0.0
 11
-92.49999999999818
 21
2193.499578826441
 31
0.0
  0
LINE
  5
7D2
330
1F
100
AcDbEntity
  8
SIZE
100
AcDbLine
 10
-107.4999999999981
 20
2189.480340976441
 30
0.0
 11
-92.49999999999818
 21
2189.480340976441
 31
0.0
  0
TEXT
  5
7D3
330
1F
100
AcDbEntity
  8
SIZE
100
AcDbText
 10
112.5000000000009
 20
2184.480340976441
 30
0.0
 40
40.0
  1
105
 50
180.0
  7
KAIGAI
100
AcDbText
  0
LINE
  5
7D4
330
1F
100
AcDbEntity
  8
SIZE
100
AcDbLine
 10
117.5000000000018
 20
2193.499578826441
 30
0.0
 11
132.5000000000018
 21
2189.480340976441
 31
0.0
  0
LINE
  5
7D5
330
1F
100
AcDbEntity
  8
SIZE
100
AcDbLine
 10
132.5000000000018
 20
2189.480340976441
 30
0.0
 11
117.5000000000018
 21
2185.461103126442
 31
0.0
  0
LINE
  5
7D6
330
1F
100
AcDbEntity
  8
SIZE
100
AcDbLine
 10
132.5000000000018
 20
2189.480340976441
 30
0.0
 11
117.5000000000018
 21
2189.480340976441
 31
0.0
  0
LINE
  5
7D7
330
1F
100
AcDbEntity
  8
SIZE
100
AcDbLine
 10
42.50000000000182
 20
2185.461103126442
 30
0.0
 11
27.50000000000182
 21
2189.480340976441
 31
0.0
  0
LINE
  5
7D8
330
1F
100
AcDbEntity
  8
SIZE
100
AcDbLine
 10
27.50000000000182
 20
2189.480340976441
 30
0.0
 11
42.50000000000272
 21
2193.499578826441
 31
0.0
  0
LINE
  5
7D9
330
1F
100
AcDbEntity
  8
SIZE
100
AcDbLine
 10
27.50000000000182
 20
2189.480340976441
 30
0.0
 11
42.50000000000182
 21
2189.480340976441
 31
0.0
  0
TEXT
  5
7DA
330
1F
100
AcDbEntity
  8
SIZE
100
AcDbText
 10
336.2500000000009
 20
2184.480340976441
 30
0.0
 40
40.0
  1
287.5
 50
180.0
  7
KAIGAI
100
AcDbText
  0
LINE
  5
7DB
330
1F
100
AcDbEntity
  8
SIZE
100
AcDbLine
 10
405.0000000000018
 20
2193.499578826441
 30
0.0
 11
420.0000000000017
 21
2189.480340976441
 31
0.0
  0
LINE
  5
7DC
330
1F
100
AcDbEntity
  8
SIZE
100
AcDbLine
 10
420.0000000000017
 20
2189.480340976441
 30
0.0
 11
405.0000000000018
 21
2185.461103126442
 31
0.0
  0
LINE
  5
7DD
330
1F
100
AcDbEntity
  8
SIZE
100
AcDbLine
 10
420.0000000000017
 20
2189.480340976441
 30
0.0
 11
405.0000000000018
 21
2189.480340976441
 31
0.0
  0
LINE
  5
7DE
330
1F
100
AcDbEntity
  8
SIZE
100
AcDbLine
 10
147.5000000000018
 20
2185.461103126442
 30
0.0
 11
132.5000000000018
 21
2189.480340976441
 31
0.0
  0
LINE
  5
7DF
330
1F
100
AcDbEntity
  8
SIZE
100
AcDbLine
 10
132.5000000000018
 20
2189.480340976441
 30
0.0
 11
147.5000000000018
 21
2193.499578826441
 31
0.0
  0
LINE
  5
7E0
330
1F
100
AcDbEntity
  8
SIZE
100
AcDbLine
 10
132.5000000000018
 20
2189.480340976441
 30
0.0
 11
147.5000000000018
 21
2189.480340976441
 31
0.0
  0
TEXT
  5
7E1
330
1F
100
AcDbEntity
  8
SIZE
100
AcDbText
 10
-2.499999999998181
 20
2249.457133704587
 30
0.0
 40
40.0
  1
240
 50
180.0
  7
KAIGAI
100
AcDbText
  0
LINE
  5
7E2
330
1F
100
AcDbEntity
  8
SIZE
100
AcDbLine
 10
65.00000000000273
 20
2258.476371554587
 30
0.0
 11
80.00000000000273
 21
2254.457133704588
 31
0.0
  0
LINE
  5
7E3
330
1F
100
AcDbEntity
  8
SIZE
100
AcDbLine
 10
80.00000000000273
 20
2254.457133704588
 30
0.0
 11
65.00000000000273
 21
2250.437895854586
 31
0.0
  0
LINE
  5
7E4
330
1F
100
AcDbEntity
  8
SIZE
100
AcDbLine
 10
80.00000000000273
 20
2254.457133704588
 30
0.0
 11
65.00000000000273
 21
2254.457133704588
 31
0.0
  0
LINE
  5
7E5
330
1F
100
AcDbEntity
  8
SIZE
100
AcDbLine
 10
-144.9999999999972
 20
2250.437895854586
 30
0.0
 11
-159.9999999999972
 21
2254.457133704588
 31
0.0
  0
LINE
  5
7E6
330
1F
100
AcDbEntity
  8
SIZE
100
AcDbLine
 10
-159.9999999999972
 20
2254.457133704588
 30
0.0
 11
-144.9999999999972
 21
2258.476371554587
 31
0.0
  0
LINE
  5
7E7
330
1F
100
AcDbEntity
  8
SIZE
100
AcDbLine
 10
-159.9999999999972
 20
2254.457133704588
 30
0.0
 11
-144.9999999999972
 21
2254.457133704588
 31
0.0
  0
TEXT
  5
7E8
330
1F
100
AcDbEntity
  8
SIZE
100
AcDbText
 10
62.50000000000273
 20
2313.453997724658
 30
0.0
 40
40.0
  1
80
 50
180.0
  7
KAIGAI
100
AcDbText
  0
LINE
  5
7E9
330
1F
100
AcDbEntity
  8
SIZE
100
AcDbLine
 10
65.00000000000273
 20
2322.473235574659
 30
0.0
 11
80.00000000000273
 21
2318.453997724659
 31
0.0
  0
LINE
  5
7EA
330
1F
100
AcDbEntity
  8
SIZE
100
AcDbLine
 10
80.00000000000273
 20
2318.453997724659
 30
0.0
 11
65.00000000000273
 21
2314.434759874659
 31
0.0
  0
LINE
  5
7EB
330
1F
100
AcDbEntity
  8
SIZE
100
AcDbLine
 10
80.00000000000273
 20
2318.453997724659
 30
0.0
 11
65.00000000000273
 21
2318.453997724659
 31
0.0
  0
LINE
  5
7EC
330
1F
100
AcDbEntity
  8
SIZE
100
AcDbLine
 10
15.00000000000454
 20
2314.434759874659
 30
0.0
 11
0.0000000000045475
 21
2318.453997724659
 31
0.0
  0
LINE
  5
7ED
330
1F
100
AcDbEntity
  8
SIZE
100
AcDbLine
 10
0.0000000000045475
 20
2318.453997724659
 30
0.0
 11
15.00000000000454
 21
2322.473235574659
 31
0.0
  0
LINE
  5
7EE
330
1F
100
AcDbEntity
  8
SIZE
100
AcDbLine
 10
0.0000000000045475
 20
2318.453997724659
 30
0.0
 11
15.00000000000454
 21
2318.453997724659
 31
0.0
  0
LINE
  5
7EF
330
1F
100
AcDbEntity
  8
SIZE
100
AcDbLine
 10
27.50000000000273
 20
2270.54495651456
 30
0.0
 11
27.50000000000182
 21
2179.480340976442
 31
0.0
  0
LINE
  5
7F0
330
1F
100
AcDbEntity
  8
SIZE
100
AcDbLine
 10
27.50000000000273
 20
2270.54495651456
 30
0.0
 11
27.50000000000182
 21
2179.480340976442
 31
0.0
  0
LINE
  5
7F1
330
1F
100
AcDbEntity
  8
BASIS
100
AcDbLine
 10
418.0000000000045
 20
2503.000000000001
 30
0.0
 11
335.0000000000045
 21
2503.000000000001
 31
0.0
  0
LINE
  5
7F2
330
1F
100
AcDbEntity
  8
BASIS
100
AcDbLine
 10
418.0000000000063
 20
2563.000000000001
 30
0.0
 11
335.0000000000063
 21
2563.000000000001
 31
0.0
  0
LINE
  5
7F3
330
1F
100
AcDbEntity
  8
OUTLINE
100
AcDbLine
 10
-2503.987319740065
 20
-344.9999999999927
 30
0.0
 11
-2503.987319740065
 21
345.0000000000073
 31
0.0
  0
LINE
  5
7F4
330
1F
100
AcDbEntity
  8
OUTLINE
100
AcDbLine
 10
-2473.987319740066
 20
-474.9999999999954
 30
0.0
 11
-2480.987319740066
 21
-474.9999999999954
 31
0.0
  0
LINE
  5
7F5
330
1F
100
AcDbEntity
  8
OUTLINE
100
AcDbLine
 10
-2480.987319740066
 20
-474.9999999999954
 30
0.0
 11
-2488.987319740065
 21
-419.9999999999936
 31
0.0
  0
LINE
  5
7F6
330
1F
100
AcDbEntity
  8
OUTLINE
100
AcDbLine
 10
-2473.987319740067
 20
475.0000000000063
 30
0.0
 11
-2480.987319740068
 21
475.0000000000063
 31
0.0
  0
LINE
  5
7F7
330
1F
100
AcDbEntity
  8
OUTLINE
100
AcDbLine
 10
-2480.987319740068
 20
475.0000000000063
 30
0.0
 11
-2488.987319740067
 21
420.0000000000045
 31
0.0
  0
LINE
  5
7F8
330
1F
100
AcDbEntity
  8
OUTLINE
100
AcDbLine
 10
-2488.987319740064
 20
420.0000000000263
 30
0.0
 11
-2488.987319740065
 21
-419.9999999999936
 31
0.0
  0
LINE
  5
7F9
330
1F
100
AcDbEntity
  8
OUTLINE
100
AcDbLine
 10
-2503.987319740065
 20
-344.9999999999927
 30
0.0
 11
-2503.987319740065
 21
345.0000000000073
 31
0.0
  0
LINE
  5
7FA
330
1F
100
AcDbEntity
  8
OUTLINE
100
AcDbLine
 10
-2503.987319740065
 20
345.0000000000073
 30
0.0
 11
-2488.987319740065
 21
345.0000000000073
 31
0.0
  0
LINE
  5
7FB
330
1F
100
AcDbEntity
  8
OUTLINE
100
AcDbLine
 10
-2473.987319740067
 20
475.0000000000063
 30
0.0
 11
-2473.987319740066
 21
-474.9999999999954
 31
0.0
  0
LINE
  5
7FC
330
1F
100
AcDbEntity
  8
OUTLINE
100
AcDbLine
 10
-2503.987319740065
 20
-344.9999999999927
 30
0.0
 11
-2488.987319740065
 21
-344.9999999999927
 31
0.0
  0
LINE
  5
7FD
330
1F
100
AcDbEntity
  8
OUTLINE
100
AcDbLine
 10
-2217.987319740064
 20
-419.9999999999954
 30
0.0
 11
-2217.987319740067
 21
420.0000000000054
 31
0.0
  0
LINE
  5
7FE
330
1F
100
AcDbEntity
  8
OUTLINE
100
AcDbLine
 10
-2217.987319740067
 20
420.0000000000054
 30
0.0
 11
-2461.987319740067
 21
420.0000000000064
 31
0.0
  0
LINE
  5
7FF
330
1F
100
AcDbEntity
  8
OUTLINE
100
AcDbLine
 10
-2461.987319740067
 20
420.0000000000064
 30
0.0
 11
-2461.987319740067
 21
430.0000000000063
 31
0.0
  0
LINE
  5
800
330
1F
100
AcDbEntity
  8
OUTLINE
100
AcDbLine
 10
-2461.987319740067
 20
430.0000000000063
 30
0.0
 11
-2473.987319740067
 21
430.0000000000063
 31
0.0
  0
LINE
  5
801
330
1F
100
AcDbEntity
  8
OUTLINE
100
AcDbLine
 10
-2473.987319740067
 20
-429.9999999999945
 30
0.0
 11
-2461.987319740067
 21
-429.9999999999945
 31
0.0
  0
LINE
  5
802
330
1F
100
AcDbEntity
  8
OUTLINE
100
AcDbLine
 10
-2461.987319740067
 20
-429.9999999999945
 30
0.0
 11
-2461.987319740067
 21
-419.9999999999945
 31
0.0
  0
LINE
  5
803
330
1F
100
AcDbEntity
  8
OUTLINE
100
AcDbLine
 10
-2461.987319740067
 20
-419.9999999999945
 30
0.0
 11
-2217.987319740064
 21
-419.9999999999954
 31
0.0
  0
LINE
  5
804
330
1F
100
AcDbEntity
  8
BASIS
100
AcDbLine
 10
-2344.987319740067
 20
91.00000000000454
 30
0.0
 11
-2344.987319740065
 21
-80.99999999999544
 31
0.0
  0
CIRCLE
  5
805
330
1F
100
AcDbEntity
  8
FIX
100
AcDbCircle
 10
-2387.987319740065
 20
-394.9999999999945
 30
0.0
 40
20.0
  0
LINE
  5
806
330
1F
100
AcDbEntity
  8
BASIS
100
AcDbLine
 10
-2355.207319740065
 20
-394.9999999999945
 30
0.0
 11
-2415.567319740062
 21
-394.9999999999945
 31
0.0
  0
LINE
  5
807
330
1F
100
AcDbEntity
  8
BASIS
100
AcDbLine
 10
-2503.987319740065
 20
0.000000000005457
 30
0.0
 11
-2217.987319740065
 21
0.0000000000045475
 31
0.0
  0
LINE
  5
808
330
1F
100
AcDbEntity
  8
BASIS
100
AcDbLine
 10
-2260.727319740065
 20
-322.9999999999954
 30
0.0
 11
-2312.707319740063
 21
-322.9999999999954
 31
0.0
  0
LINE
  5
809
330
1F
100
AcDbEntity
  8
BASIS
100
AcDbLine
 10
-2284.987319740066
 20
-292.6199999999953
 30
0.0
 11
-2284.987319740066
 21
-355.3099999999949
 31
0.0
  0
LINE
  5
80A
330
1F
100
AcDbEntity
  8
BASIS
100
AcDbLine
 10
-2252.577319740066
 20
5.000000000004547
 30
0.0
 11
-2433.597319740066
 21
5.000000000004547
 31
0.0
  0
POINT
  5
80B
330
1F
100
AcDbEntity
  8
ARRANGE
100
AcDbPoint
 10
-2473.987319740066
 20
0.000000000005457
 30
0.0
  0
CIRCLE
  5
80C
330
1F
100
AcDbEntity
  8
ARRANGE
100
AcDbCircle
 10
-2473.987319740066
 20
0.000000000005457
 30
0.0
 40
20.0
  0
LINE
  5
80D
330
1F
100
AcDbEntity
  8
BASIS
100
AcDbLine
 10
-2355.207319740066
 20
395.0000000000063
 30
0.0
 11
-2415.567319740067
 21
395.0000000000063
 31
0.0
  0
CIRCLE
  5
80E
330
1F
100
AcDbEntity
  8
FIX
100
AcDbCircle
 10
-2388.977319740065
 20
395.0000000000091
 30
0.0
 40
20.0
  0
CIRCLE
  5
80F
330
1F
100
AcDbEntity
  8
ARRANGE
100
AcDbCircle
 10
-2473.987319740066
 20
0.000000000005457
 30
0.0
 40
20.0
  0
POINT
  5
810
330
1F
100
AcDbEntity
  8
ARRANGE
100
AcDbPoint
 10
-2473.987319740066
 20
0.000000000005457
 30
0.0
  0
LINE
  5
811
330
1F
100
AcDbEntity
  8
SIZE
100
AcDbLine
 10
-2473.987319740066
 20
0.000000000005457
 30
0.0
 11
-2473.987319740066
 21
5.000000000005456
 31
0.0
  0
LINE
  5
812
330
1F
100
AcDbEntity
  8
SIZE
100
AcDbLine
 10
-2212.987319740063
 20
-419.9999999999954
 30
0.0
 11
-1995.020674638143
 21
-419.9999999999981
 31
0.0
  0
LINE
  5
813
330
1F
100
AcDbEntity
  8
SIZE
100
AcDbLine
 10
-2212.987319740067
 20
420.0000000000054
 30
0.0
 11
-1995.020674638143
 21
420.0000000000027
 31
0.0
  0
LINE
  5
814
330
1F
100
AcDbEntity
  8
SIZE
100
AcDbLine
 10
-2005.020674638144
 20
-404.9999999999982
 30
0.0
 11
-2005.020674638144
 21
405.0000000000027
 31
0.0
  0
LINE
  5
815
330
1F
100
AcDbEntity
  8
SIZE
100
AcDbLine
 10
-2247.987319740067
 20
245.0000000000063
 30
0.0
 11
-2044.733468876033
 21
245.0000000000045
 31
0.0
  0
LINE
  5
816
330
1F
100
AcDbEntity
  8
SIZE
100
AcDbLine
 10
-2212.987319740067
 20
420.0000000000054
 30
0.0
 11
-2044.733468876033
 21
420.0000000000045
 31
0.0
  0
LINE
  5
817
330
1F
100
AcDbEntity
  8
SIZE
100
AcDbLine
 10
-2054.733468876034
 20
260.0000000000054
 30
0.0
 11
-2054.733468876034
 21
405.0000000000054
 31
0.0
  0
LINE
  5
818
330
1F
100
AcDbEntity
  8
SIZE
100
AcDbLine
 10
-2247.987319740067
 20
245.0000000000063
 30
0.0
 11
-2044.733468876033
 21
245.0000000000045
 31
0.0
  0
LINE
  5
819
330
1F
100
AcDbEntity
  8
SIZE
100
AcDbLine
 10
-2247.987319740067
 20
-234.9999999999936
 30
0.0
 11
-2044.733468876033
 21
-234.9999999999954
 31
0.0
  0
LINE
  5
81A
330
1F
100
AcDbEntity
  8
SIZE
100
AcDbLine
 10
-2054.733468876034
 20
230.0000000000054
 30
0.0
 11
-2054.733468876034
 21
-219.9999999999945
 31
0.0
  0
LINE
  5
81B
330
1F
100
AcDbEntity
  8
SIZE
100
AcDbLine
 10
-2212.987319740063
 20
-419.9999999999954
 30
0.0
 11
-2044.733468876033
 21
-419.9999999999963
 31
0.0
  0
LINE
  5
81C
330
1F
100
AcDbEntity
  8
SIZE
100
AcDbLine
 10
-2247.987319740067
 20
-234.9999999999936
 30
0.0
 11
-2044.733468876033
 21
-234.9999999999954
 31
0.0
  0
LINE
  5
81D
330
1F
100
AcDbEntity
  8
SIZE
100
AcDbLine
 10
-2054.733468876034
 20
-404.9999999999954
 30
0.0
 11
-2054.733468876034
 21
-249.9999999999945
 31
0.0
  0
LINE
  5
81E
330
1F
100
AcDbEntity
  8
SIZE
100
AcDbLine
 10
-2212.987319740065
 20
0.0000000000045475
 30
0.0
 11
-2098.023338221624
 21
0.0000000000045475
 31
0.0
  0
LINE
  5
81F
330
1F
100
AcDbEntity
  8
SIZE
100
AcDbLine
 10
-2247.987319740067
 20
-234.9999999999936
 30
0.0
 11
-2098.023338221624
 21
-234.9999999999945
 31
0.0
  0
LINE
  5
820
330
1F
100
AcDbEntity
  8
SIZE
100
AcDbLine
 10
-2108.023338221623
 20
-14.99999999999545
 30
0.0
 11
-2108.023338221623
 21
-219.9999999999945
 31
0.0
  0
LINE
  5
821
330
1F
100
AcDbEntity
  8
SIZE
100
AcDbLine
 10
-2286.987319740067
 20
57.50000000000546
 30
0.0
 11
-2151.756249196932
 21
57.50000000000546
 31
0.0
  0
LINE
  5
822
330
1F
100
AcDbEntity
  8
SIZE
100
AcDbLine
 10
-2212.987319740067
 20
420.0000000000054
 30
0.0
 11
-2151.756249196932
 21
420.0000000000054
 31
0.0
  0
LINE
  5
823
330
1F
100
AcDbEntity
  8
SIZE
100
AcDbLine
 10
-2161.756249196931
 20
72.50000000000546
 30
0.0
 11
-2161.756249196931
 21
405.0000000000054
 31
0.0
  0
LINE
  5
824
330
1F
100
AcDbEntity
  8
SIZE
100
AcDbLine
 10
-2286.987319740067
 20
-47.49999999999454
 30
0.0
 11
-2151.756249196932
 21
-47.49999999999454
 31
0.0
  0
LINE
  5
825
330
1F
100
AcDbEntity
  8
SIZE
100
AcDbLine
 10
-2286.987319740067
 20
57.50000000000546
 30
0.0
 11
-2151.756249196932
 21
57.50000000000546
 31
0.0
  0
LINE
  5
826
330
1F
100
AcDbEntity
  8
SIZE
100
AcDbLine
 10
-2161.756249196931
 20
-32.49999999999454
 30
0.0
 11
-2161.756249196931
 21
42.50000000000546
 31
0.0
  0
LINE
  5
827
330
1F
100
AcDbEntity
  8
SIZE
100
AcDbLine
 10
-2212.987319740063
 20
-419.9999999999954
 30
0.0
 11
-2151.756249196932
 21
-419.9999999999954
 31
0.0
  0
LINE
  5
828
330
1F
100
AcDbEntity
  8
SIZE
100
AcDbLine
 10
-2286.987319740067
 20
-47.49999999999454
 30
0.0
 11
-2151.756249196932
 21
-47.49999999999454
 31
0.0
  0
LINE
  5
829
330
1F
100
AcDbEntity
  8
SIZE
100
AcDbLine
 10
-2161.756249196931
 20
-404.9999999999954
 30
0.0
 11
-2161.756249196931
 21
-62.49999999999454
 31
0.0
  0
LINE
  5
82A
330
1F
100
AcDbEntity
  8
SIZE
100
AcDbLine
 10
-2291.987319740067
 20
-52.49999999999454
 30
0.0
 11
-2291.987319740067
 21
-175.5479999999943
 31
0.0
  0
LINE
  5
82B
330
1F
100
AcDbEntity
  8
SIZE
100
AcDbLine
 10
-2217.987319740065
 20
-87.49999999999545
 30
0.0
 11
-2217.987319740065
 21
-175.5479999999943
 31
0.0
  0
LINE
  5
82C
330
1F
100
AcDbEntity
  8
SIZE
100
AcDbLine
 10
-2276.987319740067
 20
-165.5479999999943
 30
0.0
 11
-2232.987319740066
 21
-165.5479999999943
 31
0.0
  0
LINE
  5
82D
330
1F
100
AcDbEntity
  8
SIZE
100
AcDbLine
 10
-2396.987319740067
 20
-52.49999999999364
 30
0.0
 11
-2396.987319740067
 21
-175.5479999999943
 31
0.0
  0
LINE
  5
82E
330
1F
100
AcDbEntity
  8
SIZE
100
AcDbLine
 10
-2291.987319740067
 20
-52.49999999999454
 30
0.0
 11
-2291.987319740067
 21
-175.5479999999943
 31
0.0
  0
LINE
  5
82F
330
1F
100
AcDbEntity
  8
SIZE
100
AcDbLine
 10
-2381.987319740067
 20
-165.5479999999943
 30
0.0
 11
-2306.987319740067
 21
-165.5479999999943
 31
0.0
  0
LINE
  5
830
330
1F
100
AcDbEntity
  8
SIZE
100
AcDbLine
 10
-2473.987319740067
 20
-87.49999999999545
 30
0.0
 11
-2473.987319740067
 21
-175.4599999999945
 31
0.0
  0
LINE
  5
831
330
1F
100
AcDbEntity
  8
SIZE
100
AcDbLine
 10
-2396.987319740067
 20
-52.49999999999364
 30
0.0
 11
-2396.987319740067
 21
-175.4599999999945
 31
0.0
  0
LINE
  5
832
330
1F
100
AcDbEntity
  8
SIZE
100
AcDbLine
 10
-2458.987319740067
 20
-165.4599999999945
 30
0.0
 11
-2411.987319740067
 21
-165.4599999999945
 31
0.0
  0
LINE
  5
833
330
1F
100
AcDbEntity
  8
SIZE
100
AcDbLine
 10
-2430.832851465698
 20
0.0000000000045475
 30
0.0
 11
-2563.742723297286
 21
0.0000000000045475
 31
0.0
  0
LINE
  5
834
330
1F
100
AcDbEntity
  8
SIZE
100
AcDbLine
 10
-2430.987319740065
 20
5.000000000004547
 30
0.0
 11
-2563.742723297286
 21
5.000000000005456
 31
0.0
  0
LINE
  5
835
330
1F
100
AcDbEntity
  8
SIZE
100
AcDbLine
 10
-2553.742723297287
 20
-14.99999999999545
 30
0.0
 11
-2553.742723297287
 21
-29.99999999999545
 31
0.0
  0
LINE
  5
836
330
1F
100
AcDbEntity
  8
SIZE
100
AcDbLine
 10
-2553.742723297287
 20
20.00000000000545
 30
0.0
 11
-2553.742723297287
 21
65.00000000000546
 31
0.0
  0
LINE
  5
837
330
1F
100
AcDbEntity
  8
SIZE
100
AcDbLine
 10
-2553.742723297287
 20
0.0000000000045475
 30
0.0
 11
-2553.742723297287
 21
5.000000000005456
 31
0.0
  0
LINE
  5
838
330
1F
100
AcDbEntity
  8
SIZE
100
AcDbLine
 10
-2344.987319740067
 20
62.50000000000546
 30
0.0
 11
-2344.987319740067
 21
168.531036783138
 31
0.0
  0
LINE
  5
839
330
1F
100
AcDbEntity
  8
SIZE
100
AcDbLine
 10
-2473.987319740066
 20
5.000000000005456
 30
0.0
 11
-2473.987319740066
 21
168.531036783138
 31
0.0
  0
LINE
  5
83A
330
1F
100
AcDbEntity
  8
SIZE
100
AcDbLine
 10
-2359.987319740067
 20
158.531036783138
 30
0.0
 11
-2458.987319740066
 21
158.531036783138
 31
0.0
  0
LINE
  5
83B
330
1F
100
AcDbEntity
  8
SIZE
100
AcDbLine
 10
-2252.987319740067
 20
425.0000000000055
 30
0.0
 11
-2252.987319740067
 21
606.2876422861782
 31
0.0
  0
LINE
  5
83C
330
1F
100
AcDbEntity
  8
SIZE
100
AcDbLine
 10
-2217.987319740067
 20
425.0000000000055
 30
0.0
 11
-2217.987319740067
 21
606.2876422861782
 31
0.0
  0
LINE
  5
83D
330
1F
100
AcDbEntity
  8
SIZE
100
AcDbLine
 10
-2267.987319740067
 20
596.2876422861781
 30
0.0
 11
-2282.987319740067
 21
596.2876422861781
 31
0.0
  0
LINE
  5
83E
330
1F
100
AcDbEntity
  8
SIZE
100
AcDbLine
 10
-2202.987319740067
 20
596.2876422861781
 30
0.0
 11
-2127.987319740067
 21
596.2876422861781
 31
0.0
  0
LINE
  5
83F
330
1F
100
AcDbEntity
  8
SIZE
100
AcDbLine
 10
-2252.987319740067
 20
596.2876422861781
 30
0.0
 11
-2217.987319740067
 21
596.2876422861781
 31
0.0
  0
LINE
  5
840
330
1F
100
AcDbEntity
  8
SIZE
100
AcDbLine
 10
-2372.987319740067
 20
250.0000000000063
 30
0.0
 11
-2372.987319740067
 21
606.2876422861782
 31
0.0
  0
LINE
  5
841
330
1F
100
AcDbEntity
  8
SIZE
100
AcDbLine
 10
-2252.987319740067
 20
250.0000000000063
 30
0.0
 11
-2252.987319740067
 21
606.2876422861782
 31
0.0
  0
LINE
  5
842
330
1F
100
AcDbEntity
  8
SIZE
100
AcDbLine
 10
-2357.987319740067
 20
596.2876422861781
 30
0.0
 11
-2267.987319740067
 21
596.2876422861781
 31
0.0
  0
LINE
  5
843
330
1F
100
AcDbEntity
  8
SIZE
100
AcDbLine
 10
-2473.987319740067
 20
480.0000000000063
 30
0.0
 11
-2473.987319740067
 21
606.2876422861782
 31
0.0
  0
LINE
  5
844
330
1F
100
AcDbEntity
  8
SIZE
100
AcDbLine
 10
-2372.987319740067
 20
250.0000000000063
 30
0.0
 11
-2372.987319740067
 21
606.2876422861782
 31
0.0
  0
LINE
  5
845
330
1F
100
AcDbEntity
  8
SIZE
100
AcDbLine
 10
-2458.987319740067
 20
596.2876422861781
 30
0.0
 11
-2387.987319740067
 21
596.2876422861781
 31
0.0
  0
TEXT
  5
846
330
1F
100
AcDbEntity
  8
SIZE
100
AcDbText
 10
-2465.035831801211
 20
607.796401035469
 30
0.0
 40
40.0
  1
101
  7
KAIGAI
100
AcDbText
  0
LINE
  5
847
330
1F
100
AcDbEntity
  8
SIZE
100
AcDbLine
 10
-2387.987319740067
 20
600.3068801361778
 30
0.0
 11
-2372.987319740067
 21
596.2876422861781
 31
0.0
  0
LINE
  5
848
330
1F
100
AcDbEntity
  8
SIZE
100
AcDbLine
 10
-2372.987319740067
 20
596.2876422861781
 30
0.0
 11
-2387.987319740067
 21
592.2684044361785
 31
0.0
  0
LINE
  5
849
330
1F
100
AcDbEntity
  8
SIZE
100
AcDbLine
 10
-2372.987319740067
 20
596.2876422861781
 30
0.0
 11
-2387.987319740067
 21
596.2876422861781
 31
0.0
  0
LINE
  5
84A
330
1F
100
AcDbEntity
  8
SIZE
100
AcDbLine
 10
-2458.987319740067
 20
592.2684044361785
 30
0.0
 11
-2473.987319740067
 21
596.2876422861781
 31
0.0
  0
LINE
  5
84B
330
1F
100
AcDbEntity
  8
SIZE
100
AcDbLine
 10
-2473.987319740067
 20
596.2876422861781
 30
0.0
 11
-2458.987319740067
 21
600.3068801361778
 31
0.0
  0
LINE
  5
84C
330
1F
100
AcDbEntity
  8
SIZE
100
AcDbLine
 10
-2473.987319740067
 20
596.2876422861781
 30
0.0
 11
-2458.987319740067
 21
596.2876422861781
 31
0.0
  0
TEXT
  5
84D
330
1F
100
AcDbEntity
  8
SIZE
100
AcDbText
 10
-2354.781826342212
 20
606.150454849746
 30
0.0
 40
40.0
  1
120
  7
KAIGAI
100
AcDbText
  0
LINE
  5
84E
330
1F
100
AcDbEntity
  8
SIZE
100
AcDbLine
 10
-2267.987319740067
 20
600.3068801361778
 30
0.0
 11
-2252.987319740067
 21
596.2876422861781
 31
0.0
  0
LINE
  5
84F
330
1F
100
AcDbEntity
  8
SIZE
100
AcDbLine
 10
-2252.987319740067
 20
596.2876422861781
 30
0.0
 11
-2267.987319740067
 21
592.2684044361785
 31
0.0
  0
LINE
  5
850
330
1F
100
AcDbEntity
  8
SIZE
100
AcDbLine
 10
-2252.987319740067
 20
596.2876422861781
 30
0.0
 11
-2267.987319740067
 21
596.2876422861781
 31
0.0
  0
LINE
  5
851
330
1F
100
AcDbEntity
  8
SIZE
100
AcDbLine
 10
-2357.987319740067
 20
592.2684044361785
 30
0.0
 11
-2372.987319740067
 21
596.2876422861781
 31
0.0
  0
LINE
  5
852
330
1F
100
AcDbEntity
  8
SIZE
100
AcDbLine
 10
-2372.987319740067
 20
596.2876422861781
 30
0.0
 11
-2357.987319740067
 21
600.3068801361778
 31
0.0
  0
LINE
  5
853
330
1F
100
AcDbEntity
  8
SIZE
100
AcDbLine
 10
-2372.987319740067
 20
596.2876422861781
 30
0.0
 11
-2357.987319740067
 21
596.2876422861781
 31
0.0
  0
TEXT
  5
854
330
1F
100
AcDbEntity
  8
SIZE
100
AcDbText
 10
-2182.987319740066
 20
601.2876422861782
 30
0.0
 40
40.0
  1
35
  7
KAIGAI
100
AcDbText
  0
LINE
  5
855
330
1F
100
AcDbEntity
  8
SIZE
100
AcDbLine
 10
-2202.987319740067
 20
592.2684044361785
 30
0.0
 11
-2217.987319740067
 21
596.2876422861781
 31
0.0
  0
LINE
  5
856
330
1F
100
AcDbEntity
  8
SIZE
100
AcDbLine
 10
-2217.987319740067
 20
596.2876422861781
 30
0.0
 11
-2202.987319740067
 21
600.3068801361778
 31
0.0
  0
LINE
  5
857
330
1F
100
AcDbEntity
  8
SIZE
100
AcDbLine
 10
-2217.987319740067
 20
596.2876422861781
 30
0.0
 11
-2202.987319740067
 21
596.2876422861781
 31
0.0
  0
LINE
  5
858
330
1F
100
AcDbEntity
  8
SIZE
100
AcDbLine
 10
-2267.987319740067
 20
600.3068801361778
 30
0.0
 11
-2252.987319740067
 21
596.2876422861781
 31
0.0
  0
LINE
  5
859
330
1F
100
AcDbEntity
  8
SIZE
100
AcDbLine
 10
-2252.987319740067
 20
596.2876422861781
 30
0.0
 11
-2267.987319740067
 21
592.2684044361785
 31
0.0
  0
LINE
  5
85A
330
1F
100
AcDbEntity
  8
SIZE
100
AcDbLine
 10
-2252.987319740067
 20
596.2876422861781
 30
0.0
 11
-2267.987319740067
 21
596.2876422861781
 31
0.0
  0
TEXT
  5
85B
330
1F
100
AcDbEntity
  8
SIZE
100
AcDbText
 10
-2444.487319740067
 20
163.531036783138
 30
0.0
 40
40.0
  1
129
  7
KAIGAI
100
AcDbText
  0
LINE
  5
85C
330
1F
100
AcDbEntity
  8
SIZE
100
AcDbLine
 10
-2458.987319740066
 20
154.5117989331383
 30
0.0
 11
-2473.987319740066
 21
158.531036783138
 31
0.0
  0
LINE
  5
85D
330
1F
100
AcDbEntity
  8
SIZE
100
AcDbLine
 10
-2473.987319740066
 20
158.531036783138
 30
0.0
 11
-2458.987319740066
 21
162.5502746331376
 31
0.0
  0
LINE
  5
85E
330
1F
100
AcDbEntity
  8
SIZE
100
AcDbLine
 10
-2473.987319740066
 20
158.531036783138
 30
0.0
 11
-2458.987319740066
 21
158.531036783138
 31
0.0
  0
LINE
  5
85F
330
1F
100
AcDbEntity
  8
SIZE
100
AcDbLine
 10
-2359.987319740067
 20
162.5502746331376
 30
0.0
 11
-2344.987319740067
 21
158.531036783138
 31
0.0
  0
LINE
  5
860
330
1F
100
AcDbEntity
  8
SIZE
100
AcDbLine
 10
-2344.987319740067
 20
158.531036783138
 30
0.0
 11
-2359.987319740067
 21
154.5117989331383
 31
0.0
  0
LINE
  5
861
330
1F
100
AcDbEntity
  8
SIZE
100
AcDbLine
 10
-2344.987319740067
 20
158.531036783138
 30
0.0
 11
-2359.987319740067
 21
158.531036783138
 31
0.0
  0
TEXT
  5
862
330
1F
100
AcDbEntity
  8
SIZE
100
AcDbText
 10
-2548.742723297287
 20
60.00000000000546
 30
0.0
 40
40.0
  1
5
 50
270.0
  7
KAIGAI
100
AcDbText
  0
LINE
  5
863
330
1F
100
AcDbEntity
  8
SIZE
100
AcDbLine
 10
-2549.723485447287
 20
20.00000000000545
 30
0.0
 11
-2553.742723297287
 21
5.000000000005456
 31
0.0
  0
LINE
  5
864
330
1F
100
AcDbEntity
  8
SIZE
100
AcDbLine
 10
-2553.742723297287
 20
5.000000000005456
 30
0.0
 11
-2557.761961147286
 21
20.00000000000545
 31
0.0
  0
LINE
  5
865
330
1F
100
AcDbEntity
  8
SIZE
100
AcDbLine
 10
-2553.742723297287
 20
5.000000000005456
 30
0.0
 11
-2553.742723297287
 21
20.00000000000545
 31
0.0
  0
LINE
  5
866
330
1F
100
AcDbEntity
  8
SIZE
100
AcDbLine
 10
-2557.761961147286
 20
-14.99999999999545
 30
0.0
 11
-2553.742723297287
 21
0.0000000000045475
 31
0.0
  0
LINE
  5
867
330
1F
100
AcDbEntity
  8
SIZE
100
AcDbLine
 10
-2553.742723297287
 20
0.0000000000045475
 30
0.0
 11
-2549.723485447287
 21
-14.99999999999545
 31
0.0
  0
LINE
  5
868
330
1F
100
AcDbEntity
  8
SIZE
100
AcDbLine
 10
-2553.742723297287
 20
0.0000000000045475
 30
0.0
 11
-2553.742723297287
 21
-14.99999999999545
 31
0.0
  0
TEXT
  5
869
330
1F
100
AcDbEntity
  8
SIZE
100
AcDbText
 10
-2460.487319740067
 20
-160.4599999999945
 30
0.0
 40
40.0
  1
77
  7
KAIGAI
100
AcDbText
  0
LINE
  5
86A
330
1F
100
AcDbEntity
  8
SIZE
100
AcDbLine
 10
-2411.987319740067
 20
-161.4407621499949
 30
0.0
 11
-2396.987319740067
 21
-165.4599999999945
 31
0.0
  0
LINE
  5
86B
330
1F
100
AcDbEntity
  8
SIZE
100
AcDbLine
 10
-2396.987319740067
 20
-165.4599999999945
 30
0.0
 11
-2411.987319740067
 21
-169.4792378499942
 31
0.0
  0
LINE
  5
86C
330
1F
100
AcDbEntity
  8
SIZE
100
AcDbLine
 10
-2396.987319740067
 20
-165.4599999999945
 30
0.0
 11
-2411.987319740067
 21
-165.4599999999945
 31
0.0
  0
LINE
  5
86D
330
1F
100
AcDbEntity
  8
SIZE
100
AcDbLine
 10
-2458.987319740067
 20
-169.4792378499942
 30
0.0
 11
-2473.987319740067
 21
-165.4599999999945
 31
0.0
  0
LINE
  5
86E
330
1F
100
AcDbEntity
  8
SIZE
100
AcDbLine
 10
-2473.987319740067
 20
-165.4599999999945
 30
0.0
 11
-2458.987319740067
 21
-161.4407621499949
 31
0.0
  0
LINE
  5
86F
330
1F
100
AcDbEntity
  8
SIZE
100
AcDbLine
 10
-2473.987319740067
 20
-165.4599999999945
 30
0.0
 11
-2458.987319740067
 21
-165.4599999999945
 31
0.0
  0
TEXT
  5
870
330
1F
100
AcDbEntity
  8
SIZE
100
AcDbText
 10
-2376.987319740067
 20
-160.5479999999943
 30
0.0
 40
40.0
  1
105
  7
KAIGAI
100
AcDbText
  0
LINE
  5
871
330
1F
100
AcDbEntity
  8
SIZE
100
AcDbLine
 10
-2306.987319740067
 20
-161.5287621499946
 30
0.0
 11
-2291.987319740067
 21
-165.5479999999943
 31
0.0
  0
LINE
  5
872
330
1F
100
AcDbEntity
  8
SIZE
100
AcDbLine
 10
-2291.987319740067
 20
-165.5479999999943
 30
0.0
 11
-2306.987319740067
 21
-169.5672378499939
 31
0.0
  0
LINE
  5
873
330
1F
100
AcDbEntity
  8
SIZE
100
AcDbLine
 10
-2291.987319740067
 20
-165.5479999999943
 30
0.0
 11
-2306.987319740067
 21
-165.5479999999943
 31
0.0
  0
LINE
  5
874
330
1F
100
AcDbEntity
  8
SIZE
100
AcDbLine
 10
-2381.987319740067
 20
-169.5672378499939
 30
0.0
 11
-2396.987319740067
 21
-165.5479999999943
 31
0.0
  0
LINE
  5
875
330
1F
100
AcDbEntity
  8
SIZE
100
AcDbLine
 10
-2396.987319740067
 20
-165.5479999999943
 30
0.0
 11
-2381.987319740067
 21
-161.5287621499946
 31
0.0
  0
LINE
  5
876
330
1F
100
AcDbEntity
  8
SIZE
100
AcDbLine
 10
-2396.987319740067
 20
-165.5479999999943
 30
0.0
 11
-2381.987319740067
 21
-165.5479999999943
 31
0.0
  0
TEXT
  5
877
330
1F
100
AcDbEntity
  8
SIZE
100
AcDbText
 10
-2279.987319740067
 20
-160.5479999999943
 30
0.0
 40
40.0
  1
74
  7
KAIGAI
100
AcDbText
  0
LINE
  5
878
330
1F
100
AcDbEntity
  8
SIZE
100
AcDbLine
 10
-2232.987319740066
 20
-161.5287621499946
 30
0.0
 11
-2217.987319740065
 21
-165.5479999999943
 31
0.0
  0
LINE
  5
879
330
1F
100
AcDbEntity
  8
SIZE
100
AcDbLine
 10
-2217.987319740065
 20
-165.5479999999943
 30
0.0
 11
-2232.987319740066
 21
-169.5672378499948
 31
0.0
  0
LINE
  5
87A
330
1F
100
AcDbEntity
  8
SIZE
100
AcDbLine
 10
-2217.987319740065
 20
-165.5479999999943
 30
0.0
 11
-2232.987319740066
 21
-165.5479999999943
 31
0.0
  0
LINE
  5
87B
330
1F
100
AcDbEntity
  8
SIZE
100
AcDbLine
 10
-2276.987319740067
 20
-169.5672378499939
 30
0.0
 11
-2291.987319740067
 21
-165.5479999999943
 31
0.0
  0
LINE
  5
87C
330
1F
100
AcDbEntity
  8
SIZE
100
AcDbLine
 10
-2291.987319740067
 20
-165.5479999999943
 30
0.0
 11
-2276.987319740067
 21
-161.5287621499946
 31
0.0
  0
LINE
  5
87D
330
1F
100
AcDbEntity
  8
SIZE
100
AcDbLine
 10
-2291.987319740067
 20
-165.5479999999943
 30
0.0
 11
-2276.987319740067
 21
-165.5479999999943
 31
0.0
  0
TEXT
  5
87E
330
1F
100
AcDbEntity
  8
SIZE
100
AcDbText
 10
-2156.756249196932
 20
-239.3689806883362
 30
0.0
 40
40.0
  1
372.5
 50
270.0
  7
KAIGAI
100
AcDbText
  0
LINE
  5
87F
330
1F
100
AcDbEntity
  8
SIZE
100
AcDbLine
 10
-2165.775487046931
 20
-62.49999999999454
 30
0.0
 11
-2161.756249196931
 21
-47.49999999999454
 31
0.0
  0
LINE
  5
880
330
1F
100
AcDbEntity
  8
SIZE
100
AcDbLine
 10
-2161.756249196931
 20
-47.49999999999454
 30
0.0
 11
-2157.737011346932
 21
-62.49999999999454
 31
0.0
  0
LINE
  5
881
330
1F
100
AcDbEntity
  8
SIZE
100
AcDbLine
 10
-2161.756249196931
 20
-47.49999999999454
 30
0.0
 11
-2161.756249196931
 21
-62.49999999999454
 31
0.0
  0
LINE
  5
882
330
1F
100
AcDbEntity
  8
SIZE
100
AcDbLine
 10
-2157.737011346932
 20
-404.9999999999954
 30
0.0
 11
-2161.756249196931
 21
-419.9999999999954
 31
0.0
  0
LINE
  5
883
330
1F
100
AcDbEntity
  8
SIZE
100
AcDbLine
 10
-2161.756249196931
 20
-419.9999999999954
 30
0.0
 11
-2165.775487046931
 21
-404.9999999999954
 31
0.0
  0
LINE
  5
884
330
1F
100
AcDbEntity
  8
SIZE
100
AcDbLine
 10
-2161.756249196931
 20
-419.9999999999954
 30
0.0
 11
-2161.756249196931
 21
-404.9999999999954
 31
0.0
  0
TEXT
  5
885
330
1F
100
AcDbEntity
  8
SIZE
100
AcDbText
 10
-2156.756249196932
 20
48.56285636311714
 30
0.0
 40
40.0
  1
105
 50
270.0
  7
KAIGAI
100
AcDbText
  0
LINE
  5
886
330
1F
100
AcDbEntity
  8
SIZE
100
AcDbLine
 10
-2165.775487046931
 20
42.50000000000546
 30
0.0
 11
-2161.756249196931
 21
57.50000000000546
 31
0.0
  0
LINE
  5
887
330
1F
100
AcDbEntity
  8
SIZE
100
AcDbLine
 10
-2161.756249196931
 20
57.50000000000546
 30
0.0
 11
-2157.737011346932
 21
42.50000000000546
 31
0.0
  0
LINE
  5
888
330
1F
100
AcDbEntity
  8
SIZE
100
AcDbLine
 10
-2161.756249196931
 20
57.50000000000546
 30
0.0
 11
-2161.756249196931
 21
42.50000000000546
 31
0.0
  0
LINE
  5
889
330
1F
100
AcDbEntity
  8
SIZE
100
AcDbLine
 10
-2157.737011346932
 20
-32.49999999999454
 30
0.0
 11
-2161.756249196931
 21
-47.49999999999454
 31
0.0
  0
LINE
  5
88A
330
1F
100
AcDbEntity
  8
SIZE
100
AcDbLine
 10
-2161.756249196931
 20
-47.49999999999454
 30
0.0
 11
-2165.775487046931
 21
-32.49999999999454
 31
0.0
  0
LINE
  5
88B
330
1F
100
AcDbEntity
  8
SIZE
100
AcDbLine
 10
-2161.756249196931
 20
-47.49999999999454
 30
0.0
 11
-2161.756249196931
 21
-32.49999999999454
 31
0.0
  0
TEXT
  5
88C
330
1F
100
AcDbEntity
  8
SIZE
100
AcDbText
 10
-2156.756249196932
 20
230.2912042012958
 30
0.0
 40
40.0
  1
362.5
 50
270.0
  7
KAIGAI
100
AcDbText
  0
LINE
  5
88D
330
1F
100
AcDbEntity
  8
SIZE
100
AcDbLine
 10
-2165.775487046931
 20
405.0000000000054
 30
0.0
 11
-2161.756249196931
 21
420.0000000000054
 31
0.0
  0
LINE
  5
88E
330
1F
100
AcDbEntity
  8
SIZE
100
AcDbLine
 10
-2161.756249196931
 20
420.0000000000054
 30
0.0
 11
-2157.737011346932
 21
405.0000000000054
 31
0.0
  0
LINE
  5
88F
330
1F
100
AcDbEntity
  8
SIZE
100
AcDbLine
 10
-2161.756249196931
 20
420.0000000000054
 30
0.0
 11
-2161.756249196931
 21
405.0000000000054
 31
0.0
  0
LINE
  5
890
330
1F
100
AcDbEntity
  8
SIZE
100
AcDbLine
 10
-2157.737011346932
 20
72.50000000000546
 30
0.0
 11
-2161.756249196931
 21
57.50000000000546
 31
0.0
  0
LINE
  5
891
330
1F
100
AcDbEntity
  8
SIZE
100
AcDbLine
 10
-2161.756249196931
 20
57.50000000000546
 30
0.0
 11
-2165.775487046931
 21
72.50000000000546
 31
0.0
  0
LINE
  5
892
330
1F
100
AcDbEntity
  8
SIZE
100
AcDbLine
 10
-2161.756249196931
 20
57.50000000000546
 30
0.0
 11
-2161.756249196931
 21
72.50000000000546
 31
0.0
  0
TEXT
  5
893
330
1F
100
AcDbEntity
  8
SIZE
100
AcDbText
 10
-2103.023338221623
 20
-77.49999999999499
 30
0.0
 40
40.0
  1
235
 50
270.0
  7
KAIGAI
100
AcDbText
  0
LINE
  5
894
330
1F
100
AcDbEntity
  8
SIZE
100
AcDbLine
 10
-2104.004100371624
 20
-219.9999999999945
 30
0.0
 11
-2108.023338221623
 21
-234.9999999999945
 31
0.0
  0
LINE
  5
895
330
1F
100
AcDbEntity
  8
SIZE
100
AcDbLine
 10
-2108.023338221623
 20
-234.9999999999945
 30
0.0
 11
-2112.042576071623
 21
-219.9999999999945
 31
0.0
  0
LINE
  5
896
330
1F
100
AcDbEntity
  8
SIZE
100
AcDbLine
 10
-2108.023338221623
 20
-234.9999999999945
 30
0.0
 11
-2108.023338221623
 21
-219.9999999999945
 31
0.0
  0
LINE
  5
897
330
1F
100
AcDbEntity
  8
SIZE
100
AcDbLine
 10
-2112.042576071623
 20
-14.99999999999545
 30
0.0
 11
-2108.023338221623
 21
0.0000000000045475
 31
0.0
  0
LINE
  5
898
330
1F
100
AcDbEntity
  8
SIZE
100
AcDbLine
 10
-2108.023338221623
 20
0.0000000000045475
 30
0.0
 11
-2104.004100371624
 21
-14.99999999999545
 31
0.0
  0
LINE
  5
899
330
1F
100
AcDbEntity
  8
SIZE
100
AcDbLine
 10
-2108.023338221623
 20
0.0000000000045475
 30
0.0
 11
-2108.023338221623
 21
-14.99999999999545
 31
0.0
  0
TEXT
  5
89A
330
1F
100
AcDbEntity
  8
SIZE
100
AcDbText
 10
-2049.733468876034
 20
-292.4999999999958
 30
0.0
 40
40.0
  1
185
 50
270.0
  7
KAIGAI
100
AcDbText
  0
LINE
  5
89B
330
1F
100
AcDbEntity
  8
SIZE
100
AcDbLine
 10
-2058.752706726033
 20
-249.9999999999945
 30
0.0
 11
-2054.733468876034
 21
-234.9999999999945
 31
0.0
  0
LINE
  5
89C
330
1F
100
AcDbEntity
  8
SIZE
100
AcDbLine
 10
-2054.733468876034
 20
-234.9999999999945
 30
0.0
 11
-2050.714231026034
 21
-249.9999999999954
 31
0.0
  0
LINE
  5
89D
330
1F
100
AcDbEntity
  8
SIZE
100
AcDbLine
 10
-2054.733468876034
 20
-234.9999999999945
 30
0.0
 11
-2054.733468876034
 21
-249.9999999999945
 31
0.0
  0
LINE
  5
89E
330
1F
100
AcDbEntity
  8
SIZE
100
AcDbLine
 10
-2050.714231026034
 20
-404.9999999999963
 30
0.0
 11
-2054.733468876034
 21
-419.9999999999954
 31
0.0
  0
LINE
  5
89F
330
1F
100
AcDbEntity
  8
SIZE
100
AcDbLine
 10
-2054.733468876034
 20
-419.9999999999954
 30
0.0
 11
-2058.752706726033
 21
-404.9999999999954
 31
0.0
  0
LINE
  5
8A0
330
1F
100
AcDbEntity
  8
SIZE
100
AcDbLine
 10
-2054.733468876034
 20
-419.9999999999954
 30
0.0
 11
-2054.733468876034
 21
-404.9999999999954
 31
0.0
  0
TEXT
  5
8A1
330
1F
100
AcDbEntity
  8
SIZE
100
AcDbText
 10
-2049.733468876034
 20
42.50000000000454
 30
0.0
 40
40.0
  1
480
 50
270.0
  7
KAIGAI
100
AcDbText
  0
LINE
  5
8A2
330
1F
100
AcDbEntity
  8
SIZE
100
AcDbLine
 10
-2050.714231026034
 20
-219.9999999999954
 30
0.0
 11
-2054.733468876034
 21
-234.9999999999945
 31
0.0
  0
LINE
  5
8A3
330
1F
100
AcDbEntity
  8
SIZE
100
AcDbLine
 10
-2054.733468876034
 20
-234.9999999999945
 30
0.0
 11
-2058.752706726033
 21
-219.9999999999945
 31
0.0
  0
LINE
  5
8A4
330
1F
100
AcDbEntity
  8
SIZE
100
AcDbLine
 10
-2054.733468876034
 20
-234.9999999999945
 30
0.0
 11
-2054.733468876034
 21
-219.9999999999945
 31
0.0
  0
LINE
  5
8A5
330
1F
100
AcDbEntity
  8
SIZE
100
AcDbLine
 10
-2058.752706726033
 20
230.0000000000054
 30
0.0
 11
-2054.733468876034
 21
245.0000000000054
 31
0.0
  0
LINE
  5
8A6
330
1F
100
AcDbEntity
  8
SIZE
100
AcDbLine
 10
-2054.733468876034
 20
245.0000000000054
 30
0.0
 11
-2050.714231026034
 21
230.0000000000045
 31
0.0
  0
LINE
  5
8A7
330
1F
100
AcDbEntity
  8
SIZE
100
AcDbLine
 10
-2054.733468876034
 20
245.0000000000054
 30
0.0
 11
-2054.733468876034
 21
230.0000000000054
 31
0.0
  0
TEXT
  5
8A8
330
1F
100
AcDbEntity
  8
SIZE
100
AcDbText
 10
-2049.733468876034
 20
367.5000000000045
 30
0.0
 40
40.0
  1
175
 50
270.0
  7
KAIGAI
100
AcDbText
  0
LINE
  5
8A9
330
1F
100
AcDbEntity
  8
SIZE
100
AcDbLine
 10
-2058.752706726033
 20
405.0000000000054
 30
0.0
 11
-2054.733468876034
 21
420.0000000000054
 31
0.0
  0
LINE
  5
8AA
330
1F
100
AcDbEntity
  8
SIZE
100
AcDbLine
 10
-2054.733468876034
 20
420.0000000000054
 30
0.0
 11
-2050.714231026034
 21
405.0000000000045
 31
0.0
  0
LINE
  5
8AB
330
1F
100
AcDbEntity
  8
SIZE
100
AcDbLine
 10
-2054.733468876034
 20
420.0000000000054
 30
0.0
 11
-2054.733468876034
 21
405.0000000000054
 31
0.0
  0
LINE
  5
8AC
330
1F
100
AcDbEntity
  8
SIZE
100
AcDbLine
 10
-2050.714231026034
 20
260.0000000000045
 30
0.0
 11
-2054.733468876034
 21
245.0000000000054
 31
0.0
  0
LINE
  5
8AD
330
1F
100
AcDbEntity
  8
SIZE
100
AcDbLine
 10
-2054.733468876034
 20
245.0000000000054
 30
0.0
 11
-2058.752706726033
 21
260.0000000000054
 31
0.0
  0
LINE
  5
8AE
330
1F
100
AcDbEntity
  8
SIZE
100
AcDbLine
 10
-2054.733468876034
 20
245.0000000000054
 30
0.0
 11
-2054.733468876034
 21
260.0000000000054
 31
0.0
  0
TEXT
  5
8AF
330
1F
100
AcDbEntity
  8
SIZE
100
AcDbText
 10
-1994.095005396785
 20
360.222364703236
 30
0.0
 40
40.0
  1
840
 50
270.0
  7
KAIGAI
100
AcDbText
  0
LINE
  5
8B0
330
1F
100
AcDbEntity
  8
SIZE
100
AcDbLine
 10
-2009.039912488143
 20
405.0000000000027
 30
0.0
 11
-2005.020674638144
 21
420.0000000000027
 31
0.0
  0
LINE
  5
8B1
330
1F
100
AcDbEntity
  8
SIZE
100
AcDbLine
 10
-2005.020674638144
 20
420.0000000000027
 30
0.0
 11
-2001.001436788143
 21
405.0000000000027
 31
0.0
  0
LINE
  5
8B2
330
1F
100
AcDbEntity
  8
SIZE
100
AcDbLine
 10
-2005.020674638144
 20
420.0000000000027
 30
0.0
 11
-2005.020674638144
 21
405.0000000000027
 31
0.0
  0
LINE
  5
8B3
330
1F
100
AcDbEntity
  8
SIZE
100
AcDbLine
 10
-2001.001436788143
 20
-404.9999999999982
 30
0.0
 11
-2005.020674638144
 21
-419.9999999999981
 31
0.0
  0
LINE
  5
8B4
330
1F
100
AcDbEntity
  8
SIZE
100
AcDbLine
 10
-2005.020674638144
 20
-419.9999999999981
 30
0.0
 11
-2009.039912488143
 21
-404.9999999999982
 31
0.0
  0
LINE
  5
8B5
330
1F
100
AcDbEntity
  8
SIZE
100
AcDbLine
 10
-2005.020674638144
 20
-419.9999999999981
 30
0.0
 11
-2005.020674638144
 21
-404.9999999999982
 31
0.0
  0
LINE
  5
8B6
330
1F
100
AcDbEntity
  8
SIZE
100
AcDbLine
 10
-217.4999999999972
 20
2493.000000000001
 30
0.0
 11
-540.5995070551717
 21
2493.000000000001
 31
0.0
  0
LINE
  5
8B7
330
1F
100
AcDbEntity
  8
SIZE
100
AcDbLine
 10
-217.4999999999972
 20
2598.000000000001
 30
0.0
 11
-540.5995070551717
 21
2598.000000000001
 31
0.0
  0
LINE
  5
8B8
330
1F
100
AcDbEntity
  8
SIZE
100
AcDbLine
 10
-530.5995070551716
 20
2508.0
 30
0.0
 11
-530.5995070551716
 21
2583.000000000001
 31
0.0
  0
TEXT
  5
8B9
330
1F
100
AcDbEntity
  8
SIZE
100
AcDbText
 10
-543.25846220141
 20
2497.653213459544
 30
0.0
 40
40.0
  1
105
 50
90.0
  7
KAIGAI
100
AcDbText
  0
LINE
  5
8BA
330
1F
100
AcDbEntity
  8
SIZE
100
AcDbLine
 10
-534.6187449051712
 20
2583.000000000001
 30
0.0
 11
-530.5995070551716
 21
2598.000000000001
 31
0.0
  0
LINE
  5
8BB
330
1F
100
AcDbEntity
  8
SIZE
100
AcDbLine
 10
-530.5995070551716
 20
2598.000000000001
 30
0.0
 11
-526.580269205172
 21
2583.000000000001
 31
0.0
  0
LINE
  5
8BC
330
1F
100
AcDbEntity
  8
SIZE
100
AcDbLine
 10
-530.5995070551716
 20
2598.000000000001
 30
0.0
 11
-530.5995070551716
 21
2583.000000000001
 31
0.0
  0
LINE
  5
8BD
330
1F
100
AcDbEntity
  8
SIZE
100
AcDbLine
 10
-526.580269205172
 20
2508.0
 30
0.0
 11
-530.5995070551716
 21
2493.000000000001
 31
0.0
  0
LINE
  5
8BE
330
1F
100
AcDbEntity
  8
SIZE
100
AcDbLine
 10
-530.5995070551716
 20
2493.000000000001
 30
0.0
 11
-534.6187449051712
 21
2508.0
 31
0.0
  0
LINE
  5
8BF
330
1F
100
AcDbEntity
  8
SIZE
100
AcDbLine
 10
-530.5995070551716
 20
2493.000000000001
 30
0.0
 11
-530.5995070551716
 21
2508.0
 31
0.0
  0
LINE
  5
8C0
330
1F
100
AcDbEntity
  8
DETAIL
  6
CONTINUOUS
100
AcDbLine
 10
-459.999999999999
 20
475.0000000000027
 30
0.0
 11
460.0000000000027
 21
475.0000000000008
 31
0.0
  0
LINE
  5
8C1
330
1F
100
AcDbEntity
  8
DETAIL
  6
CONTINUOUS
100
AcDbLine
 10
459.9999999999972
 20
-475.0000000000018
 30
0.0
 11
-460.0000000000036
 21
-474.9999999999972
 31
0.0
  0
LINE
  5
8C2
330
1F
100
AcDbEntity
  8
DETAIL
  6
CONTINUOUS
100
AcDbLine
 10
120.9399999999868
 20
-3026.377236735093
 30
0.0
 11
186.8599999999887
 21
-3018.127236735093
 31
0.0
  0
LINE
  5
8C3
330
1F
100
AcDbEntity
  8
DETAIL
  6
CONTINUOUS
100
AcDbLine
 10
186.8599999999878
 20
-3744.847236735094
 30
0.0
 11
120.9399999999859
 21
-3736.607236735094
 31
0.0
  0
POLYLINE
  5
8C4
330
1F
100
AcDbEntity
  8
DETAIL
  6
HIDDEN
100
AcDb2dPolyline
 66
     1
 10
0.0
 20
0.0
 30
0.0
  0
VERTEX
  5
BCA
330
8C4
100
AcDbEntity
  8
DETAIL
  6
HIDDEN
100
AcDbVertex
100
AcDb2dVertex
 10
-455.0000000000127
 20
-3836.486236735091
 30
0.0
  0
VERTEX
  5
BCB
330
8C4
100
AcDbEntity
  8
DETAIL
  6
HIDDEN
100
AcDbVertex
100
AcDb2dVertex
 10
-455.0000000000109
 20
-2926.487236735091
 30
0.0
  0
VERTEX
  5
BCC
330
8C4
100
AcDbEntity
  8
DETAIL
  6
HIDDEN
100
AcDbVertex
100
AcDb2dVertex
 10
454.99999999999
 20
-2926.487236735095
 30
0.0
  0
VERTEX
  5
BCD
330
8C4
100
AcDbEntity
  8
DETAIL
  6
HIDDEN
100
AcDbVertex
100
AcDb2dVertex
 10
454.999999999989
 20
-3836.486236735095
 30
0.0
  0
VERTEX
  5
BCE
330
8C4
100
AcDbEntity
  8
DETAIL
  6
HIDDEN
100
AcDbVertex
100
AcDb2dVertex
 10
-455.0000000000127
 20
-3836.486236735091
 30
0.0
  0
SEQEND
  5
BCF
330
8C4
100
AcDbEntity
  8
DETAIL
  6
HIDDEN
  0
LINE
  5
8C5
330
1F
100
AcDbEntity
  8
DETAIL
  6
CONTINUOUS
100
AcDbLine
 10
184.999999999989
 20
-2941.487236735094
 30
0.0
 11
-185.000000000009
 21
-2941.487236735092
 31
0.0
  0
LINE
  5
8C6
330
1F
100
AcDbEntity
  8
DETAIL
  6
CONTINUOUS
100
AcDbLine
 10
-185.0000000000127
 20
-3821.486236735092
 30
0.0
 11
184.999999999989
 21
-3821.486236735093
 31
0.0
  0
LINE
  5
8C7
330
1F
100
AcDbEntity
  8
DETAIL
  6
CONTINUOUS
100
AcDbLine
 10
279.9999999999872
 20
-3691.487236735094
 30
0.0
 11
-280.0000000000127
 21
-3691.487236735091
 31
0.0
  0
LINE
  5
8C8
330
1F
100
AcDbEntity
  8
DETAIL
  6
CONTINUOUS
100
AcDbLine
 10
-280.000000000009
 20
-3071.487236735093
 30
0.0
 11
279.9999999999899
 21
-3071.487236735093
 31
0.0
  0
LINE
  5
8C9
330
1F
100
AcDbEntity
  8
DETAIL
  6
CONTINUOUS
100
AcDbLine
 10
459.9999999999891
 20
-3856.487236735095
 30
0.0
 11
-460.0000000000127
 21
-3856.487236735091
 31
0.0
  0
LINE
  5
8CA
330
1F
100
AcDbEntity
  8
DETAIL
  6
CONTINUOUS
100
AcDbLine
 10
-460.00000000001
 20
-2906.487236735092
 30
0.0
 11
459.9999999999909
 21
-2906.487236735095
 31
0.0
  0
LINE
  5
8CB
330
1F
100
AcDbEntity
  8
DETAIL
  6
CONTINUOUS
100
AcDbLine
 10
-475.0000000000109
 20
-3841.487236735091
 30
0.0
 11
-475.0000000000109
 21
-2921.487236735091
 31
0.0
  0
LINE
  5
8CC
330
1F
100
AcDbEntity
  8
DETAIL
  6
CONTINUOUS
100
AcDbLine
 10
-355.0000000000127
 20
-3500.567236735093
 30
0.0
 11
-355.0000000000127
 21
-3262.417236735092
 31
0.0
  0
LINE
  5
8CD
330
1F
100
AcDbEntity
  8
DETAIL
  6
CONTINUOUS
100
AcDbLine
 10
-440.0000000000127
 20
-3196.487236735093
 30
0.0
 11
-440.0000000000127
 21
-3566.487236735094
 31
0.0
  0
LINE
  5
8CE
330
1F
100
AcDbEntity
  8
DETAIL
  6
CONTINUOUS
100
AcDbLine
 10
-310.0000000000127
 20
-3661.487236735092
 30
0.0
 11
-310.0000000000091
 21
-3101.487236735093
 31
0.0
  0
LINE
  5
8CF
330
1F
100
AcDbEntity
  8
DETAIL
  6
CONTINUOUS
100
AcDbLine
 10
-120.9400000000114
 20
-3736.607236735094
 30
0.0
 11
-186.8600000000096
 21
-3744.847236735092
 31
0.0
  0
ARC
  5
8D0
330
1F
100
AcDbEntity
  8
DETAIL
  6
CONTINUOUS
100
AcDbCircle
 10
-460.0000000000108
 20
-3841.487236735093
 30
0.0
 40
15.0
100
AcDbArc
 50
180.0
 51
270.0
  0
LINE
  5
8D1
330
1F
100
AcDbEntity
  8
DETAIL
  6
CONTINUOUS
100
AcDbLine
 10
-200.0000000000127
 20
-3759.737236735092
 30
0.0
 11
-200.0000000000127
 21
-3806.486236735091
 31
0.0
  0
ARC
  5
8D2
330
1F
100
AcDbEntity
  8
DETAIL
  6
CONTINUOUS
100
AcDbCircle
 10
-185.0000000000127
 20
-3806.486236735092
 30
0.0
 40
15.0
100
AcDbArc
 50
180.0
 51
270.0
  0
ARC
  5
8D3
330
1F
100
AcDbEntity
  8
DETAIL
  6
CONTINUOUS
100
AcDbCircle
 10
-280.0000000000109
 20
-3661.487236735093
 30
0.0
 40
30.0
100
AcDbArc
 50
180.0
 51
270.0
  0
ARC
  5
8D4
330
1F
100
AcDbEntity
  8
DETAIL
  6
CONTINUOUS
100
AcDbCircle
 10
-185.0000000000127
 20
-3759.737236735093
 30
0.0
 40
15.0
100
AcDbArc
 50
97.12501599999043
 51
180.0
  0
LINE
  5
8D5
330
1F
100
AcDbEntity
  8
DETAIL
  6
CONTINUOUS
100
AcDbLine
 10
-363.3600000000133
 20
-3568.347236735092
 30
0.0
 11
-355.1200000000108
 21
-3502.427236735092
 31
0.0
  0
LINE
  5
8D6
330
1F
100
AcDbEntity
  8
DETAIL
  6
CONTINUOUS
100
AcDbLine
 10
-425.0000000000127
 20
-3581.487236735093
 30
0.0
 11
-378.2400000000125
 21
-3581.487236735093
 31
0.0
  0
ARC
  5
8D7
330
1F
100
AcDbEntity
  8
DETAIL
  6
CONTINUOUS
100
AcDbCircle
 10
-425.0000000000109
 20
-3566.487236735093
 30
0.0
 40
15.0
100
AcDbArc
 50
180.0
 51
270.0
  0
ARC
  5
8D8
330
1F
100
AcDbEntity
  8
DETAIL
  6
CONTINUOUS
100
AcDbCircle
 10
-378.2400000000125
 20
-3566.487236735093
 30
0.0
 40
15.0
100
AcDbArc
 50
270.0
 51
352.8749840000096
  0
ARC
  5
8D9
330
1F
100
AcDbEntity
  8
DETAIL
  6
CONTINUOUS
100
AcDbCircle
 10
-370.0000000000109
 20
-3500.567236735092
 30
0.0
 40
15.0
100
AcDbArc
 50
352.8749840000096
 51
0.0
  0
LINE
  5
8DA
330
1F
100
AcDbEntity
  8
DETAIL
  6
CONTINUOUS
100
AcDbLine
 10
119.0799999999871
 20
-3736.487236735093
 30
0.0
 11
-119.0800000000126
 21
-3736.487236735093
 31
0.0
  0
ARC
  5
8DB
330
1F
100
AcDbEntity
  8
DETAIL
  6
CONTINUOUS
100
AcDbCircle
 10
-119.0800000000108
 20
-3751.487236735094
 30
0.0
 40
15.0
100
AcDbArc
 50
90.0
 51
97.12501599999043
  0
ARC
  5
8DC
330
1F
100
AcDbEntity
  8
DETAIL
  6
CONTINUOUS
100
AcDbCircle
 10
119.0799999999871
 20
-3751.487236735094
 30
0.0
 40
15.0
100
AcDbArc
 50
82.87498400000954
 51
90.0
  0
LINE
  5
8DD
330
1F
100
AcDbEntity
  8
DETAIL
  6
CONTINUOUS
100
AcDbLine
 10
-186.8600000000096
 20
-3018.127236735093
 30
0.0
 11
-120.9400000000114
 21
-3026.377236735093
 31
0.0
  0
LINE
  5
8DE
330
1F
100
AcDbEntity
  8
DETAIL
  6
CONTINUOUS
100
AcDbLine
 10
-378.2400000000116
 20
-3181.487236735093
 30
0.0
 11
-425.0000000000109
 21
-3181.487236735093
 31
0.0
  0
ARC
  5
8DF
330
1F
100
AcDbEntity
  8
DETAIL
  6
CONTINUOUS
100
AcDbCircle
 10
-425.0000000000109
 20
-3196.487236735093
 30
0.0
 40
15.0
100
AcDbArc
 50
90.0
 51
180.0
  0
ARC
  5
8E0
330
1F
100
AcDbEntity
  8
DETAIL
  6
CONTINUOUS
100
AcDbCircle
 10
-378.2400000000116
 20
-3196.487236735093
 30
0.0
 40
15.0
100
AcDbArc
 50
7.125015999990447
 51
90.0
  0
ARC
  5
8E1
330
1F
100
AcDbEntity
  8
DETAIL
  6
CONTINUOUS
100
AcDbCircle
 10
-370.0000000000109
 20
-3262.417236735092
 30
0.0
 40
15.0
100
AcDbArc
 50
0.0
 51
7.125015999990447
  0
LINE
  5
8E2
330
1F
100
AcDbEntity
  8
DETAIL
  6
CONTINUOUS
100
AcDbLine
 10
-355.1200000000108
 20
-3260.557236735093
 30
0.0
 11
-363.3600000000124
 21
-3194.627236735093
 31
0.0
  0
ARC
  5
8E3
330
1F
100
AcDbEntity
  8
DETAIL
  6
CONTINUOUS
100
AcDbCircle
 10
-280.000000000009
 20
-3101.487236735092
 30
0.0
 40
30.0
100
AcDbArc
 50
90.0
 51
180.0
  0
ARC
  5
8E4
330
1F
100
AcDbEntity
  8
DETAIL
  6
CONTINUOUS
100
AcDbCircle
 10
-185.000000000009
 20
-2956.487236735091
 30
0.0
 40
15.0
100
AcDbArc
 50
90.0
 51
180.0
  0
ARC
  5
8E5
330
1F
100
AcDbEntity
  8
DETAIL
  6
CONTINUOUS
100
AcDbCircle
 10
-185.000000000009
 20
-3003.247236735091
 30
0.0
 40
15.0
100
AcDbArc
 50
180.0
 51
262.8749840000096
  0
LINE
  5
8E6
330
1F
100
AcDbEntity
  8
DETAIL
  6
CONTINUOUS
100
AcDbLine
 10
-200.0000000000091
 20
-2956.487236735092
 30
0.0
 11
-200.0000000000091
 21
-3003.247236735091
 31
0.0
  0
LINE
  5
8E7
330
1F
100
AcDbEntity
  8
DETAIL
  6
CONTINUOUS
100
AcDbLine
 10
-119.0800000000099
 20
-3026.487236735091
 30
0.0
 11
119.0799999999899
 21
-3026.487236735093
 31
0.0
  0
ARC
  5
8E8
330
1F
100
AcDbEntity
  8
DETAIL
  6
CONTINUOUS
100
AcDbCircle
 10
-119.0800000000099
 20
-3011.48723673509
 30
0.0
 40
15.0
100
AcDbArc
 50
262.8749840000096
 51
270.0
  0
ARC
  5
8E9
330
1F
100
AcDbEntity
  8
DETAIL
  6
CONTINUOUS
100
AcDbCircle
 10
119.079999999989
 20
-3011.48723673509
 30
0.0
 40
15.0
100
AcDbArc
 50
270.0
 51
277.1250159999904
  0
ARC
  5
8EA
330
1F
100
AcDbEntity
  8
DETAIL
  6
CONTINUOUS
100
AcDbCircle
 10
-460.00000000001
 20
-2921.487236735091
 30
0.0
 40
15.0
100
AcDbArc
 50
90.0
 51
180.0
  0
LINE
  5
8EB
330
1F
100
AcDbEntity
  8
DETAIL
  6
CONTINUOUS
100
AcDbLine
 10
-475.0000000000036
 20
-459.9999999999972
 30
0.0
 11
-474.9999999999972
 21
460.0000000000027
 31
0.0
  0
ARC
  5
8EC
330
1F
100
AcDbEntity
  8
DETAIL
  6
CONTINUOUS
100
AcDbCircle
 10
-460.0000000000018
 20
-459.9999999999977
 30
0.0
 40
15.0
100
AcDbArc
 50
180.0
 51
270.0
  0
ARC
  5
8ED
330
1F
100
AcDbEntity
  8
DETAIL
  6
CONTINUOUS
100
AcDbCircle
 10
-459.9999999999964
 20
460.0000000000018
 30
0.0
 40
15.0
100
AcDbArc
 50
90.0
 51
180.0
  0
LINE
  5
8EE
330
1F
100
AcDbEntity
  8
DETAIL
  6
CONTINUOUS
100
AcDbLine
 10
474.999999999989
 20
-2921.487236735095
 30
0.0
 11
474.9999999999872
 21
-3841.487236735094
 31
0.0
  0
LINE
  5
8EF
330
1F
100
AcDbEntity
  8
DETAIL
  6
CONTINUOUS
100
AcDbLine
 10
354.9999999999899
 20
-3262.417236735096
 30
0.0
 11
354.9999999999891
 21
-3500.567236735095
 31
0.0
  0
LINE
  5
8F0
330
1F
100
AcDbEntity
  8
DETAIL
  6
CONTINUOUS
100
AcDbLine
 10
439.9999999999872
 20
-3566.487236735095
 30
0.0
 11
439.9999999999899
 21
-3196.487236735095
 31
0.0
  0
LINE
  5
8F1
330
1F
100
AcDbEntity
  8
DETAIL
  6
CONTINUOUS
100
AcDbLine
 10
309.999999999989
 20
-3101.487236735093
 30
0.0
 11
309.999999999989
 21
-3661.487236735093
 31
0.0
  0
ARC
  5
8F2
330
1F
100
AcDbEntity
  8
DETAIL
  6
CONTINUOUS
100
AcDbCircle
 10
279.9999999999872
 20
-3661.487236735094
 30
0.0
 40
30.0
100
AcDbArc
 50
270.0
 51
0.0
  0
LINE
  5
8F3
330
1F
100
AcDbEntity
  8
DETAIL
  6
CONTINUOUS
100
AcDbLine
 10
199.9999999999872
 20
-3806.486236735093
 30
0.0
 11
199.9999999999872
 21
-3759.737236735093
 31
0.0
  0
ARC
  5
8F4
330
1F
100
AcDbEntity
  8
DETAIL
  6
CONTINUOUS
100
AcDbCircle
 10
184.999999999989
 20
-3806.486236735094
 30
0.0
 40
15.0
100
AcDbArc
 50
270.0
 51
0.0
  0
ARC
  5
8F5
330
1F
100
AcDbEntity
  8
DETAIL
  6
CONTINUOUS
100
AcDbCircle
 10
184.999999999989
 20
-3759.737236735094
 30
0.0
 40
15.0
100
AcDbArc
 50
0.0
 51
82.87498400000954
  0
ARC
  5
8F6
330
1F
100
AcDbEntity
  8
DETAIL
  6
CONTINUOUS
100
AcDbCircle
 10
459.9999999999872
 20
-3841.487236735094
 30
0.0
 40
15.0
100
AcDbArc
 50
270.0
 51
0.0
  0
LINE
  5
8F7
330
1F
100
AcDbEntity
  8
DETAIL
  6
CONTINUOUS
100
AcDbLine
 10
355.119999999989
 20
-3502.427236735094
 30
0.0
 11
363.3599999999878
 21
-3568.347236735096
 31
0.0
  0
LINE
  5
8F8
330
1F
100
AcDbEntity
  8
DETAIL
  6
CONTINUOUS
100
AcDbLine
 10
378.239999999987
 20
-3581.487236735096
 30
0.0
 11
424.999999999989
 21
-3581.487236735096
 31
0.0
  0
ARC
  5
8F9
330
1F
100
AcDbEntity
  8
DETAIL
  6
CONTINUOUS
100
AcDbCircle
 10
378.239999999987
 20
-3566.487236735094
 30
0.0
 40
15.0
100
AcDbArc
 50
187.1250159999904
 51
270.0
  0
ARC
  5
8FA
330
1F
100
AcDbEntity
  8
DETAIL
  6
CONTINUOUS
100
AcDbCircle
 10
424.9999999999872
 20
-3566.487236735094
 30
0.0
 40
15.0
100
AcDbArc
 50
270.0
 51
0.0
  0
ARC
  5
8FB
330
1F
100
AcDbEntity
  8
DETAIL
  6
CONTINUOUS
100
AcDbCircle
 10
369.9999999999872
 20
-3500.567236735094
 30
0.0
 40
15.0
100
AcDbArc
 50
180.0
 51
187.1250159999904
  0
LINE
  5
8FC
330
1F
100
AcDbEntity
  8
DETAIL
  6
CONTINUOUS
100
AcDbLine
 10
424.9999999999899
 20
-3181.487236735095
 30
0.0
 11
378.2399999999906
 21
-3181.487236735095
 31
0.0
  0
ARC
  5
8FD
330
1F
100
AcDbEntity
  8
DETAIL
  6
CONTINUOUS
100
AcDbCircle
 10
378.2399999999879
 20
-3196.487236735094
 30
0.0
 40
15.0
100
AcDbArc
 50
90.0
 51
172.8749840000095
  0
ARC
  5
8FE
330
1F
100
AcDbEntity
  8
DETAIL
  6
CONTINUOUS
100
AcDbCircle
 10
369.999999999989
 20
-3262.417236735095
 30
0.0
 40
15.0
100
AcDbArc
 50
172.8749840000095
 51
180.0
  0
LINE
  5
8FF
330
1F
100
AcDbEntity
  8
DETAIL
  6
CONTINUOUS
100
AcDbLine
 10
363.3599999999887
 20
-3194.627236735095
 30
0.0
 11
355.119999999989
 21
-3260.557236735095
 31
0.0
  0
ARC
  5
900
330
1F
100
AcDbEntity
  8
DETAIL
  6
CONTINUOUS
100
AcDbCircle
 10
424.999999999989
 20
-3196.487236735094
 30
0.0
 40
15.0
100
AcDbArc
 50
0.0
 51
90.0
  0
ARC
  5
901
330
1F
100
AcDbEntity
  8
DETAIL
  6
CONTINUOUS
100
AcDbCircle
 10
279.9999999999891
 20
-3101.487236735092
 30
0.0
 40
30.0
100
AcDbArc
 50
0.0
 51
90.0
  0
ARC
  5
902
330
1F
100
AcDbEntity
  8
DETAIL
  6
CONTINUOUS
100
AcDbCircle
 10
184.999999999989
 20
-2956.487236735091
 30
0.0
 40
15.0
100
AcDbArc
 50
0.0
 51
90.0
  0
ARC
  5
903
330
1F
100
AcDbEntity
  8
DETAIL
  6
CONTINUOUS
100
AcDbCircle
 10
184.999999999989
 20
-3003.247236735091
 30
0.0
 40
15.0
100
AcDbArc
 50
277.1250159999904
 51
0.0
  0
LINE
  5
904
330
1F
100
AcDbEntity
  8
DETAIL
  6
CONTINUOUS
100
AcDbLine
 10
199.999999999989
 20
-3003.247236735093
 30
0.0
 11
199.999999999989
 21
-2956.487236735093
 31
0.0
  0
ARC
  5
905
330
1F
100
AcDbEntity
  8
DETAIL
  6
CONTINUOUS
100
AcDbCircle
 10
459.9999999999891
 20
-2921.487236735092
 30
0.0
 40
15.0
100
AcDbArc
 50
0.0
 51
90.0
  0
LINE
  5
906
330
1F
100
AcDbEntity
  8
DETAIL
  6
CONTINUOUS
100
AcDbLine
 10
475.0000000000027
 20
459.999999999999
 30
0.0
 11
474.9999999999972
 21
-460.0000000000018
 31
0.0
  0
ARC
  5
907
330
1F
100
AcDbEntity
  8
DETAIL
  6
CONTINUOUS
100
AcDbCircle
 10
459.9999999999972
 20
-460.0000000000009
 30
0.0
 40
15.0
100
AcDbArc
 50
270.0
 51
0.0
  0
POLYLINE
  5
908
330
1F
100
AcDbEntity
  8
DETAIL
  6
CONTINUOUS
100
AcDb2dPolyline
 66
     1
 10
0.0
 20
0.0
 30
0.0
  0
VERTEX
  5
BD0
330
908
100
AcDbEntity
  8
DETAIL
  6
CONTINUOUS
100
AcDbVertex
100
AcDb2dVertex
 10
388.0000000000027
 20
302.5000000000009
 30
0.0
  0
VERTEX
  5
BD1
330
908
100
AcDbEntity
  8
DETAIL
  6
CONTINUOUS
100
AcDbVertex
100
AcDb2dVertex
 10
388.0000000000027
 20
324.5000000000008
 30
0.0
  0
VERTEX
  5
BD2
330
908
100
AcDbEntity
  8
DETAIL
  6
CONTINUOUS
100
AcDbVertex
100
AcDb2dVertex
 10
408.0000000000027
 20
324.5000000000008
 30
0.0
  0
VERTEX
  5
BD3
330
908
100
AcDbEntity
  8
DETAIL
  6
CONTINUOUS
100
AcDbVertex
100
AcDb2dVertex
 10
408.0000000000027
 20
302.5000000000009
 30
0.0
  0
VERTEX
  5
BD4
330
908
100
AcDbEntity
  8
DETAIL
  6
CONTINUOUS
100
AcDbVertex
100
AcDb2dVertex
 10
388.0000000000027
 20
302.5000000000009
 30
0.0
  0
SEQEND
  5
BD5
330
908
100
AcDbEntity
  8
DETAIL
  6
CONTINUOUS
  0
LINE
  5
909
330
1F
100
AcDbEntity
  8
DETAIL
  6
CONTINUOUS
100
AcDbLine
 10
388.0000000000027
 20
237.4999999999991
 30
0.0
 11
393.0000000000027
 21
237.4999999999991
 31
0.0
  0
LINE
  5
90A
330
1F
100
AcDbEntity
  8
DETAIL
  6
CONTINUOUS
100
AcDbLine
 10
393.0000000000027
 20
245.499999999999
 30
0.0
 11
388.0000000000027
 21
245.499999999999
 31
0.0
  0
LINE
  5
90B
330
1F
100
AcDbEntity
  8
DETAIL
  6
CONTINUOUS
100
AcDbLine
 10
345.0000000000009
 20
319.8499999999976
 30
0.0
 11
381.0000000000027
 21
319.8499999999976
 31
0.0
  0
LINE
  5
90C
330
1F
100
AcDbEntity
  8
DETAIL
  6
CONTINUOUS
100
AcDbLine
 10
345.0000000000009
 20
307.1499999999969
 30
0.0
 11
381.0000000000027
 21
307.1499999999969
 31
0.0
  0
LINE
  5
90D
330
1F
100
AcDbEntity
  8
DETAIL
  6
CONTINUOUS
100
AcDbLine
 10
381.0000000000027
 20
321.5000000000009
 30
0.0
 11
381.0000000000027
 21
305.5000000000009
 31
0.0
  0
LINE
  5
90E
330
1F
100
AcDbEntity
  8
DETAIL
  6
CONTINUOUS
100
AcDbLine
 10
388.0000000000045
 20
245.499999999999
 30
0.0
 11
388.0000000000027
 21
237.4999999999991
 31
0.0
  0
LINE
  5
90F
330
1F
100
AcDbEntity
  8
DETAIL
  6
CONTINUOUS
100
AcDbLine
 10
381.0000000000027
 20
305.5000000000009
 30
0.0
 11
388.0000000000027
 21
305.5000000000009
 31
0.0
  0
LINE
  5
910
330
1F
100
AcDbEntity
  8
DETAIL
  6
CONTINUOUS
100
AcDbLine
 10
388.0000000000027
 20
321.5000000000009
 30
0.0
 11
381.0000000000027
 21
321.5000000000009
 31
0.0
  0
LINE
  5
911
330
1F
100
AcDbEntity
  8
DETAIL
  6
CONTINUOUS
100
AcDbLine
 10
345.0
 20
238.3000000000001
 30
0.0
 11
388.0000000000027
 21
238.2999999999983
 31
0.0
  0
LINE
  5
912
330
1F
100
AcDbEntity
  8
DETAIL
  6
CONTINUOUS
100
AcDbLine
 10
345.0
 20
244.6984652749479
 30
0.0
 11
388.0000000000027
 21
244.6984652749461
 31
0.0
  0
POLYLINE
  5
913
330
1F
100
AcDbEntity
  8
DETAIL
  6
CONTINUOUS
100
AcDb2dPolyline
 66
     1
 10
0.0
 20
0.0
 30
0.0
  0
VERTEX
  5
BD6
330
913
100
AcDbEntity
  8
DETAIL
  6
CONTINUOUS
100
AcDbVertex
100
AcDb2dVertex
 10
393.0000000000027
 20
248.499999999999
 30
0.0
  0
VERTEX
  5
BD7
330
913
100
AcDbEntity
  8
DETAIL
  6
CONTINUOUS
100
AcDbVertex
100
AcDb2dVertex
 10
393.0000000000027
 20
234.499999999999
 30
0.0
  0
VERTEX
  5
BD8
330
913
100
AcDbEntity
  8
DETAIL
  6
CONTINUOUS
100
AcDbVertex
100
AcDb2dVertex
 10
408.0000000000027
 20
234.499999999999
 30
0.0
  0
VERTEX
  5
BD9
330
913
100
AcDbEntity
  8
DETAIL
  6
CONTINUOUS
100
AcDbVertex
100
AcDb2dVertex
 10
408.0000000000027
 20
248.499999999999
 30
0.0
  0
VERTEX
  5
BDA
330
913
100
AcDbEntity
  8
DETAIL
  6
CONTINUOUS
100
AcDbVertex
100
AcDb2dVertex
 10
393.0000000000027
 20
248.499999999999
 30
0.0
  0
SEQEND
  5
BDB
330
913
100
AcDbEntity
  8
DETAIL
  6
CONTINUOUS
  0
ARC
  5
914
330
1F
100
AcDbEntity
  8
DETAIL
  6
CONTINUOUS
100
AcDbCircle
 10
460.0
 20
459.999999999999
 30
0.0
 40
15.0
100
AcDbArc
 50
0.0
 51
90.0
  0
LINE
  5
915
330
1F
100
AcDbEntity
  8
DETAIL
  6
CONTINUOUS
100
AcDbLine
 10
-269.2369071229113
 20
-419.9999999999991
 30
0.0
 11
269.2369071229068
 21
-420.0
 31
0.0
  0
LINE
  5
916
330
1F
100
AcDbEntity
  8
DETAIL
  6
CONTINUOUS
100
AcDbLine
 10
419.9999999999972
 20
-269.0
 30
0.0
 11
420.0000000000027
 21
193.749999999999
 31
0.0
  0
LINE
  5
917
330
1F
100
AcDbEntity
  8
DETAIL
100
AcDbLine
 10
-420.0000000000009
 20
0.000000000003638
 30
0.0
 11
-420.0000000000036
 21
-268.9999999999972
 31
0.0
  0
LINE
  5
918
330
1F
100
AcDbEntity
  8
DETAIL
100
AcDbLine
 10
-420.0000000000036
 20
-268.9999999999972
 30
0.0
 11
-269.2369071229113
 21
-419.9999999999991
 31
0.0
  0
LINE
  5
919
330
1F
100
AcDbEntity
  8
DETAIL
 62
     5
 48
0.5
100
AcDbLine
 10
-338.5294407703986
 20
-350.4705501386934
 30
0.0
 11
-372.0355339060042
 21
-383.9766432742972
 31
0.0
  0
LINE
  5
91A
330
1F
100
AcDbEntity
  8
DETAIL
 62
     5
 48
0.5
100
AcDbLine
 10
-373.5000000000018
 20
-387.5121771798976
 30
0.0
 11
-373.5000000000018
 21
-397.0807196750966
 31
0.0
  0
LINE
  5
91B
330
1F
100
AcDbEntity
  8
DETAIL
 62
     5
 48
0.5
100
AcDbLine
 10
-372.0355339060042
 20
-400.6162535810972
 30
0.0
 11
-365.5832611208024
 21
-407.0685263662971
 31
0.0
  0
ARC
  5
91C
330
1F
100
AcDbEntity
  8
DETAIL
 62
     5
 48
0.5
100
AcDbCircle
 10
-368.5000000000018
 20
-397.080719675097
 30
0.0
 40
5.00000000000036
100
AcDbArc
 50
180.0
 51
225.0
  0
LINE
  5
91D
330
1F
100
AcDbEntity
  8
DETAIL
 62
     5
 48
0.5
100
AcDbLine
 10
-365.5832611208024
 20
-407.0685263662971
 30
0.0
 11
-365.5832611208024
 21
-409.0685263662972
 31
0.0
  0
LINE
  5
91E
330
1F
100
AcDbEntity
  8
DETAIL
 62
     5
 48
0.5
100
AcDbLine
 10
-355.0000000000036
 20
-409.0685263662972
 30
0.0
 11
-365.5832611208024
 21
-409.0685263662972
 31
0.0
  0
LINE
  5
91F
330
1F
100
AcDbEntity
  8
DETAIL
 62
     5
 48
0.5
100
AcDbLine
 10
-355.0000000000036
 20
-409.0685263662972
 30
0.0
 11
-355.0000000000036
 21
-407.0685263662971
 31
0.0
  0
LINE
  5
920
330
1F
100
AcDbEntity
  8
DETAIL
 62
     5
 48
0.5
100
AcDbLine
 10
-355.0000000000036
 20
-407.0685263662971
 30
0.0
 11
-351.085786437603
 21
-403.1543128038966
 31
0.0
  0
ARC
  5
921
330
1F
100
AcDbEntity
  8
DETAIL
 62
     5
 48
0.5
100
AcDbCircle
 10
-352.5000000000036
 20
-401.7400992414963
 30
0.0
 40
2.000000000000227
100
AcDbArc
 50
315.0
 51
0.0
  0
LINE
  5
922
330
1F
100
AcDbEntity
  8
DETAIL
 62
     5
 48
0.5
100
AcDbLine
 10
-350.5000000000018
 20
-401.7400992414959
 30
0.0
 11
-350.499987602403
 21
-396.0685326262964
 31
0.0
  0
LINE
  5
923
330
1F
100
AcDbEntity
  8
DETAIL
 62
     5
 48
0.5
100
AcDbLine
 10
-350.499987602403
 20
-396.0685326262964
 30
0.0
 11
-355.5000000000018
 21
-396.0685263662954
 31
0.0
  0
ARC
  5
924
330
1F
100
AcDbEntity
  8
DETAIL
 62
     5
 48
0.5
100
AcDbCircle
 10
-355.5000000000018
 20
-390.0685263662958
 30
0.0
 40
6.000000000000227
100
AcDbArc
 50
90.0
 51
270.0
  0
LINE
  5
925
330
1F
100
AcDbEntity
  8
DETAIL
 62
     5
 48
0.5
100
AcDbLine
 10
-355.5000000000018
 20
-384.0685263662972
 30
0.0
 11
-343.6633168356038
 21
-384.0685263662972
 31
0.0
  0
ARC
  5
926
330
1F
100
AcDbEntity
  8
DETAIL
 62
     5
 48
0.5
100
AcDbCircle
 10
-343.6633168356038
 20
-382.0685263662958
 30
0.0
 40
2.0
100
AcDbArc
 50
270.0
 51
353.1976816906721
  0
ARC
  5
927
330
1F
100
AcDbEntity
  8
DETAIL
 62
     5
 48
0.5
100
AcDbCircle
 10
-335.7196311044026
 20
-383.0160795318965
 30
0.0
 40
6.00000000000004
100
AcDbArc
 50
9.81153323739287
 51
173.1976816906721
  0
LINE
  5
928
330
1F
100
AcDbEntity
  8
DETAIL
 62
     5
 48
0.5
100
AcDbLine
 10
-329.8073894052031
 20
-381.9936324234959
 30
0.0
 11
-328.5877583008023
 21
-389.0460792578969
 31
0.0
  0
ARC
  5
929
330
1F
100
AcDbEntity
  8
DETAIL
 62
     5
 48
0.5
100
AcDbCircle
 10
-334.5000000000036
 20
-390.0685263662958
 30
0.0
 40
6.000000000000036
100
AcDbArc
 50
270.0
 51
9.81153323739287
  0
LINE
  5
92A
330
1F
100
AcDbEntity
  8
DETAIL
 62
     5
 48
0.5
100
AcDbLine
 10
-334.5000000000036
 20
-396.0685263662954
 30
0.0
 11
-339.5000100136021
 21
-396.0685326262964
 31
0.0
  0
LINE
  5
92B
330
1F
100
AcDbEntity
  8
DETAIL
 62
     5
 48
0.5
100
AcDbLine
 10
-339.5000100136021
 20
-396.0685326262964
 30
0.0
 11
-339.5000000000036
 21
-401.7400992414959
 31
0.0
  0
ARC
  5
92C
330
1F
100
AcDbEntity
  8
DETAIL
 62
     5
 48
0.5
100
AcDbCircle
 10
-337.5000000000036
 20
-401.7400992414963
 30
0.0
 40
2.000000000000015
100
AcDbArc
 50
180.0
 51
225.0
  0
LINE
  5
92D
330
1F
100
AcDbEntity
  8
DETAIL
 62
     5
 48
0.5
100
AcDbLine
 10
-338.9142135624024
 20
-403.1543128038966
 30
0.0
 11
-335.0000000000036
 21
-407.0685263662971
 31
0.0
  0
LINE
  5
92E
330
1F
100
AcDbEntity
  8
DETAIL
 62
     5
 48
0.5
100
AcDbLine
 10
-335.0000000000036
 20
-407.0685263662971
 30
0.0
 11
-335.0000000000036
 21
-409.0685263662972
 31
0.0
  0
LINE
  5
92F
330
1F
100
AcDbEntity
  8
DETAIL
 62
     5
 48
0.5
100
AcDbLine
 10
-324.4167388792029
 20
-409.0685263662972
 30
0.0
 11
-335.0000000000036
 21
-409.0685263662972
 31
0.0
  0
LINE
  5
930
330
1F
100
AcDbEntity
  8
DETAIL
 62
     5
 48
0.5
100
AcDbLine
 10
-324.4167388792029
 20
-409.0685263662972
 30
0.0
 11
-324.4167388792029
 21
-407.0685263662971
 31
0.0
  0
LINE
  5
931
330
1F
100
AcDbEntity
  8
DETAIL
 62
     5
 48
0.5
100
AcDbLine
 10
-324.4167388792029
 20
-407.0685263662971
 30
0.0
 11
-303.1740997388205
 21
-385.8258872251417
 31
0.0
  0
ARC
  5
932
330
1F
100
AcDbEntity
  8
DETAIL
 62
     5
 48
0.5
100
AcDbCircle
 10
-368.5000000000709
 20
-387.5121771802291
 30
0.0
 40
5.000000000000229
100
AcDbArc
 50
135.0
 51
180.0
  0
LINE
  5
933
330
1F
100
AcDbEntity
  8
DETAIL
 62
     5
 48
0.5
100
AcDbLine
 10
338.5294407703977
 20
-350.4705501387143
 30
0.0
 11
372.0355339059997
 21
-383.9766432743181
 31
0.0
  0
LINE
  5
934
330
1F
100
AcDbEntity
  8
DETAIL
 62
     5
 48
0.5
100
AcDbLine
 10
373.499999999999
 20
-387.5121771799186
 30
0.0
 11
373.4999999999972
 21
-397.0807196751193
 31
0.0
  0
LINE
  5
935
330
1F
100
AcDbEntity
  8
DETAIL
 62
     5
 48
0.5
100
AcDbLine
 10
372.0355339059997
 20
-400.6162535811181
 30
0.0
 11
365.5832611207979
 21
-407.0685263663181
 31
0.0
  0
ARC
  5
936
330
1F
100
AcDbEntity
  8
DETAIL
 62
     5
 48
0.5
100
AcDbCircle
 10
368.4999999999972
 20
-397.0807196751184
 30
0.0
 40
5.00000000000036
100
AcDbArc
 50
315.0
 51
0.0
  0
LINE
  5
937
330
1F
100
AcDbEntity
  8
DETAIL
 62
     5
 48
0.5
100
AcDbLine
 10
365.5832611207979
 20
-407.0685263663181
 30
0.0
 11
365.5832611207979
 21
-409.068526366318
 31
0.0
  0
LINE
  5
938
330
1F
100
AcDbEntity
  8
DETAIL
 62
     5
 48
0.5
100
AcDbLine
 10
354.999999999999
 20
-409.068526366318
 30
0.0
 11
365.5832611207979
 21
-409.068526366318
 31
0.0
  0
LINE
  5
939
330
1F
100
AcDbEntity
  8
DETAIL
 62
     5
 48
0.5
100
AcDbLine
 10
354.999999999999
 20
-409.068526366318
 30
0.0
 11
354.999999999999
 21
-407.0685263663181
 31
0.0
  0
LINE
  5
93A
330
1F
100
AcDbEntity
  8
DETAIL
 62
     5
 48
0.5
100
AcDbLine
 10
354.999999999999
 20
-407.0685263663181
 30
0.0
 11
351.0857864375984
 21
-403.1543128039174
 31
0.0
  0
ARC
  5
93B
330
1F
100
AcDbEntity
  8
DETAIL
 62
     5
 48
0.5
100
AcDbCircle
 10
352.4999999999991
 20
-401.740099241516
 30
0.0
 40
2.000000000000227
100
AcDbArc
 50
180.0
 51
225.0
  0
LINE
  5
93C
330
1F
100
AcDbEntity
  8
DETAIL
 62
     5
 48
0.5
100
AcDbLine
 10
350.4999999999972
 20
-401.7400992415169
 30
0.0
 11
350.4999876023985
 21
-396.0685326263174
 31
0.0
  0
LINE
  5
93D
330
1F
100
AcDbEntity
  8
DETAIL
 62
     5
 48
0.5
100
AcDbLine
 10
350.4999876023985
 20
-396.0685326263174
 30
0.0
 11
355.499999999999
 21
-396.0685263663163
 31
0.0
  0
ARC
  5
93E
330
1F
100
AcDbEntity
  8
DETAIL
 62
     5
 48
0.5
100
AcDbCircle
 10
355.5000000000009
 20
-390.0685263663172
 30
0.0
 40
6.000000000000227
100
AcDbArc
 50
270.0
 51
90.0
  0
LINE
  5
93F
330
1F
100
AcDbEntity
  8
DETAIL
 62
     5
 48
0.5
100
AcDbLine
 10
355.499999999999
 20
-384.0685263663181
 30
0.0
 11
343.6633168355992
 21
-384.0685263663162
 31
0.0
  0
ARC
  5
940
330
1F
100
AcDbEntity
  8
DETAIL
 62
     5
 48
0.5
100
AcDbCircle
 10
343.663316835601
 20
-382.0685263663172
 30
0.0
 40
2.0
100
AcDbArc
 50
186.8023183093278
 51
270.0
  0
ARC
  5
941
330
1F
100
AcDbEntity
  8
DETAIL
 62
     5
 48
0.5
100
AcDbCircle
 10
335.7196311044017
 20
-383.0160795319161
 30
0.0
 40
6.00000000000004
100
AcDbArc
 50
6.802318309327851
 51
170.1884667626071
  0
LINE
  5
942
330
1F
100
AcDbEntity
  8
DETAIL
 62
     5
 48
0.5
100
AcDbLine
 10
329.8073894052004
 20
-381.993632423515
 30
0.0
 11
328.5877583007977
 21
-389.046079257916
 31
0.0
  0
ARC
  5
943
330
1F
100
AcDbEntity
  8
DETAIL
 62
     5
 48
0.5
100
AcDbCircle
 10
334.5000000000009
 20
-390.0685263663153
 30
0.0
 40
6.000000000000036
100
AcDbArc
 50
170.1884667626071
 51
270.0
  0
LINE
  5
944
330
1F
100
AcDbEntity
  8
DETAIL
 62
     5
 48
0.5
100
AcDbLine
 10
334.499999999999
 20
-396.0685263663163
 30
0.0
 11
339.5000100135994
 21
-396.0685326263174
 31
0.0
  0
LINE
  5
945
330
1F
100
AcDbEntity
  8
DETAIL
 62
     5
 48
0.5
100
AcDbLine
 10
339.5000100135994
 20
-396.0685326263174
 30
0.0
 11
339.4999999999991
 21
-401.7400992415169
 31
0.0
  0
ARC
  5
946
330
1F
100
AcDbEntity
  8
DETAIL
 62
     5
 48
0.5
100
AcDbCircle
 10
337.4999999999991
 20
-401.740099241516
 30
0.0
 40
2.000000000000015
100
AcDbArc
 50
315.0
 51
0.0
  0
LINE
  5
947
330
1F
100
AcDbEntity
  8
DETAIL
 62
     5
 48
0.5
100
AcDbLine
 10
338.9142135623978
 20
-403.1543128039157
 30
0.0
 11
334.999999999999
 21
-407.0685263663163
 31
0.0
  0
LINE
  5
948
330
1F
100
AcDbEntity
  8
DETAIL
 62
     5
 48
0.5
100
AcDbLine
 10
334.999999999999
 20
-407.0685263663163
 30
0.0
 11
334.999999999999
 21
-409.0685263663162
 31
0.0
  0
LINE
  5
949
330
1F
100
AcDbEntity
  8
DETAIL
 62
     5
 48
0.5
100
AcDbLine
 10
324.4167388791984
 20
-409.0685263663162
 30
0.0
 11
334.999999999999
 21
-409.0685263663162
 31
0.0
  0
LINE
  5
94A
330
1F
100
AcDbEntity
  8
DETAIL
 62
     5
 48
0.5
100
AcDbLine
 10
324.4167388791984
 20
-409.0685263663162
 30
0.0
 11
324.4167388791984
 21
-407.0685263663163
 31
0.0
  0
LINE
  5
94B
330
1F
100
AcDbEntity
  8
DETAIL
 62
     5
 48
0.5
100
AcDbLine
 10
324.4167388791984
 20
-407.0685263663163
 30
0.0
 11
303.174099738816
 21
-385.8258872251608
 31
0.0
  0
ARC
  5
94C
330
1F
100
AcDbEntity
  8
DETAIL
 62
     5
 48
0.5
100
AcDbCircle
 10
368.5000000000663
 20
-387.5121771802505
 30
0.0
 40
5.000000000000229
100
AcDbArc
 50
0.0
 51
45.0
  0
LINE
  5
94D
330
1F
100
AcDbEntity
  8
DETAIL
100
AcDbLine
 10
419.9999999999972
 20
-269.0
 30
0.0
 11
269.2369071229068
 21
-420.0
 31
0.0
  0
LINE
  5
94E
330
1F
100
AcDbEntity
  8
DETAIL
  6
CONTINUOUS
100
AcDbLine
 10
-269.2369071229086
 20
420.0000000000036
 30
0.0
 11
269.2369071229122
 21
419.9999999999991
 31
0.0
  0
LINE
  5
94F
330
1F
100
AcDbEntity
  8
DETAIL
100
AcDbLine
 10
-420.0000000000009
 20
0.000000000003638
 30
0.0
 11
-420.0000000000009
 21
269.0000000000036
 31
0.0
  0
LINE
  5
950
330
1F
100
AcDbEntity
  8
DETAIL
100
AcDbLine
 10
-420.0000000000009
 20
269.0000000000036
 30
0.0
 11
-269.2369071229086
 21
420.0000000000036
 31
0.0
  0
LINE
  5
951
330
1F
100
AcDbEntity
  8
DETAIL
 62
     5
 48
0.5
100
AcDbLine
 10
-338.5294407703959
 20
350.4705501386988
 30
0.0
 11
-372.0355339060015
 21
383.9766432743017
 31
0.0
  0
LINE
  5
952
330
1F
100
AcDbEntity
  8
DETAIL
 62
     5
 48
0.5
100
AcDbLine
 10
-373.499999999999
 20
387.5121771799022
 30
0.0
 11
-373.499999999999
 21
397.080719675102
 31
0.0
  0
LINE
  5
953
330
1F
100
AcDbEntity
  8
DETAIL
 62
     5
 48
0.5
100
AcDbLine
 10
-372.0355339060015
 20
400.6162535811017
 30
0.0
 11
-365.5832611207997
 21
407.0685263663017
 31
0.0
  0
ARC
  5
954
330
1F
100
AcDbEntity
  8
DETAIL
 62
     5
 48
0.5
100
AcDbCircle
 10
-368.4999999999981
 20
397.0807196751011
 30
0.0
 40
5.00000000000036
100
AcDbArc
 50
135.0
 51
180.0
  0
LINE
  5
955
330
1F
100
AcDbEntity
  8
DETAIL
 62
     5
 48
0.5
100
AcDbLine
 10
-365.5832611207997
 20
407.0685263663017
 30
0.0
 11
-365.5832611207997
 21
409.0685263663017
 31
0.0
  0
LINE
  5
956
330
1F
100
AcDbEntity
  8
DETAIL
 62
     5
 48
0.5
100
AcDbLine
 10
-355.0000000000009
 20
409.0685263663017
 30
0.0
 11
-365.5832611207997
 21
409.0685263663017
 31
0.0
  0
LINE
  5
957
330
1F
100
AcDbEntity
  8
DETAIL
 62
     5
 48
0.5
100
AcDbLine
 10
-355.0000000000009
 20
409.0685263663017
 30
0.0
 11
-355.0000000000009
 21
407.0685263663017
 31
0.0
  0
LINE
  5
958
330
1F
100
AcDbEntity
  8
DETAIL
 62
     5
 48
0.5
100
AcDbLine
 10
-355.0000000000009
 20
407.0685263663017
 30
0.0
 11
-351.0857864376002
 21
403.1543128039011
 31
0.0
  0
ARC
  5
959
330
1F
100
AcDbEntity
  8
DETAIL
 62
     5
 48
0.5
100
AcDbCircle
 10
-352.4999999999999
 20
401.7400992415004
 30
0.0
 40
2.000000000000227
100
AcDbArc
 50
0.0
 51
45.0
  0
LINE
  5
95A
330
1F
100
AcDbEntity
  8
DETAIL
 62
     5
 48
0.5
100
AcDbLine
 10
-350.4999999999991
 20
401.7400992415014
 30
0.0
 11
-350.4999876024003
 21
396.0685326263019
 31
0.0
  0
LINE
  5
95B
330
1F
100
AcDbEntity
  8
DETAIL
 62
     5
 48
0.5
100
AcDbLine
 10
-350.4999876024003
 20
396.0685326263019
 30
0.0
 11
-355.499999999999
 21
396.0685263663017
 31
0.0
  0
ARC
  5
95C
330
1F
100
AcDbEntity
  8
DETAIL
 62
     5
 48
0.5
100
AcDbCircle
 10
-355.5
 20
390.0685263662999
 30
0.0
 40
6.000000000000227
100
AcDbArc
 50
90.0
 51
270.0
  0
LINE
  5
95D
330
1F
100
AcDbEntity
  8
DETAIL
 62
     5
 48
0.5
100
AcDbLine
 10
-355.499999999999
 20
384.0685263663017
 30
0.0
 11
-343.663316835601
 21
384.0685263663017
 31
0.0
  0
ARC
  5
95E
330
1F
100
AcDbEntity
  8
DETAIL
 62
     5
 48
0.5
100
AcDbCircle
 10
-343.6633168356002
 20
382.0685263662999
 30
0.0
 40
2.0
100
AcDbArc
 50
6.802318309327851
 51
90.0
  0
ARC
  5
95F
330
1F
100
AcDbEntity
  8
DETAIL
 62
     5
 48
0.5
100
AcDbCircle
 10
-335.7196311044008
 20
383.0160795319006
 30
0.0
 40
6.00000000000004
100
AcDbArc
 50
186.8023183093278
 51
350.1884667626071
  0
LINE
  5
960
330
1F
100
AcDbEntity
  8
DETAIL
 62
     5
 48
0.5
100
AcDbLine
 10
-329.8073894052004
 20
381.9936324235013
 30
0.0
 11
-328.5877583007995
 21
389.0460792579015
 31
0.0
  0
ARC
  5
961
330
1F
100
AcDbEntity
  8
DETAIL
 62
     5
 48
0.5
100
AcDbCircle
 10
-334.5
 20
390.0685263662999
 30
0.0
 40
6.000000000000036
100
AcDbArc
 50
350.1884667626071
 51
90.0
  0
LINE
  5
962
330
1F
100
AcDbEntity
  8
DETAIL
 62
     5
 48
0.5
100
AcDbLine
 10
-334.5000000000009
 20
396.0685263663008
 30
0.0
 11
-339.5000100135994
 21
396.0685326263019
 31
0.0
  0
LINE
  5
963
330
1F
100
AcDbEntity
  8
DETAIL
 62
     5
 48
0.5
100
AcDbLine
 10
-339.5000100135994
 20
396.0685326263019
 30
0.0
 11
-339.5000000000009
 21
401.7400992415014
 31
0.0
  0
ARC
  5
964
330
1F
100
AcDbEntity
  8
DETAIL
 62
     5
 48
0.5
100
AcDbCircle
 10
-337.5
 20
401.7400992415004
 30
0.0
 40
2.000000000000015
100
AcDbArc
 50
135.0
 51
180.0
  0
LINE
  5
965
330
1F
100
AcDbEntity
  8
DETAIL
 62
     5
 48
0.5
100
AcDbLine
 10
-338.9142135623997
 20
403.1543128039011
 30
0.0
 11
-335.0000000000008
 21
407.0685263663017
 31
0.0
  0
LINE
  5
966
330
1F
100
AcDbEntity
  8
DETAIL
 62
     5
 48
0.5
100
AcDbLine
 10
-335.0000000000008
 20
407.0685263663017
 30
0.0
 11
-335.0000000000008
 21
409.0685263663017
 31
0.0
  0
LINE
  5
967
330
1F
100
AcDbEntity
  8
DETAIL
 62
     5
 48
0.5
100
AcDbLine
 10
-324.4167388792002
 20
409.0685263663017
 30
0.0
 11
-335.0000000000008
 21
409.0685263663017
 31
0.0
  0
LINE
  5
968
330
1F
100
AcDbEntity
  8
DETAIL
 62
     5
 48
0.5
100
AcDbLine
 10
-324.4167388792002
 20
409.0685263663017
 30
0.0
 11
-324.4167388792002
 21
407.0685263663017
 31
0.0
  0
LINE
  5
969
330
1F
100
AcDbEntity
  8
DETAIL
 62
     5
 48
0.5
100
AcDbLine
 10
-324.4167388792002
 20
407.0685263663017
 30
0.0
 11
-303.1740997388178
 21
385.8258872251472
 31
0.0
  0
ARC
  5
96A
330
1F
100
AcDbEntity
  8
DETAIL
 62
     5
 48
0.5
100
AcDbCircle
 10
-368.5000000000673
 20
387.5121771802332
 30
0.0
 40
5.000000000000229
100
AcDbArc
 50
180.0
 51
225.0
  0
LINE
  5
96B
330
1F
100
AcDbEntity
  8
DETAIL
 48
0.5
100
AcDbLine
 10
385.4999999999972
 20
-346.0
 30
0.0
 11
385.4999999999972
 21
-303.5542128420456
 31
0.0
  0
LINE
  5
96C
330
1F
100
AcDbEntity
  8
DETAIL
 48
0.5
100
AcDbLine
 10
412.4999967123976
 20
-306.9999872296012
 30
0.0
 11
389.4999999999991
 21
-307.0
 31
0.0
  0
LINE
  5
96D
330
1F
100
AcDbEntity
  8
DETAIL
 48
0.5
100
AcDbLine
 10
388.9999999999972
 20
-339.5
 30
0.0
 11
388.9999999999972
 21
-306.4999999999999
 31
0.0
  0
LINE
  5
96E
330
1F
100
AcDbEntity
  8
DETAIL
 48
0.5
100
AcDbLine
 10
389.4999999999991
 20
-307.0
 30
0.0
 11
389.4999999999991
 21
-339.0
 31
0.0
  0
LINE
  5
96F
330
1F
100
AcDbEntity
  8
DETAIL
 48
0.5
100
AcDbLine
 10
412.4999999999972
 20
-306.4999999999999
 30
0.0
 11
412.4999999999972
 21
-339.5
 31
0.0
  0
LINE
  5
970
330
1F
100
AcDbEntity
  8
DETAIL
 48
0.5
100
AcDbLine
 10
413.499999999999
 20
-339.5
 30
0.0
 11
413.499999999999
 21
-306.4999999999999
 31
0.0
  0
LINE
  5
971
330
1F
100
AcDbEntity
  8
DETAIL
 48
0.5
100
AcDbLine
 10
416.4999999999972
 20
-308.0
 30
0.0
 11
416.4999999999972
 21
-338.0
 31
0.0
  0
LINE
  5
972
330
1F
100
AcDbEntity
  8
DETAIL
 48
0.5
100
AcDbLine
 10
416.4999999999972
 20
-308.0
 30
0.0
 11
413.499999999999
 21
-306.4999999999999
 31
0.0
  0
LINE
  5
973
330
1F
100
AcDbEntity
  8
DETAIL
 48
0.5
100
AcDbLine
 10
389.4999999999991
 20
-339.0
 30
0.0
 11
412.4999967123976
 21
-338.9999924748008
 31
0.0
  0
LINE
  5
974
330
1F
100
AcDbEntity
  8
DETAIL
 48
0.5
100
AcDbLine
 10
412.4999999999972
 20
-339.5
 30
0.0
 11
413.499999999999
 21
-339.5
 31
0.0
  0
LINE
  5
975
330
1F
100
AcDbEntity
  8
DETAIL
 48
0.5
100
AcDbLine
 10
413.499999999999
 20
-339.5
 30
0.0
 11
416.4999999999972
 21
-338.0
 31
0.0
  0
LINE
  5
976
330
1F
100
AcDbEntity
  8
DETAIL
 48
0.5
100
AcDbLine
 10
343.2989898731966
 20
-346.0
 30
0.0
 11
385.4999999999972
 21
-346.0
 31
0.0
  0
LINE
  5
977
330
1F
100
AcDbEntity
  8
DETAIL
 48
0.5
100
AcDbLine
 10
389.4999999999991
 20
-307.0
 30
0.0
 11
388.9999999999972
 21
-306.4999999999999
 31
0.0
  0
LINE
  5
978
330
1F
100
AcDbEntity
  8
DETAIL
 48
0.5
100
AcDbLine
 10
388.9999999999972
 20
-306.4999999999999
 30
0.0
 11
385.4999866987973
 21
-306.4999936668009
 31
0.0
  0
LINE
  5
979
330
1F
100
AcDbEntity
  8
DETAIL
 48
0.5
100
AcDbLine
 10
388.9999999999972
 20
-339.5
 30
0.0
 11
389.4999999999991
 21
-339.0
 31
0.0
  0
LINE
  5
97A
330
1F
100
AcDbEntity
  8
DETAIL
 48
0.5
100
AcDbLine
 10
385.4999866987973
 20
-339.499986037601
 30
0.0
 11
388.9999999999972
 21
-339.5
 31
0.0
  0
LINE
  5
97B
330
1F
100
AcDbEntity
  8
DETAIL
100
AcDbLine
 10
413.499999999999
 20
-306.4999999999999
 30
0.0
 11
412.4999999999972
 21
-306.4999999999999
 31
0.0
  0
LINE
  5
97C
330
1F
100
AcDbEntity
  8
DETAIL
100
AcDbLine
 10
420.0000000000027
 20
193.749999999999
 30
0.0
 11
344.999999999999
 21
209.249999999999
 31
0.0
  0
LINE
  5
97D
330
1F
100
AcDbEntity
  8
DETAIL
100
AcDbLine
 10
344.999999999999
 20
209.249999999999
 30
0.0
 11
345.0000000000009
 21
340.999999999999
 31
0.0
  0
LINE
  5
97E
330
1F
100
AcDbEntity
  8
DETAIL
100
AcDbLine
 10
345.0000000000009
 20
340.999999999999
 30
0.0
 11
269.2369071229122
 21
419.9999999999991
 31
0.0
  0
LINE
  5
97F
330
1F
100
AcDbEntity
  8
DETAIL
 62
     5
 48
0.5
100
AcDbLine
 10
338.5294407704031
 20
350.4705501387115
 30
0.0
 11
372.0355339060052
 21
383.9766432743171
 31
0.0
  0
LINE
  5
980
330
1F
100
AcDbEntity
  8
DETAIL
 62
     5
 48
0.5
100
AcDbLine
 10
373.5000000000036
 20
387.5121771799176
 30
0.0
 11
373.5000000000027
 21
397.0807196751166
 31
0.0
  0
LINE
  5
981
330
1F
100
AcDbEntity
  8
DETAIL
 62
     5
 48
0.5
100
AcDbLine
 10
372.0355339060042
 20
400.6162535811172
 30
0.0
 11
365.5832611208034
 21
407.0685263663172
 31
0.0
  0
ARC
  5
982
330
1F
100
AcDbEntity
  8
DETAIL
 62
     5
 48
0.5
100
AcDbCircle
 10
368.5000000000018
 20
397.0807196751166
 30
0.0
 40
5.00000000000036
100
AcDbArc
 50
0.0
 51
45.0
  0
LINE
  5
983
330
1F
100
AcDbEntity
  8
DETAIL
 62
     5
 48
0.5
100
AcDbLine
 10
365.5832611208034
 20
407.0685263663172
 30
0.0
 11
365.5832611208034
 21
409.0685263663171
 31
0.0
  0
LINE
  5
984
330
1F
100
AcDbEntity
  8
DETAIL
 62
     5
 48
0.5
100
AcDbLine
 10
355.0000000000027
 20
409.0685263663154
 30
0.0
 11
365.5832611208034
 21
409.0685263663171
 31
0.0
  0
LINE
  5
985
330
1F
100
AcDbEntity
  8
DETAIL
 62
     5
 48
0.5
100
AcDbLine
 10
355.0000000000027
 20
409.0685263663154
 30
0.0
 11
355.0000000000027
 21
407.0685263663153
 31
0.0
  0
LINE
  5
986
330
1F
100
AcDbEntity
  8
DETAIL
 62
     5
 48
0.5
100
AcDbLine
 10
355.0000000000027
 20
407.0685263663153
 30
0.0
 11
351.0857864376039
 21
403.1543128039147
 31
0.0
  0
ARC
  5
987
330
1F
100
AcDbEntity
  8
DETAIL
 62
     5
 48
0.5
100
AcDbCircle
 10
352.5000000000036
 20
401.7400992415141
 30
0.0
 40
2.000000000000227
100
AcDbArc
 50
135.0
 51
180.0
  0
LINE
  5
988
330
1F
100
AcDbEntity
  8
DETAIL
 62
     5
 48
0.5
100
AcDbLine
 10
350.5000000000027
 20
401.740099241516
 30
0.0
 11
350.4999876024039
 21
396.0685326263164
 31
0.0
  0
LINE
  5
989
330
1F
100
AcDbEntity
  8
DETAIL
 62
     5
 48
0.5
100
AcDbLine
 10
350.4999876024039
 20
396.0685326263164
 30
0.0
 11
355.5000000000036
 21
396.0685263663153
 31
0.0
  0
ARC
  5
98A
330
1F
100
AcDbEntity
  8
DETAIL
 62
     5
 48
0.5
100
AcDbCircle
 10
355.5000000000036
 20
390.0685263663153
 30
0.0
 40
6.000000000000227
100
AcDbArc
 50
270.0
 51
90.0
  0
LINE
  5
98B
330
1F
100
AcDbEntity
  8
DETAIL
 62
     5
 48
0.5
100
AcDbLine
 10
355.5000000000045
 20
384.0685263663154
 30
0.0
 11
343.6633168356047
 21
384.0685263663154
 31
0.0
  0
ARC
  5
98C
330
1F
100
AcDbEntity
  8
DETAIL
 62
     5
 48
0.5
100
AcDbCircle
 10
343.6633168356038
 20
382.0685263663154
 30
0.0
 40
2.0
100
AcDbArc
 50
90.0
 51
173.1976816906721
  0
ARC
  5
98D
330
1F
100
AcDbEntity
  8
DETAIL
 62
     5
 48
0.5
100
AcDbCircle
 10
335.7196311044044
 20
383.0160795319143
 30
0.0
 40
6.00000000000004
100
AcDbArc
 50
189.8115332373929
 51
353.1976816906721
  0
LINE
  5
98E
330
1F
100
AcDbEntity
  8
DETAIL
 62
     5
 48
0.5
100
AcDbLine
 10
329.8073894052049
 20
381.9936324235141
 30
0.0
 11
328.5877583008032
 21
389.0460792579151
 31
0.0
  0
ARC
  5
98F
330
1F
100
AcDbEntity
  8
DETAIL
 62
     5
 48
0.5
100
AcDbCircle
 10
334.5000000000036
 20
390.0685263663135
 30
0.0
 40
6.000000000000036
100
AcDbArc
 50
90.0
 51
189.8115332373929
  0
LINE
  5
990
330
1F
100
AcDbEntity
  8
DETAIL
 62
     5
 48
0.5
100
AcDbLine
 10
334.5000000000045
 20
396.0685263663153
 30
0.0
 11
339.500010013603
 21
396.0685326263164
 31
0.0
  0
LINE
  5
991
330
1F
100
AcDbEntity
  8
DETAIL
 62
     5
 48
0.5
100
AcDbLine
 10
339.500010013603
 20
396.0685326263164
 30
0.0
 11
339.5000000000045
 21
401.7400992415141
 31
0.0
  0
ARC
  5
992
330
1F
100
AcDbEntity
  8
DETAIL
 62
     5
 48
0.5
100
AcDbCircle
 10
337.5000000000036
 20
401.7400992415141
 30
0.0
 40
2.000000000000015
100
AcDbArc
 50
0.0
 51
45.0
  0
LINE
  5
993
330
1F
100
AcDbEntity
  8
DETAIL
 62
     5
 48
0.5
100
AcDbLine
 10
338.9142135624033
 20
403.1543128039147
 30
0.0
 11
335.0000000000027
 21
407.0685263663153
 31
0.0
  0
LINE
  5
994
330
1F
100
AcDbEntity
  8
DETAIL
 62
     5
 48
0.5
100
AcDbLine
 10
335.0000000000027
 20
407.0685263663153
 30
0.0
 11
335.0000000000027
 21
409.0685263663154
 31
0.0
  0
LINE
  5
995
330
1F
100
AcDbEntity
  8
DETAIL
 62
     5
 48
0.5
100
AcDbLine
 10
324.416738879202
 20
409.0685263663154
 30
0.0
 11
335.0000000000027
 21
409.0685263663154
 31
0.0
  0
LINE
  5
996
330
1F
100
AcDbEntity
  8
DETAIL
 62
     5
 48
0.5
100
AcDbLine
 10
324.416738879202
 20
409.0685263663154
 30
0.0
 11
324.416738879202
 21
407.0685263663135
 31
0.0
  0
LINE
  5
997
330
1F
100
AcDbEntity
  8
DETAIL
 62
     5
 48
0.5
100
AcDbLine
 10
324.416738879202
 20
407.0685263663135
 30
0.0
 11
303.1740997388215
 21
385.8258872251581
 31
0.0
  0
ARC
  5
998
330
1F
100
AcDbEntity
  8
DETAIL
 62
     5
 48
0.5
100
AcDbCircle
 10
368.5000000000709
 20
387.5121771802487
 30
0.0
 40
5.000000000000229
100
AcDbArc
 50
315.0
 51
0.0
  0
LINE
  5
999
330
1F
100
AcDbEntity
  8
DETAIL
  6
CONTINUOUS
100
AcDbLine
 10
-334.9999999999954
 20
2705.000000000001
 30
0.0
 11
335.0000000000036
 21
2704.999999999997
 31
0.0
  0
POLYLINE
  5
99A
330
1F
100
AcDbEntity
  8
DETAIL
  6
CONTINUOUS
100
AcDb2dPolyline
 66
     1
 10
0.0
 20
0.0
 30
0.0
  0
VERTEX
  5
BDC
330
99A
100
AcDbEntity
  8
DETAIL
  6
CONTINUOUS
100
AcDbVertex
100
AcDb2dVertex
 10
-372.4499999999961
 20
2544.990000000004
 30
0.0
  0
VERTEX
  5
BDD
330
99A
100
AcDbEntity
  8
DETAIL
  6
CONTINUOUS
100
AcDbVertex
100
AcDb2dVertex
 10
-372.4499999999961
 20
2543.000000000004
 30
0.0
  0
VERTEX
  5
BDE
330
99A
100
AcDbEntity
  8
DETAIL
  6
CONTINUOUS
100
AcDbVertex
100
AcDb2dVertex
 10
-303.8999999999941
 20
2543.000000000004
 30
0.0
  0
VERTEX
  5
BDF
330
99A
100
AcDbEntity
  8
DETAIL
  6
CONTINUOUS
100
AcDbVertex
100
AcDb2dVertex
 10
-303.8999999999941
 20
2544.990000000004
 30
0.0
  0
VERTEX
  5
BE0
330
99A
100
AcDbEntity
  8
DETAIL
  6
CONTINUOUS
100
AcDbVertex
100
AcDb2dVertex
 10
-372.4499999999961
 20
2544.990000000004
 30
0.0
  0
SEQEND
  5
BE1
330
99A
100
AcDbEntity
  8
DETAIL
  6
CONTINUOUS
  0
LINE
  5
99B
330
1F
100
AcDbEntity
  8
DETAIL
  6
CONTINUOUS
100
AcDbLine
 10
-343.7699999999959
 20
2543.000000000004
 30
0.0
 11
-343.7699999999959
 21
2544.990000000004
 31
0.0
  0
POLYLINE
  5
99C
330
1F
100
AcDbEntity
  8
DETAIL
  6
CONTINUOUS
100
AcDb2dPolyline
 66
     1
 10
0.0
 20
0.0
 30
0.0
  0
VERTEX
  5
BE2
330
99C
100
AcDbEntity
  8
DETAIL
  6
CONTINUOUS
100
AcDbVertex
100
AcDb2dVertex
 10
297.2087128712873
 20
2544.99
 30
0.0
  0
VERTEX
  5
BE3
330
99C
100
AcDbEntity
  8
DETAIL
  6
CONTINUOUS
100
AcDbVertex
100
AcDb2dVertex
 10
297.2087128712873
 20
2543.000000000001
 30
0.0
  0
VERTEX
  5
BE4
330
99C
100
AcDbEntity
  8
DETAIL
  6
CONTINUOUS
100
AcDbVertex
100
AcDb2dVertex
 10
368.018712871285
 20
2543.000000000001
 30
0.0
  0
VERTEX
  5
BE5
330
99C
100
AcDbEntity
  8
DETAIL
  6
CONTINUOUS
100
AcDbVertex
100
AcDb2dVertex
 10
368.018712871285
 20
2544.99
 30
0.0
  0
VERTEX
  5
BE6
330
99C
100
AcDbEntity
  8
DETAIL
  6
CONTINUOUS
100
AcDbVertex
100
AcDb2dVertex
 10
297.2087128712873
 20
2544.99
 30
0.0
  0
SEQEND
  5
BE7
330
99C
100
AcDbEntity
  8
DETAIL
  6
CONTINUOUS
  0
LINE
  5
99D
330
1F
100
AcDbEntity
  8
DETAIL
  6
CONTINUOUS
100
AcDbLine
 10
354.0787128712845
 20
2543.000000000001
 30
0.0
 11
354.0787128712845
 21
2544.99
 31
0.0
  0
LINE
  5
99E
330
1F
100
AcDbEntity
  8
DETAIL
  6
CONTINUOUS
100
AcDbLine
 10
-429.9999999999954
 20
2675.000000000001
 30
0.0
 11
-429.9999999999954
 21
2662.999999999999
 31
0.0
  0
LINE
  5
99F
330
1F
100
AcDbEntity
  8
DETAIL
  6
CONTINUOUS
100
AcDbLine
 10
-429.9999999999954
 20
2662.999999999999
 30
0.0
 11
430.0000000000036
 21
2662.999999999997
 31
0.0
  0
LINE
  5
9A0
330
1F
100
AcDbEntity
  8
DETAIL
  6
CONTINUOUS
100
AcDbLine
 10
430.0000000000036
 20
2662.999999999997
 30
0.0
 11
430.0000000000036
 21
2674.999999999999
 31
0.0
  0
LINE
  5
9A1
330
1F
100
AcDbEntity
  8
DETAIL
100
AcDbLine
 10
-474.9999999999963
 20
2675.000000000001
 30
0.0
 11
-474.9999999999963
 21
2682.000000000001
 31
0.0
  0
LINE
  5
9A2
330
1F
100
AcDbEntity
  8
DETAIL
100
AcDbLine
 10
-474.9999999999963
 20
2682.000000000001
 30
0.0
 11
-419.9999999999945
 21
2690.000000000001
 31
0.0
  0
LINE
  5
9A3
330
1F
100
AcDbEntity
  8
DETAIL
100
AcDbLine
 10
475.0000000000055
 20
2675.000000000001
 30
0.0
 11
475.0000000000055
 21
2682.000000000001
 31
0.0
  0
LINE
  5
9A4
330
1F
100
AcDbEntity
  8
DETAIL
100
AcDbLine
 10
475.0000000000055
 20
2682.000000000001
 30
0.0
 11
420.0000000000036
 21
2690.000000000001
 31
0.0
  0
LINE
  5
9A5
330
1F
100
AcDbEntity
  8
DETAIL
100
AcDbLine
 10
420.0000000000255
 20
2689.999999999997
 30
0.0
 11
-419.9999999999945
 21
2690.000000000001
 31
0.0
  0
LINE
  5
9A6
330
1F
100
AcDbEntity
  8
DETAIL
100
AcDbLine
 10
-344.9999999999936
 20
2690.000000000001
 30
0.0
 11
-344.9999999999936
 21
2705.000000000001
 31
0.0
  0
LINE
  5
9A7
330
1F
100
AcDbEntity
  8
DETAIL
100
AcDbLine
 10
-344.9999999999936
 20
2705.000000000001
 30
0.0
 11
345.0000000000063
 21
2704.999999999997
 31
0.0
  0
LINE
  5
9A8
330
1F
100
AcDbEntity
  8
DETAIL
100
AcDbLine
 10
345.0000000000063
 20
2704.999999999997
 30
0.0
 11
345.0000000000063
 21
2689.999999999997
 31
0.0
  0
LINE
  5
9A9
330
1F
100
AcDbEntity
  8
DETAIL
100
AcDbLine
 10
475.0000000000055
 20
2675.000000000001
 30
0.0
 11
-474.9999999999963
 21
2675.000000000001
 31
0.0
  0
LINE
  5
9AA
330
1F
100
AcDbEntity
  8
DETAIL
  6
CONTINUOUS
100
AcDbLine
 10
420.0000000000036
 20
2662.999999999997
 30
0.0
 11
420.0000000000027
 21
2418.999999999999
 31
0.0
  0
LINE
  5
9AB
330
1F
100
AcDbEntity
  8
DETAIL
  6
CONTINUOUS
100
AcDbLine
 10
420.0000000000027
 20
2418.999999999999
 30
0.0
 11
-419.9999999999972
 21
2419.0
 31
0.0
  0
LINE
  5
9AC
330
1F
100
AcDbEntity
  8
DETAIL
  6
CONTINUOUS
100
AcDbLine
 10
-419.9999999999972
 20
2419.0
 30
0.0
 11
-419.9999999999954
 21
2662.999999999999
 31
0.0
  0
LINE
  5
9AD
330
1F
100
AcDbEntity
  8
DETAIL
100
AcDbLine
 10
-269.2369071229031
 20
2662.999999999999
 30
0.0
 11
-269.236907122905
 21
2419.0
 31
0.0
  0
LINE
  5
9AE
330
1F
100
AcDbEntity
  8
DETAIL
100
AcDbLine
 10
269.2369071229159
 20
2662.999999999997
 30
0.0
 11
269.2369071229141
 21
2418.999999999999
 31
0.0
  0
CIRCLE
  5
9AF
330
1F
100
AcDbEntity
  8
DETAIL
100
AcDbCircle
 10
80.00000000000273
 20
2546.000000000002
 30
0.0
 40
81.0
  0
POLYLINE
  5
9B0
330
1F
100
AcDbEntity
  8
DETAIL
  6
PHANTOM
100
AcDb2dPolyline
 66
     1
 10
0.0
 20
0.0
 30
0.0
 70
     1
  0
VERTEX
  5
BE8
330
9B0
100
AcDbEntity
  8
DETAIL
  6
PHANTOM
100
AcDbVertex
100
AcDb2dVertex
 10
27.50000000000273
 20
2493.000000000001
 30
0.0
  0
VERTEX
  5
BE9
330
9B0
100
AcDbEntity
  8
DETAIL
  6
PHANTOM
100
AcDbVertex
100
AcDb2dVertex
 10
132.5000000000027
 20
2493.000000000001
 30
0.0
  0
VERTEX
  5
BEA
330
9B0
100
AcDbEntity
  8
DETAIL
  6
PHANTOM
100
AcDbVertex
100
AcDb2dVertex
 10
132.5000000000027
 20
2598.000000000001
 30
0.0
  0
VERTEX
  5
BEB
330
9B0
100
AcDbEntity
  8
DETAIL
  6
PHANTOM
100
AcDbVertex
100
AcDb2dVertex
 10
27.50000000000273
 20
2598.000000000001
 30
0.0
  0
SEQEND
  5
BEC
330
9B0
100
AcDbEntity
  8
DETAIL
  6
PHANTOM
  0
CIRCLE
  5
9B1
330
1F
100
AcDbEntity
  8
DETAIL
100
AcDbCircle
 10
-159.9999999999972
 20
2546.000000000002
 30
0.0
 40
81.0
  0
POLYLINE
  5
9B2
330
1F
100
AcDbEntity
  8
DETAIL
  6
PHANTOM
100
AcDb2dPolyline
 66
     1
 10
0.0
 20
0.0
 30
0.0
 70
     1
  0
VERTEX
  5
BED
330
9B2
100
AcDbEntity
  8
DETAIL
  6
PHANTOM
100
AcDbVertex
100
AcDb2dVertex
 10
-212.4999999999972
 20
2493.000000000001
 30
0.0
  0
VERTEX
  5
BEE
330
9B2
100
AcDbEntity
  8
DETAIL
  6
PHANTOM
100
AcDbVertex
100
AcDb2dVertex
 10
-107.4999999999972
 20
2493.000000000001
 30
0.0
  0
VERTEX
  5
BEF
330
9B2
100
AcDbEntity
  8
DETAIL
  6
PHANTOM
100
AcDbVertex
100
AcDb2dVertex
 10
-107.4999999999972
 20
2598.000000000001
 30
0.0
  0
VERTEX
  5
BF0
330
9B2
100
AcDbEntity
  8
DETAIL
  6
PHANTOM
100
AcDbVertex
100
AcDb2dVertex
 10
-212.4999999999972
 20
2598.000000000001
 30
0.0
  0
SEQEND
  5
BF1
330
9B2
100
AcDbEntity
  8
DETAIL
  6
PHANTOM
  0
LINE
  5
9B3
330
1F
100
AcDbEntity
  8
DETAIL
100
AcDbLine
 10
-269.236907122905
 20
2419.0
 30
0.0
 11
-269.2369071229031
 21
2662.999999999999
 31
0.0
  0
LINE
  5
9B4
330
1F
100
AcDbEntity
  8
DETAIL
100
AcDbLine
 10
269.2369071229141
 20
2418.999999999999
 30
0.0
 11
269.2369071229141
 21
2662.999999999997
 31
0.0
  0
LINE
  5
9B5
330
1F
100
AcDbEntity
  8
DETAIL
100
AcDbLine
 10
345.0000000000045
 20
2418.999999999999
 30
0.0
 11
345.0000000000045
 21
2662.999999999997
 31
0.0
  0
LINE
  5
9B6
330
1F
100
AcDbEntity
  8
DETAIL
100
AcDbLine
 10
401.9047955888045
 20
2486.2568413416
 30
0.0
 11
403.4885589788046
 21
2489.000000000001
 31
0.0
  0
LINE
  5
9B7
330
1F
100
AcDbEntity
  8
DETAIL
100
AcDbLine
 10
382.4123194092053
 20
2490.9
 30
0.0
 11
385.0930483108041
 21
2486.2568413416
 31
0.0
  0
LINE
  5
9B8
330
1F
100
AcDbEntity
  8
DETAIL
100
AcDbLine
 10
385.0930478188047
 20
2486.2568430452
 30
0.0
 11
401.9047960808047
 21
2486.2568430452
 31
0.0
  0
ARC
  5
9B9
330
1F
100
AcDbEntity
  8
DETAIL
100
AcDbCircle
 10
403.2400000000034
 20
2563.000000000002
 30
0.0
 40
4.76000000000022
100
AcDbArc
 50
270.0
 51
90.0
  0
LINE
  5
9BA
330
1F
100
AcDbEntity
  8
DETAIL
100
AcDbLine
 10
398.3156854248045
 20
2552.500000000001
 30
0.0
 11
398.3156854248045
 21
2573.500000000001
 31
0.0
  0
LINE
  5
9BB
330
1F
100
AcDbEntity
  8
DETAIL
100
AcDbLine
 10
383.3156854248045
 20
2552.500000000001
 30
0.0
 11
383.3156854248045
 21
2573.500000000001
 31
0.0
  0
LINE
  5
9BC
330
1F
100
AcDbEntity
  8
DETAIL
100
AcDbLine
 10
401.3156854248036
 20
2553.500000000001
 30
0.0
 11
401.3156854248036
 21
2572.500000000001
 31
0.0
  0
LINE
  5
9BD
330
1F
100
AcDbEntity
  8
DETAIL
100
AcDbLine
 10
403.2400000000043
 20
2567.760000000001
 30
0.0
 11
403.2400000000043
 21
2558.24
 31
0.0
  0
LINE
  5
9BE
330
1F
100
AcDbEntity
  8
DETAIL
100
AcDbLine
 10
403.4885589788046
 20
2489.000000000001
 30
0.0
 11
403.4885589788046
 21
2517.000000000001
 31
0.0
  0
LINE
  5
9BF
330
1F
100
AcDbEntity
  8
DETAIL
100
AcDbLine
 10
407.4885589788037
 20
2490.5
 30
0.0
 11
407.4885589788037
 21
2515.500000000001
 31
0.0
  0
LINE
  5
9C0
330
1F
100
AcDbEntity
  8
DETAIL
100
AcDbLine
 10
374.9671370000041
 20
2489.143594244401
 30
0.0
 11
363.1107305392042
 21
2489.143594244401
 31
0.0
  0
LINE
  5
9C1
330
1F
100
AcDbEntity
  8
DETAIL
100
AcDbLine
 10
362.0389337696042
 20
2491.000000000001
 30
0.0
 11
363.1107309464041
 21
2489.143592834401
 31
0.0
  0
LINE
  5
9C2
330
1F
100
AcDbEntity
  8
DETAIL
100
AcDbLine
 10
345.0000000000045
 20
2495.06
 30
0.0
 11
362.0389337696042
 21
2495.06
 31
0.0
  0
ARC
  5
9C3
330
1F
100
AcDbEntity
  8
DETAIL
100
AcDbCircle
 10
398.4000000000032
 20
2503.000000000001
 30
0.0
 40
9.6000000000002
100
AcDbArc
 50
341.2134515572808
 51
18.78654844271915
  0
LINE
  5
9C4
330
1F
100
AcDbEntity
  8
DETAIL
100
AcDbLine
 10
403.4885589788046
 20
2489.000000000001
 30
0.0
 11
407.4885589788037
 21
2490.5
 31
0.0
  0
LINE
  5
9C5
330
1F
100
AcDbEntity
  8
DETAIL
100
AcDbLine
 10
376.0389337696042
 20
2491.885000000001
 30
0.0
 11
382.4123194092053
 21
2491.885000000001
 31
0.0
  0
LINE
  5
9C6
330
1F
100
AcDbEntity
  8
DETAIL
100
AcDbLine
 10
374.9671365928052
 20
2489.143592834401
 30
0.0
 11
376.0389337696042
 21
2491.000000000001
 31
0.0
  0
LINE
  5
9C7
330
1F
100
AcDbEntity
  8
DETAIL
100
AcDbLine
 10
374.9671370000041
 20
2516.8564057556
 30
0.0
 11
363.1107305392042
 21
2516.8564057556
 31
0.0
  0
LINE
  5
9C8
330
1F
100
AcDbEntity
  8
DETAIL
100
AcDbLine
 10
363.1107309464041
 20
2516.856407165601
 30
0.0
 11
362.0389337696042
 21
2515.000000000001
 31
0.0
  0
LINE
  5
9C9
330
1F
100
AcDbEntity
  8
DETAIL
100
AcDbLine
 10
362.0389337696042
 20
2510.940000000001
 30
0.0
 11
345.0000000000045
 21
2510.940000000001
 31
0.0
  0
LINE
  5
9CA
330
1F
100
AcDbEntity
  8
DETAIL
100
AcDbLine
 10
345.0000000000045
 20
2558.24
 30
0.0
 11
372.1843145752036
 21
2558.24
 31
0.0
  0
LINE
  5
9CB
330
1F
100
AcDbEntity
  8
DETAIL
100
AcDbLine
 10
403.4885589788046
 20
2517.000000000001
 30
0.0
 11
401.9047955888045
 21
2519.743158658402
 31
0.0
  0
LINE
  5
9CC
330
1F
100
AcDbEntity
  8
DETAIL
100
AcDbLine
 10
385.0930483108041
 20
2519.743158658402
 30
0.0
 11
382.4123194092053
 21
2515.100000000001
 31
0.0
  0
LINE
  5
9CD
330
1F
100
AcDbEntity
  8
DETAIL
100
AcDbLine
 10
407.4885589788037
 20
2515.500000000001
 30
0.0
 11
403.4885589788046
 21
2517.000000000001
 31
0.0
  0
LINE
  5
9CE
330
1F
100
AcDbEntity
  8
DETAIL
100
AcDbLine
 10
382.4123194092053
 20
2514.115
 30
0.0
 11
376.0389337696042
 21
2514.115
 31
0.0
  0
LINE
  5
9CF
330
1F
100
AcDbEntity
  8
DETAIL
100
AcDbLine
 10
376.0389337696042
 20
2515.000000000001
 30
0.0
 11
374.9671365928052
 21
2516.856407165601
 31
0.0
  0
LINE
  5
9D0
330
1F
100
AcDbEntity
  8
DETAIL
100
AcDbLine
 10
385.0930478188047
 20
2519.743156954799
 30
0.0
 11
401.9047960808047
 21
2519.743156954799
 31
0.0
  0
LINE
  5
9D1
330
1F
100
AcDbEntity
  8
DETAIL
100
AcDbLine
 10
397.0445299180037
 20
2550.298294077601
 30
0.0
 11
398.3156854248045
 21
2552.500000000001
 31
0.0
  0
LINE
  5
9D2
330
1F
100
AcDbEntity
  8
DETAIL
100
AcDbLine
 10
383.3156854248045
 20
2552.500000000001
 30
0.0
 11
384.5868409320037
 21
2550.298294077601
 31
0.0
  0
LINE
  5
9D3
330
1F
100
AcDbEntity
  8
DETAIL
100
AcDbLine
 10
398.3156854248045
 20
2552.500000000001
 30
0.0
 11
401.3156854248036
 21
2553.500000000001
 31
0.0
  0
LINE
  5
9D4
330
1F
100
AcDbEntity
  8
DETAIL
100
AcDbLine
 10
401.3156854248036
 20
2558.24
 30
0.0
 11
403.2400000000043
 21
2558.24
 31
0.0
  0
LINE
  5
9D5
330
1F
100
AcDbEntity
  8
DETAIL
100
AcDbLine
 10
383.1843145752045
 20
2555.06
 30
0.0
 11
383.3156854248045
 21
2555.06
 31
0.0
  0
LINE
  5
9D6
330
1F
100
AcDbEntity
  8
DETAIL
100
AcDbLine
 10
384.5868409320037
 20
2550.298294077601
 30
0.0
 11
397.0445299180037
 21
2550.298294077601
 31
0.0
  0
LINE
  5
9D7
330
1F
100
AcDbEntity
  8
DETAIL
100
AcDbLine
 10
372.1843145752036
 20
2567.760000000001
 30
0.0
 11
345.0000000000045
 21
2567.760000000001
 31
0.0
  0
LINE
  5
9D8
330
1F
100
AcDbEntity
  8
DETAIL
100
AcDbLine
 10
398.3156854248045
 20
2573.500000000001
 30
0.0
 11
397.0445299180037
 21
2575.701705922
 31
0.0
  0
LINE
  5
9D9
330
1F
100
AcDbEntity
  8
DETAIL
100
AcDbLine
 10
384.5868409320037
 20
2575.701705922
 30
0.0
 11
383.3156854248045
 21
2573.500000000001
 31
0.0
  0
LINE
  5
9DA
330
1F
100
AcDbEntity
  8
DETAIL
100
AcDbLine
 10
401.3156854248036
 20
2572.500000000001
 30
0.0
 11
398.3156854248045
 21
2573.500000000001
 31
0.0
  0
LINE
  5
9DB
330
1F
100
AcDbEntity
  8
DETAIL
100
AcDbLine
 10
403.2400000000043
 20
2567.760000000001
 30
0.0
 11
401.3156854248036
 21
2567.760000000001
 31
0.0
  0
LINE
  5
9DC
330
1F
100
AcDbEntity
  8
DETAIL
100
AcDbLine
 10
383.3156854248045
 20
2570.940000000002
 30
0.0
 11
383.1843145752045
 21
2570.940000000002
 31
0.0
  0
LINE
  5
9DD
330
1F
100
AcDbEntity
  8
DETAIL
100
AcDbLine
 10
384.5868409320037
 20
2575.701705922
 30
0.0
 11
397.0445299180037
 21
2575.701705922
 31
0.0
  0
LINE
  5
9DE
330
1F
100
AcDbEntity
  8
DETAIL
100
AcDbLine
 10
382.4123194092053
 20
2490.9
 30
0.0
 11
382.4123194092053
 21
2515.100000000001
 31
0.0
  0
LINE
  5
9DF
330
1F
100
AcDbEntity
  8
DETAIL
100
AcDbLine
 10
376.0389337696042
 20
2491.000000000001
 30
0.0
 11
376.0389337696042
 21
2515.000000000001
 31
0.0
  0
LINE
  5
9E0
330
1F
100
AcDbEntity
  8
DETAIL
100
AcDbLine
 10
362.0389337696042
 20
2491.000000000001
 30
0.0
 11
362.0389337696042
 21
2515.000000000001
 31
0.0
  0
LINE
  5
9E1
330
1F
100
AcDbEntity
  8
DETAIL
100
AcDbLine
 10
382.4251251964042
 20
2553.1850454236
 30
0.0
 11
372.9435039536046
 21
2553.1850454236
 31
0.0
  0
LINE
  5
9E2
330
1F
100
AcDbEntity
  8
DETAIL
100
AcDbLine
 10
372.9435039536046
 20
2553.1850454236
 30
0.0
 11
372.1843145752036
 21
2554.5
 31
0.0
  0
LINE
  5
9E3
330
1F
100
AcDbEntity
  8
DETAIL
100
AcDbLine
 10
372.1843145752036
 20
2554.5
 30
0.0
 11
372.1843145752036
 21
2571.500000000001
 31
0.0
  0
LINE
  5
9E4
330
1F
100
AcDbEntity
  8
DETAIL
100
AcDbLine
 10
372.1843145752036
 20
2571.500000000001
 30
0.0
 11
372.9435039536046
 21
2572.814954575999
 31
0.0
  0
LINE
  5
9E5
330
1F
100
AcDbEntity
  8
DETAIL
100
AcDbLine
 10
372.9435039536046
 20
2572.814954575999
 30
0.0
 11
382.4251251964042
 21
2572.814954575999
 31
0.0
  0
LINE
  5
9E6
330
1F
100
AcDbEntity
  8
DETAIL
100
AcDbLine
 10
382.4251251964042
 20
2572.814954575999
 30
0.0
 11
383.1843145752045
 21
2571.500000000001
 31
0.0
  0
LINE
  5
9E7
330
1F
100
AcDbEntity
  8
DETAIL
100
AcDbLine
 10
383.1843145752045
 20
2571.500000000001
 30
0.0
 11
383.1843145752045
 21
2554.5
 31
0.0
  0
LINE
  5
9E8
330
1F
100
AcDbEntity
  8
DETAIL
100
AcDbLine
 10
383.1843145752045
 20
2554.5
 30
0.0
 11
382.4251251964042
 21
2553.1850454236
 31
0.0
  0
POLYLINE
  5
9E9
330
1F
100
AcDbEntity
  8
DETAIL
  6
CONTINUOUS
100
AcDb2dPolyline
 66
     1
 10
0.0
 20
0.0
 30
0.0
  0
VERTEX
  5
BF2
330
9E9
100
AcDbEntity
  8
DETAIL
  6
CONTINUOUS
100
AcDbVertex
100
AcDb2dVertex
 10
-2461.987319740067
 20
420.0000000000064
 30
0.0
  0
VERTEX
  5
BF3
330
9E9
100
AcDbEntity
  8
DETAIL
  6
CONTINUOUS
100
AcDbVertex
100
AcDb2dVertex
 10
-2217.987319740067
 20
420.0000000000054
 30
0.0
  0
VERTEX
  5
BF4
330
9E9
100
AcDbEntity
  8
DETAIL
  6
CONTINUOUS
100
AcDbVertex
100
AcDb2dVertex
 10
-2217.987319740064
 20
-419.9999999999954
 30
0.0
  0
VERTEX
  5
BF5
330
9E9
100
AcDbEntity
  8
DETAIL
  6
CONTINUOUS
100
AcDbVertex
100
AcDb2dVertex
 10
-2461.987319740067
 20
-419.9999999999945
 30
0.0
  0
SEQEND
  5
BF6
330
9E9
100
AcDbEntity
  8
DETAIL
  6
CONTINUOUS
  0
POLYLINE
  5
9EA
330
1F
100
AcDbEntity
  8
DETAIL
  6
CONTINUOUS
100
AcDb2dPolyline
 66
     1
 10
0.0
 20
0.0
 30
0.0
  0
VERTEX
  5
BF7
330
9EA
100
AcDbEntity
  8
DETAIL
  6
CONTINUOUS
100
AcDbVertex
100
AcDb2dVertex
 10
-2385.987319740065
 20
-423.5899999999946
 30
0.0
  0
VERTEX
  5
BF8
330
9EA
100
AcDbEntity
  8
DETAIL
  6
CONTINUOUS
100
AcDbVertex
100
AcDb2dVertex
 10
-2385.987319740063
 20
-358.3299999999944
 30
0.0
  0
VERTEX
  5
BF9
330
9EA
100
AcDbEntity
  8
DETAIL
  6
CONTINUOUS
100
AcDbVertex
100
AcDb2dVertex
 10
-2387.987319740064
 20
-358.3299999999944
 30
0.0
  0
VERTEX
  5
BFA
330
9EA
100
AcDbEntity
  8
DETAIL
  6
CONTINUOUS
100
AcDbVertex
100
AcDb2dVertex
 10
-2387.987319740065
 20
-423.5899999999946
 30
0.0
  0
VERTEX
  5
BFB
330
9EA
100
AcDbEntity
  8
DETAIL
  6
CONTINUOUS
100
AcDbVertex
100
AcDb2dVertex
 10
-2385.987319740065
 20
-423.5899999999946
 30
0.0
  0
SEQEND
  5
BFC
330
9EA
100
AcDbEntity
  8
DETAIL
  6
CONTINUOUS
  0
CIRCLE
  5
9EB
330
1F
100
AcDbEntity
  8
DETAIL
  6
CONTINUOUS
100
AcDbCircle
 10
-2285.207319740064
 20
-322.9999999999945
 30
0.0
 40
16.0
  0
LINE
  5
9EC
330
1F
100
AcDbEntity
  8
DETAIL
  6
CONTINUOUS
100
AcDbLine
 10
-2385.987319740063
 20
-375.7699999999958
 30
0.0
 11
-2387.987319740064
 21
-375.7699999999958
 31
0.0
  0
CIRCLE
  5
9ED
330
1F
100
AcDbEntity
  8
DETAIL
  6
PHANTOM
100
AcDbCircle
 10
-2344.987319740065
 20
5.000000000005456
 30
0.0
 40
81.0
  0
POLYLINE
  5
9EE
330
1F
100
AcDbEntity
  8
DETAIL
  6
PHANTOM
100
AcDb2dPolyline
 66
     1
 10
0.0
 20
0.0
 30
0.0
  0
VERTEX
  5
BFD
330
9EE
100
AcDbEntity
  8
DETAIL
  6
PHANTOM
100
AcDbVertex
100
AcDb2dVertex
 10
-2291.987319740067
 20
-47.49999999999454
 30
0.0
  0
VERTEX
  5
BFE
330
9EE
100
AcDbEntity
  8
DETAIL
  6
PHANTOM
100
AcDbVertex
100
AcDb2dVertex
 10
-2291.987319740067
 20
57.50000000000546
 30
0.0
  0
VERTEX
  5
BFF
330
9EE
100
AcDbEntity
  8
DETAIL
  6
PHANTOM
100
AcDbVertex
100
AcDb2dVertex
 10
-2396.987319740067
 20
57.50000000000636
 30
0.0
  0
VERTEX
  5
C00
330
9EE
100
AcDbEntity
  8
DETAIL
  6
PHANTOM
100
AcDbVertex
100
AcDb2dVertex
 10
-2396.987319740067
 20
-47.49999999999363
 30
0.0
  0
VERTEX
  5
C01
330
9EE
100
AcDbEntity
  8
DETAIL
  6
PHANTOM
100
AcDbVertex
100
AcDb2dVertex
 10
-2291.987319740067
 20
-47.49999999999454
 30
0.0
  0
SEQEND
  5
C02
330
9EE
100
AcDbEntity
  8
DETAIL
  6
PHANTOM
  0
LINE
  5
9EF
330
1F
100
AcDbEntity
  8
DETAIL
  6
CONTINUOUS
100
AcDbLine
 10
-2385.987319740067
 20
374.9900000000061
 30
0.0
 11
-2387.987319740067
 21
374.9900000000061
 31
0.0
  0
POLYLINE
  5
9F0
330
1F
100
AcDbEntity
  8
DETAIL
  6
CONTINUOUS
100
AcDb2dPolyline
 66
     1
 10
0.0
 20
0.0
 30
0.0
  0
VERTEX
  5
C03
330
9F0
100
AcDbEntity
  8
DETAIL
  6
CONTINUOUS
100
AcDbVertex
100
AcDb2dVertex
 10
-2385.987319740067
 20
362.690000000005
 30
0.0
  0
VERTEX
  5
C04
330
9F0
100
AcDbEntity
  8
DETAIL
  6
CONTINUOUS
100
AcDbVertex
100
AcDb2dVertex
 10
-2385.987319740067
 20
423.2800000000052
 30
0.0
  0
VERTEX
  5
C05
330
9F0
100
AcDbEntity
  8
DETAIL
  6
CONTINUOUS
100
AcDbVertex
100
AcDb2dVertex
 10
-2387.987319740067
 20
423.2800000000052
 30
0.0
  0
VERTEX
  5
C06
330
9F0
100
AcDbEntity
  8
DETAIL
  6
CONTINUOUS
100
AcDbVertex
100
AcDb2dVertex
 10
-2387.987319740067
 20
362.690000000005
 30
0.0
  0
VERTEX
  5
C07
330
9F0
100
AcDbEntity
  8
DETAIL
  6
CONTINUOUS
100
AcDbVertex
100
AcDb2dVertex
 10
-2385.987319740067
 20
362.690000000005
 30
0.0
  0
SEQEND
  5
C08
330
9F0
100
AcDbEntity
  8
DETAIL
  6
CONTINUOUS
  0
LINE
  5
9F1
330
1F
100
AcDbEntity
  8
DETAIL
  6
CONTINUOUS
100
AcDbLine
 10
-2473.987319740067
 20
-429.9999999999945
 30
0.0
 11
-2461.987319740067
 21
-429.9999999999945
 31
0.0
  0
LINE
  5
9F2
330
1F
100
AcDbEntity
  8
DETAIL
  6
CONTINUOUS
100
AcDbLine
 10
-2461.987319740067
 20
-429.9999999999945
 30
0.0
 11
-2461.987319740067
 21
430.0000000000063
 31
0.0
  0
LINE
  5
9F3
330
1F
100
AcDbEntity
  8
DETAIL
  6
CONTINUOUS
100
AcDbLine
 10
-2461.987319740067
 20
430.0000000000063
 30
0.0
 11
-2473.987319740067
 21
430.0000000000063
 31
0.0
  0
LINE
  5
9F4
330
1F
100
AcDbEntity
  8
DETAIL
  6
CONTINUOUS
100
AcDbLine
 10
-2503.987319740065
 20
-344.9999999999927
 30
0.0
 11
-2503.987319740065
 21
335.0000000000045
 31
0.0
  0
LINE
  5
9F5
330
1F
100
AcDbEntity
  8
DETAIL
100
AcDbLine
 10
-2473.987319740066
 20
-474.9999999999954
 30
0.0
 11
-2480.987319740066
 21
-474.9999999999954
 31
0.0
  0
LINE
  5
9F6
330
1F
100
AcDbEntity
  8
DETAIL
100
AcDbLine
 10
-2480.987319740066
 20
-474.9999999999954
 30
0.0
 11
-2488.987319740065
 21
-419.9999999999936
 31
0.0
  0
LINE
  5
9F7
330
1F
100
AcDbEntity
  8
DETAIL
100
AcDbLine
 10
-2473.987319740067
 20
475.0000000000063
 30
0.0
 11
-2480.987319740068
 21
475.0000000000063
 31
0.0
  0
LINE
  5
9F8
330
1F
100
AcDbEntity
  8
DETAIL
100
AcDbLine
 10
-2480.987319740068
 20
475.0000000000063
 30
0.0
 11
-2488.987319740067
 21
420.0000000000045
 31
0.0
  0
LINE
  5
9F9
330
1F
100
AcDbEntity
  8
DETAIL
100
AcDbLine
 10
-2488.987319740064
 20
420.0000000000263
 30
0.0
 11
-2488.987319740065
 21
-419.9999999999936
 31
0.0
  0
LINE
  5
9FA
330
1F
100
AcDbEntity
  8
DETAIL
100
AcDbLine
 10
-2503.987319740065
 20
-344.9999999999927
 30
0.0
 11
-2503.987319740065
 21
345.0000000000073
 31
0.0
  0
LINE
  5
9FB
330
1F
100
AcDbEntity
  8
DETAIL
100
AcDbLine
 10
-2503.987319740065
 20
345.0000000000073
 30
0.0
 11
-2488.987319740065
 21
345.0000000000073
 31
0.0
  0
LINE
  5
9FC
330
1F
100
AcDbEntity
  8
DETAIL
100
AcDbLine
 10
-2473.987319740067
 20
475.0000000000063
 30
0.0
 11
-2473.987319740066
 21
-474.9999999999954
 31
0.0
  0
LINE
  5
9FD
330
1F
100
AcDbEntity
  8
DETAIL
100
AcDbLine
 10
-2503.987319740065
 20
-344.9999999999927
 30
0.0
 11
-2488.987319740065
 21
-344.9999999999927
 31
0.0
  0
POLYLINE
  5
9FE
330
1F
100
AcDbEntity
  8
DETAIL
  6
PHANTOM
100
AcDb2dPolyline
 66
     1
 10
0.0
 20
0.0
 30
0.0
 70
     1
  0
VERTEX
  5
C09
330
9FE
100
AcDbEntity
  8
DETAIL
  6
PHANTOM
100
AcDbVertex
100
AcDb2dVertex
 10
-2252.987319740067
 20
245.0000000000063
 30
0.0
  0
VERTEX
  5
C0A
330
9FE
100
AcDbEntity
  8
DETAIL
  6
PHANTOM
100
AcDbVertex
100
AcDb2dVertex
 10
-2252.987319740067
 20
-234.9999999999936
 30
0.0
  0
VERTEX
  5
C0B
330
9FE
100
AcDbEntity
  8
DETAIL
  6
PHANTOM
100
AcDbVertex
100
AcDb2dVertex
 10
-2372.987319740067
 20
-234.9999999999936
 30
0.0
  0
VERTEX
  5
C0C
330
9FE
100
AcDbEntity
  8
DETAIL
  6
PHANTOM
100
AcDbVertex
100
AcDb2dVertex
 10
-2372.987319740067
 20
245.0000000000063
 30
0.0
  0
SEQEND
  5
C0D
330
9FE
100
AcDbEntity
  8
DETAIL
  6
PHANTOM
  0
POLYLINE
  5
9FF
330
1F
100
AcDbEntity
  8
DETAIL
  6
PHANTOM
100
AcDb2dPolyline
 66
     1
 10
0.0
 20
0.0
 30
0.0
  0
VERTEX
  5
C0E
330
9FF
100
AcDbEntity
  8
DETAIL
  6
PHANTOM
100
AcDbVertex
100
AcDb2dVertex
 10
-223.5000000000072
 20
-2461.227236735093
 30
0.0
  0
VERTEX
  5
C0F
330
9FF
100
AcDbEntity
  8
DETAIL
  6
PHANTOM
100
AcDbVertex
100
AcDb2dVertex
 10
-223.5000000000072
 20
-2341.227236735093
 30
0.0
  0
VERTEX
  5
C10
330
9FF
100
AcDbEntity
  8
DETAIL
  6
PHANTOM
100
AcDbVertex
100
AcDb2dVertex
 10
256.4999999999927
 20
-2341.227236735093
 30
0.0
  0
VERTEX
  5
C11
330
9FF
100
AcDbEntity
  8
DETAIL
  6
PHANTOM
100
AcDbVertex
100
AcDb2dVertex
 10
256.4999999999927
 20
-2461.227236735093
 30
0.0
  0
VERTEX
  5
C12
330
9FF
100
AcDbEntity
  8
DETAIL
  6
PHANTOM
100
AcDbVertex
100
AcDb2dVertex
 10
-223.5000000000072
 20
-2461.227236735093
 30
0.0
  0
SEQEND
  5
C13
330
9FF
100
AcDbEntity
  8
DETAIL
  6
PHANTOM
  0
LINE
  5
A00
330
1F
100
AcDbEntity
  8
DETAIL
  6
CONTINUOUS
100
AcDbLine
 10
-335.0000000000072
 20
-2592.227236735093
 30
0.0
 11
334.9999999999927
 21
-2592.227236735093
 31
0.0
  0
POLYLINE
  5
A01
330
1F
100
AcDbEntity
  8
DETAIL
  6
CONTINUOUS
100
AcDb2dPolyline
 66
     1
 10
0.0
 20
0.0
 30
0.0
  0
VERTEX
  5
C14
330
A01
100
AcDbEntity
  8
DETAIL
  6
CONTINUOUS
100
AcDbVertex
100
AcDb2dVertex
 10
-372.4500000000062
 20
-2432.217236735096
 30
0.0
  0
VERTEX
  5
C15
330
A01
100
AcDbEntity
  8
DETAIL
  6
CONTINUOUS
100
AcDbVertex
100
AcDb2dVertex
 10
-372.4500000000062
 20
-2430.227236735097
 30
0.0
  0
VERTEX
  5
C16
330
A01
100
AcDbEntity
  8
DETAIL
  6
CONTINUOUS
100
AcDbVertex
100
AcDb2dVertex
 10
-303.9000000000051
 20
-2430.227236735097
 30
0.0
  0
VERTEX
  5
C17
330
A01
100
AcDbEntity
  8
DETAIL
  6
CONTINUOUS
100
AcDbVertex
100
AcDb2dVertex
 10
-303.9000000000051
 20
-2432.217236735096
 30
0.0
  0
VERTEX
  5
C18
330
A01
100
AcDbEntity
  8
DETAIL
  6
CONTINUOUS
100
AcDbVertex
100
AcDb2dVertex
 10
-372.4500000000062
 20
-2432.217236735096
 30
0.0
  0
SEQEND
  5
C19
330
A01
100
AcDbEntity
  8
DETAIL
  6
CONTINUOUS
  0
LINE
  5
A02
330
1F
100
AcDbEntity
  8
DETAIL
  6
CONTINUOUS
100
AcDbLine
 10
-343.7700000000059
 20
-2430.227236735097
 30
0.0
 11
-343.7700000000059
 21
-2432.217236735096
 31
0.0
  0
POLYLINE
  5
A03
330
1F
100
AcDbEntity
  8
DETAIL
  6
CONTINUOUS
100
AcDb2dPolyline
 66
     1
 10
0.0
 20
0.0
 30
0.0
  0
VERTEX
  5
C1A
330
A03
100
AcDbEntity
  8
DETAIL
  6
CONTINUOUS
100
AcDbVertex
100
AcDb2dVertex
 10
297.2087128712764
 20
-2432.217236735096
 30
0.0
  0
VERTEX
  5
C1B
330
A03
100
AcDbEntity
  8
DETAIL
  6
CONTINUOUS
100
AcDbVertex
100
AcDb2dVertex
 10
297.2087128712764
 20
-2430.227236735095
 30
0.0
  0
VERTEX
  5
C1C
330
A03
100
AcDbEntity
  8
DETAIL
  6
CONTINUOUS
100
AcDbVertex
100
AcDb2dVertex
 10
368.018712871275
 20
-2430.227236735097
 30
0.0
  0
VERTEX
  5
C1D
330
A03
100
AcDbEntity
  8
DETAIL
  6
CONTINUOUS
100
AcDbVertex
100
AcDb2dVertex
 10
368.018712871275
 20
-2432.217236735096
 30
0.0
  0
VERTEX
  5
C1E
330
A03
100
AcDbEntity
  8
DETAIL
  6
CONTINUOUS
100
AcDbVertex
100
AcDb2dVertex
 10
297.2087128712764
 20
-2432.217236735096
 30
0.0
  0
SEQEND
  5
C1F
330
A03
100
AcDbEntity
  8
DETAIL
  6
CONTINUOUS
  0
LINE
  5
A04
330
1F
100
AcDbEntity
  8
DETAIL
  6
CONTINUOUS
100
AcDbLine
 10
354.0787128712736
 20
-2430.227236735097
 30
0.0
 11
354.0787128712736
 21
-2432.217236735096
 31
0.0
  0
LINE
  5
A05
330
1F
100
AcDbEntity
  8
DETAIL
  6
CONTINUOUS
100
AcDbLine
 10
-430.0000000000072
 20
-2562.227236735093
 30
0.0
 11
-430.0000000000072
 21
-2550.227236735091
 31
0.0
  0
LINE
  5
A06
330
1F
100
AcDbEntity
  8
DETAIL
  6
CONTINUOUS
100
AcDbLine
 10
-430.0000000000072
 20
-2550.227236735091
 30
0.0
 11
429.9999999999926
 21
-2550.227236735093
 31
0.0
  0
LINE
  5
A07
330
1F
100
AcDbEntity
  8
DETAIL
  6
CONTINUOUS
100
AcDbLine
 10
429.9999999999926
 20
-2550.227236735093
 30
0.0
 11
429.9999999999926
 21
-2562.227236735095
 31
0.0
  0
LINE
  5
A08
330
1F
100
AcDbEntity
  8
DETAIL
100
AcDbLine
 10
-475.0000000000072
 20
-2562.227236735093
 30
0.0
 11
-475.0000000000072
 21
-2569.227236735093
 31
0.0
  0
LINE
  5
A09
330
1F
100
AcDbEntity
  8
DETAIL
100
AcDbLine
 10
-475.0000000000072
 20
-2569.227236735093
 30
0.0
 11
-420.0000000000054
 21
-2577.227236735093
 31
0.0
  0
LINE
  5
A0A
330
1F
100
AcDbEntity
  8
DETAIL
100
AcDbLine
 10
474.9999999999945
 20
-2562.227236735097
 30
0.0
 11
474.9999999999945
 21
-2569.227236735097
 31
0.0
  0
LINE
  5
A0B
330
1F
100
AcDbEntity
  8
DETAIL
100
AcDbLine
 10
474.9999999999945
 20
-2569.227236735097
 30
0.0
 11
419.9999999999927
 21
-2577.227236735097
 31
0.0
  0
LINE
  5
A0C
330
1F
100
AcDbEntity
  8
DETAIL
100
AcDbLine
 10
420.0000000000145
 20
-2577.227236735093
 30
0.0
 11
-420.0000000000054
 21
-2577.227236735093
 31
0.0
  0
LINE
  5
A0D
330
1F
100
AcDbEntity
  8
DETAIL
100
AcDbLine
 10
-345.0000000000045
 20
-2577.227236735093
 30
0.0
 11
-345.0000000000045
 21
-2592.227236735093
 31
0.0
  0
LINE
  5
A0E
330
1F
100
AcDbEntity
  8
DETAIL
100
AcDbLine
 10
-345.0000000000045
 20
-2592.227236735093
 30
0.0
 11
344.9999999999954
 21
-2592.227236735093
 31
0.0
  0
LINE
  5
A0F
330
1F
100
AcDbEntity
  8
DETAIL
100
AcDbLine
 10
344.9999999999954
 20
-2592.227236735093
 30
0.0
 11
344.9999999999954
 21
-2577.227236735093
 31
0.0
  0
LINE
  5
A10
330
1F
100
AcDbEntity
  8
DETAIL
100
AcDbLine
 10
474.9999999999945
 20
-2562.227236735097
 30
0.0
 11
-475.0000000000072
 21
-2562.227236735093
 31
0.0
  0
LINE
  5
A11
330
1F
100
AcDbEntity
  8
DETAIL
  6
CONTINUOUS
100
AcDbLine
 10
419.9999999999927
 20
-2550.227236735093
 30
0.0
 11
419.9999999999927
 21
-2306.227236735095
 31
0.0
  0
LINE
  5
A12
330
1F
100
AcDbEntity
  8
DETAIL
  6
CONTINUOUS
100
AcDbLine
 10
419.9999999999927
 20
-2306.227236735095
 30
0.0
 11
-420.0000000000073
 21
-2306.227236735093
 31
0.0
  0
LINE
  5
A13
330
1F
100
AcDbEntity
  8
DETAIL
  6
CONTINUOUS
100
AcDbLine
 10
-420.0000000000073
 20
-2306.227236735093
 30
0.0
 11
-420.0000000000073
 21
-2550.227236735091
 31
0.0
  0
LINE
  5
A14
330
1F
100
AcDbEntity
  8
DETAIL
100
AcDbLine
 10
-269.2369071229149
 20
-2550.227236735093
 30
0.0
 11
-269.2369071229149
 21
-2306.227236735093
 31
0.0
  0
LINE
  5
A15
330
1F
100
AcDbEntity
  8
DETAIL
100
AcDbLine
 10
-252.2369071229149
 20
-2306.227236735093
 30
0.0
 11
-252.2369071229149
 21
-2550.227236735091
 31
0.0
  0
LINE
  5
A16
330
1F
100
AcDbEntity
  8
DETAIL
100
AcDbLine
 10
269.2369071229041
 20
-2550.227236735093
 30
0.0
 11
269.2369071229041
 21
-2306.227236735095
 31
0.0
  0
CIRCLE
  5
A17
330
1F
100
AcDbEntity
  8
DETAIL
100
AcDbCircle
 10
16.49999999999181
 20
-2433.227236735094
 30
0.0
 40
81.0
  0
POLYLINE
  5
A18
330
1F
100
AcDbEntity
  8
DETAIL
  6
PHANTOM
100
AcDb2dPolyline
 66
     1
 10
0.0
 20
0.0
 30
0.0
 70
     1
  0
VERTEX
  5
C20
330
A18
100
AcDbEntity
  8
DETAIL
  6
PHANTOM
100
AcDbVertex
100
AcDb2dVertex
 10
-36.00000000000727
 20
-2380.227236735095
 30
0.0
  0
VERTEX
  5
C21
330
A18
100
AcDbEntity
  8
DETAIL
  6
PHANTOM
100
AcDbVertex
100
AcDb2dVertex
 10
68.99999999999272
 20
-2380.227236735095
 30
0.0
  0
VERTEX
  5
C22
330
A18
100
AcDbEntity
  8
DETAIL
  6
PHANTOM
100
AcDbVertex
100
AcDb2dVertex
 10
68.99999999999272
 20
-2485.227236735095
 30
0.0
  0
VERTEX
  5
C23
330
A18
100
AcDbEntity
  8
DETAIL
  6
PHANTOM
100
AcDbVertex
100
AcDb2dVertex
 10
-36.00000000000727
 20
-2485.227236735095
 30
0.0
  0
SEQEND
  5
C24
330
A18
100
AcDbEntity
  8
DETAIL
  6
PHANTOM
  0
TEXT
  5
A1A
330
1F
100
AcDbEntity
  8
NOTE
100
AcDbText
 10
1380.293470103831
 20
-3447.710625359848
 30
0.0
 40
45.0
  1
RAV-SM804UTP-E
 41
1.04
  7
KAIGAI
100
AcDbText
  0
TEXT
  5
A1B
330
1F
100
AcDbEntity
  8
NOTE
100
AcDbText
 10
809.4720627365923
 20
-316.0594603720665
 30
0.0
 40
45.0
  1
Panel external dimension
 50
90.0
 41
1.04
  7
KAIGAI
100
AcDbText
  0
TEXT
  5
A1C
330
1F
100
AcDbEntity
  8
NOTE
100
AcDbText
 10
721.2776395974388
 20
-200.5069910210613
 30
0.0
 40
40.0
  1
Hanging bolt pitch
 50
90.0
 41
1.04
  7
KAIGAI
100
AcDbText
  0
TEXT
  5
A1D
330
1F
100
AcDbEntity
  8
NOTE
100
AcDbText
 10
-265.0544715949781
 20
-647.1102217521397
 30
0.0
 40
40.0
  1
Panel external dimension
 41
1.04
  7
KAIGAI
100
AcDbText
  0
TEXT
  5
A1E
330
1F
100
AcDbEntity
  8
NOTE
100
AcDbText
 10
-101.6779911585599
 20
-593.9112879241674
 30
0.0
 40
40.0
  1
Hanging bolt pitch
 41
1.04
  7
KAIGAI
100
AcDbText
  0
LINE
  5
A1F
330
1F
100
AcDbEntity
  8
SIZE
100
AcDbLine
 10
26.49999999999272
 20
-2485.227236735095
 30
0.0
 11
200.7506858300548
 21
-2485.227236735095
 31
0.0
  0
LINE
  5
A20
330
1F
100
AcDbEntity
  8
SIZE
100
AcDbLine
 10
9.999999999992724
 20
-2562.227236735093
 30
0.0
 11
200.7506858300548
 21
-2562.227236735093
 31
0.0
  0
LINE
  5
A21
330
1F
100
AcDbEntity
  8
SIZE
100
AcDbLine
 10
190.7506858300548
 20
-2505.227236735095
 30
0.0
 11
190.7506858300548
 21
-2542.227236735093
 31
0.0
  0
LINE
  5
A22
330
1F
100
AcDbEntity
  8
SIZE
100
AcDbLine
 10
190.7506858300548
 20
-2562.227236735093
 30
0.0
 11
190.7506858300548
 21
-2668.893903401761
 31
0.0
  0
MTEXT
  5
A23
330
1F
100
AcDbEntity
  8
SIZE
100
AcDbMText
 10
160.7506858300548
 20
-2625.560570068425
 30
0.0
 40
40.0
 41
0.0
 71
     5
 72
     1
  1
77
  7
KAIGAI
 11
0.0000000000000013
 21
1.0
 31
0.0
1001
ACAD
1000
MTEXTBEGIN
1070
    73
1070
     1
1070
    44
1040
1.0
1070
    74
1070
     0
1000
MTEXTEND
  0
LINE
  5
A24
330
1F
100
AcDbEntity
  8
SIZE
100
AcDbLine
 10
196.1096696300546
 20
-2542.227236735093
 30
0.0
 11
190.7506858300548
 21
-2562.227236735093
 31
0.0
  0
LINE
  5
A25
330
1F
100
AcDbEntity
  8
SIZE
100
AcDbLine
 10
190.7506858300548
 20
-2562.227236735093
 30
0.0
 11
185.391702030055
 21
-2542.227236735093
 31
0.0
  0
LINE
  5
A26
330
1F
100
AcDbEntity
  8
SIZE
100
AcDbLine
 10
190.7506858300548
 20
-2562.227236735093
 30
0.0
 11
190.7506858300548
 21
-2542.227236735093
 31
0.0
  0
LINE
  5
A27
330
1F
100
AcDbEntity
  8
SIZE
100
AcDbLine
 10
185.391702030055
 20
-2505.227236735095
 30
0.0
 11
190.7506858300548
 21
-2485.227236735095
 31
0.0
  0
LINE
  5
A28
330
1F
100
AcDbEntity
  8
SIZE
100
AcDbLine
 10
190.7506858300548
 20
-2485.227236735095
 30
0.0
 11
196.1096696300546
 21
-2505.227236735095
 31
0.0
  0
LINE
  5
A29
330
1F
100
AcDbEntity
  8
SIZE
100
AcDbLine
 10
190.7506858300548
 20
-2485.227236735095
 30
0.0
 11
190.7506858300548
 21
-2505.227236735095
 31
0.0
  0
TEXT
  5
A2A
330
1F
100
AcDbEntity
  8
NOTE
100
AcDbText
 10
268.1971189250198
 20
-2720.29007407632
 30
0.0
 40
40.0
  1
Knockout square hole
 41
1.04
  7
KAIGAI
100
AcDbText
  0
TEXT
  5
A2B
330
1F
100
AcDbEntity
  8
NOTE
100
AcDbText
 10
543.5041786204319
 20
-2180.317576175428
 30
0.0
 40
45.0
  1
Hanging bolt M10 or    3/8
 41
1.04
  7
KAIGAI
100
AcDbText
  0
ELLIPSE
  5
A2C
330
1F
100
AcDbEntity
  8
NOTE
100
AcDbEllipse
 10
1166.356787898693
 20
-2164.084254864753
 30
0.0
 11
32.34923477197117
 21
-0.0000000000001149
 31
0.0
210
0.0
220
0.0
230
1.0
 40
0.6458350059414575
 41
0.0
 42
6.283185307179585
  0
LINE
  5
A2D
330
1F
100
AcDbEntity
  8
NOTE
100
AcDbLine
 10
1142.27155670559
 20
-2209.804842965405
 30
0.0
 11
1187.854571372959
 21
-2123.093913642068
 31
0.0
  0
LINE
  5
A2E
330
1F
100
AcDbEntity
  8
NOTE
100
AcDbLine
 10
360.5775591964511
 20
-2416.586915739989
 30
0.0
 11
344.9999999999954
 21
-2430.227236735097
 31
0.0
  0
LINE
  5
A2F
330
1F
100
AcDbEntity
  8
NOTE
100
AcDbLine
 10
344.9999999999954
 20
-2430.227236735097
 30
0.0
 11
351.6704015844516
 21
-2410.625592669591
 31
0.0
  0
LINE
  5
A30
330
1F
100
AcDbEntity
  8
NOTE
100
AcDbLine
 10
344.9999999999954
 20
-2430.227236735097
 30
0.0
 11
356.1239803904509
 21
-2413.60625420479
 31
0.0
  0
LINE
  5
A31
330
1F
100
AcDbEntity
  8
NOTE
100
AcDbLine
 10
356.1239803904509
 20
-2413.60625420479
 30
0.0
 11
499.9211513744958
 21
-2198.750583577758
 31
0.0
1001
ACAD
1000
DSTYLE
1002
{
1070
   147
1040
10.0
1070
    77
1070
     0
1002
}
  0
LINE
  5
A32
330
1F
100
AcDbEntity
  8
NOTE
100
AcDbLine
 10
499.9211513744958
 20
-2198.750583577758
 30
0.0
 11
1349.020286733351
 21
-2198.75058357776
 31
0.0
1001
ACAD
1000
DSTYLE
1002
{
1070
   147
1040
10.0
1070
    77
1070
     0
1002
}
  0
TEXT
  5
A33
330
1F
100
AcDbEntity
  8
NOTE
100
AcDbText
 10
543.5041786204319
 20
-2250.826274482471
 30
0.0
 40
45.0
  1
(procured locally)
 41
1.04
  7
KAIGAI
100
AcDbText
  0
TEXT
  5
A34
330
1F
100
AcDbEntity
  8
NOTE
100
AcDbText
 10
744.8586648120736
 20
-3722.788739925601
 30
0.0
 40
45.0
  1
Ceiling open dimension
 50
90.0
 41
1.04
  7
KAIGAI
100
AcDbText
  0
LINE
  5
A35
330
1F
100
AcDbEntity
  8
SERVICESPACE
100
AcDbLine
 10
1124.999999999999
 20
224.9999999999945
 30
0.0
 11
674.9999999999991
 21
-225.0000000000036
 31
0.0
  0
LINE
  5
A36
330
1F
100
AcDbEntity
  8
SERVICESPACE
100
AcDbLine
 10
674.9999999999991
 20
224.9999999999963
 30
0.0
 11
1124.999999999999
 21
-225.0000000000054
 31
0.0
  0
POLYLINE
  5
A37
330
1F
100
AcDbEntity
  8
SERVICESPACE
100
AcDb2dPolyline
 66
     1
 10
0.0
 20
0.0
 30
0.0
 70
     1
  0
VERTEX
  5
C25
330
A37
100
AcDbEntity
  8
SERVICESPACE
100
AcDbVertex
100
AcDb2dVertex
 10
674.9999999999991
 20
224.9999999999963
 30
0.0
  0
VERTEX
  5
C26
330
A37
100
AcDbEntity
  8
SERVICESPACE
100
AcDbVertex
100
AcDb2dVertex
 10
1124.999999999999
 20
224.9999999999945
 30
0.0
  0
VERTEX
  5
C27
330
A37
100
AcDbEntity
  8
SERVICESPACE
100
AcDbVertex
100
AcDb2dVertex
 10
1124.999999999999
 20
-225.0000000000054
 30
0.0
  0
VERTEX
  5
C28
330
A37
100
AcDbEntity
  8
SERVICESPACE
100
AcDbVertex
100
AcDb2dVertex
 10
674.9999999999991
 20
-225.0000000000036
 30
0.0
  0
SEQEND
  5
C29
330
A37
100
AcDbEntity
  8
SERVICESPACE
  0
LINE
  5
A38
330
1F
100
AcDbEntity
  8
SERVICESPACE
100
AcDbLine
 10
-224.9999999999981
 20
1124.999999999999
 30
0.0
 11
225.0000000000009
 21
674.9999999999972
 31
0.0
  0
LINE
  5
A39
330
1F
100
AcDbEntity
  8
SERVICESPACE
100
AcDbLine
 10
-224.9999999999981
 20
674.9999999999991
 30
0.0
 11
225.0000000000018
 21
1124.999999999999
 31
0.0
  0
POLYLINE
  5
A3A
330
1F
100
AcDbEntity
  8
SERVICESPACE
100
AcDb2dPolyline
 66
     1
 10
0.0
 20
0.0
 30
0.0
 70
     1
  0
VERTEX
  5
C2A
330
A3A
100
AcDbEntity
  8
SERVICESPACE
100
AcDbVertex
100
AcDb2dVertex
 10
-224.9999999999981
 20
674.9999999999991
 30
0.0
  0
VERTEX
  5
C2B
330
A3A
100
AcDbEntity
  8
SERVICESPACE
100
AcDbVertex
100
AcDb2dVertex
 10
-224.9999999999981
 20
1124.999999999999
 30
0.0
  0
VERTEX
  5
C2C
330
A3A
100
AcDbEntity
  8
SERVICESPACE
100
AcDbVertex
100
AcDb2dVertex
 10
225.0000000000018
 20
1124.999999999999
 30
0.0
  0
VERTEX
  5
C2D
330
A3A
100
AcDbEntity
  8
SERVICESPACE
100
AcDbVertex
100
AcDb2dVertex
 10
225.0000000000009
 20
674.9999999999972
 30
0.0
  0
SEQEND
  5
C2E
330
A3A
100
AcDbEntity
  8
SERVICESPACE
  0
TEXT
  5
A3B
330
1F
100
AcDbEntity
  8
NOTE
100
AcDbText
 10
261.1803644423344
 20
1169.023334422117
 30
0.0
 40
45.0
  1
Check port B
  7
KAIGAI
100
AcDbText
  0
LINE
  5
A3C
330
1F
100
AcDbEntity
  8
SIZE
100
AcDbLine
 10
475.0000000000027
 20
469.9999999999991
 30
0.0
 11
475.0000000000027
 21
558.8626441259739
 31
0.0
  0
LINE
  5
A3D
330
1F
100
AcDbEntity
  8
SIZE
100
AcDbLine
 10
675.0000000000008
 20
400.0000000000163
 30
0.0
 11
675.0000000000008
 21
558.8626441259739
 31
0.0
  0
LINE
  5
A3E
330
1F
100
AcDbEntity
  8
SIZE
100
AcDbLine
 10
495.0000000000027
 20
548.8626441259738
 30
0.0
 11
655.0000000000009
 21
548.8626441259738
 31
0.0
  0
MTEXT
  5
A3F
330
1F
100
AcDbEntity
  8
SIZE
100
AcDbMText
 10
575.0000000000008
 20
578.8626441259739
 30
0.0
 40
40.0
 41
0.0
 71
     5
 72
     1
  1
200
  7
KAIGAI
1001
ACAD
1000
MTEXTBEGIN
1070
    73
1070
     1
1070
    44
1040
1.0
1070
    74
1070
     0
1000
MTEXTEND
  0
LINE
  5
A40
330
1F
100
AcDbEntity
  8
SIZE
100
AcDbLine
 10
655.0000000000009
 20
554.2216279259746
 30
0.0
 11
675.0000000000008
 21
548.8626441259738
 31
0.0
  0
LINE
  5
A41
330
1F
100
AcDbEntity
  8
SIZE
100
AcDbLine
 10
675.0000000000008
 20
548.8626441259738
 30
0.0
 11
655.0000000000009
 21
543.5036603259741
 31
0.0
  0
LINE
  5
A42
330
1F
100
AcDbEntity
  8
SIZE
100
AcDbLine
 10
675.0000000000008
 20
548.8626441259738
 30
0.0
 11
655.0000000000009
 21
548.8626441259738
 31
0.0
  0
LINE
  5
A43
330
1F
100
AcDbEntity
  8
SIZE
100
AcDbLine
 10
495.0000000000027
 20
543.5036603259741
 30
0.0
 11
475.0000000000027
 21
548.8626441259738
 31
0.0
  0
LINE
  5
A44
330
1F
100
AcDbEntity
  8
SIZE
100
AcDbLine
 10
475.0000000000027
 20
548.8626441259738
 30
0.0
 11
495.0000000000027
 21
554.2216279259746
 31
0.0
  0
LINE
  5
A45
330
1F
100
AcDbEntity
  8
SIZE
100
AcDbLine
 10
475.0000000000027
 20
548.8626441259738
 30
0.0
 11
495.0000000000027
 21
548.8626441259738
 31
0.0
  0
TEXT
  5
A46
330
1F
100
AcDbEntity
  8
NOTE
100
AcDbText
 10
261.1803644423344
 20
1111.582594681493
 30
0.0
 40
45.0
  1
(□450）
  7
KAIGAI
100
AcDbText
  0
TEXT
  5
A47
330
1F
100
AcDbEntity
  8
NOTE
100
AcDbText
 10
1214.822849873899
 20
-106.4648831204058
 30
0.0
 40
45.0
  1
Check port A
 50
90.0
  7
KAIGAI
100
AcDbText
  0
TEXT
  5
A48
330
1F
100
AcDbEntity
  8
NOTE
100
AcDbText
 10
1272.263589614524
 20
-106.4648831204058
 30
0.0
 40
45.0
  1
(□450）
 50
90.0
  7
KAIGAI
100
AcDbText
  0
LINE
  5
A49
330
1F
100
AcDbEntity
  8
OUTLINE
100
AcDbLine
 10
3751.600118347885
 20
-325.0000000000027
 30
0.0
 11
3751.600118347885
 21
364.9999999999972
 31
0.0
  0
LINE
  5
A4A
330
1F
100
AcDbEntity
  8
OUTLINE
100
AcDbLine
 10
3721.600118347884
 20
-455.0000000000063
 30
0.0
 11
3728.600118347884
 21
-455.0000000000063
 31
0.0
  0
LINE
  5
A4B
330
1F
100
AcDbEntity
  8
OUTLINE
100
AcDbLine
 10
3728.600118347884
 20
-455.0000000000063
 30
0.0
 11
3736.600118347885
 21
-400.0000000000027
 31
0.0
  0
LINE
  5
A4C
330
1F
100
AcDbEntity
  8
OUTLINE
100
AcDbLine
 10
3721.600118347888
 20
494.9999999999972
 30
0.0
 11
3728.600118347888
 21
494.9999999999972
 31
0.0
  0
LINE
  5
A4D
330
1F
100
AcDbEntity
  8
OUTLINE
100
AcDbLine
 10
3728.600118347888
 20
494.9999999999972
 30
0.0
 11
3736.600118347888
 21
439.9999999999936
 31
0.0
  0
LINE
  5
A4E
330
1F
100
AcDbEntity
  8
OUTLINE
100
AcDbLine
 10
3736.600118347885
 20
440.0000000000154
 30
0.0
 11
3736.600118347885
 21
-400.0000000000027
 31
0.0
  0
LINE
  5
A4F
330
1F
100
AcDbEntity
  8
OUTLINE
100
AcDbLine
 10
3751.600118347885
 20
-325.0000000000027
 30
0.0
 11
3751.600118347885
 21
364.9999999999972
 31
0.0
  0
LINE
  5
A50
330
1F
100
AcDbEntity
  8
OUTLINE
100
AcDbLine
 10
3751.600118347885
 20
364.9999999999972
 30
0.0
 11
3736.600118347885
 21
364.9999999999972
 31
0.0
  0
LINE
  5
A51
330
1F
100
AcDbEntity
  8
OUTLINE
100
AcDbLine
 10
3721.600118347888
 20
494.9999999999972
 30
0.0
 11
3721.600118347884
 21
-455.0000000000063
 31
0.0
  0
LINE
  5
A52
330
1F
100
AcDbEntity
  8
OUTLINE
100
AcDbLine
 10
3751.600118347885
 20
-325.0000000000027
 30
0.0
 11
3736.600118347885
 21
-325.0000000000027
 31
0.0
  0
LINE
  5
A53
330
1F
100
AcDbEntity
  8
OUTLINE
100
AcDbLine
 10
3465.600118347881
 20
-400.0000000000045
 30
0.0
 11
3465.600118347885
 21
439.9999999999972
 31
0.0
  0
LINE
  5
A54
330
1F
100
AcDbEntity
  8
OUTLINE
100
AcDbLine
 10
3465.600118347885
 20
439.9999999999972
 30
0.0
 11
3709.600118347887
 21
439.9999999999972
 31
0.0
  0
LINE
  5
A55
330
1F
100
AcDbEntity
  8
OUTLINE
100
AcDbLine
 10
3709.600118347887
 20
439.9999999999972
 30
0.0
 11
3709.600118347887
 21
449.9999999999972
 31
0.0
  0
LINE
  5
A56
330
1F
100
AcDbEntity
  8
OUTLINE
100
AcDbLine
 10
3709.600118347887
 20
449.9999999999972
 30
0.0
 11
3721.600118347886
 21
449.9999999999972
 31
0.0
  0
LINE
  5
A57
330
1F
100
AcDbEntity
  8
OUTLINE
100
AcDbLine
 10
3721.600118347884
 20
-410.0000000000045
 30
0.0
 11
3709.600118347884
 21
-410.0000000000045
 31
0.0
  0
LINE
  5
A58
330
1F
100
AcDbEntity
  8
OUTLINE
100
AcDbLine
 10
3709.600118347884
 20
-410.0000000000045
 30
0.0
 11
3709.600118347884
 21
-400.0000000000045
 31
0.0
  0
LINE
  5
A59
330
1F
100
AcDbEntity
  8
OUTLINE
100
AcDbLine
 10
3709.600118347884
 20
-400.0000000000045
 30
0.0
 11
3465.600118347881
 21
-400.0000000000045
 31
0.0
  0
LINE
  5
A5A
330
1F
100
AcDbEntity
  8
BASIS
100
AcDbLine
 10
3592.600118347884
 20
122.4199999999955
 30
0.0
 11
3592.600118347884
 21
-52.50000000000454
 31
0.0
  0
TEXT
  5
A5B
330
1F
100
AcDbEntity
  8
SIZE
100
AcDbText
 10
3894.140118347884
 20
53.45898254377789
 30
0.0
 40
40.0
  1
30
 50
90.0
  7
KAIGAI
100
AcDbText
  0
LINE
  5
A5C
330
1F
100
AcDbEntity
  8
SIZE
100
AcDbLine
 10
3897.550118347885
 20
19.99999999999545
 30
0.0
 11
3897.550118347885
 21
128.0299999999961
 31
0.0
  0
CIRCLE
  5
A5D
330
1F
100
AcDbEntity
  8
FIX
100
AcDbCircle
 10
3635.60011834788
 20
-375.0000000000022
 30
0.0
 40
20.0
  0
LINE
  5
A5E
330
1F
100
AcDbEntity
  8
SIZE
100
AcDbLine
 10
3592.600118347884
 20
-52.50000000000454
 30
0.0
 11
3592.600118347881
 21
-558.6000000000049
 31
0.0
  0
LINE
  5
A5F
330
1F
100
AcDbEntity
  8
SIZE
100
AcDbLine
 10
3721.600118347884
 20
-538.6000000000048
 30
0.0
 11
3592.600118347881
 21
-538.6000000000048
 31
0.0
  0
TEXT
  5
A60
330
1F
100
AcDbEntity
  8
SIZE
100
AcDbText
 10
3705.758434210461
 20
-540.6000000000053
 30
0.0
 40
40.0
  1
129
 50
180.0
  7
KAIGAI
100
AcDbText
  0
LINE
  5
A61
330
1F
100
AcDbEntity
  8
SIZE
100
AcDbLine
 10
3592.600118347881
 20
-538.6000000000048
 30
0.0
 11
3612.600118347881
 21
-535.0700000000061
 31
0.0
  0
LINE
  5
A62
330
1F
100
AcDbEntity
  8
SIZE
100
AcDbLine
 10
3612.600118347881
 20
-542.1200000000053
 30
0.0
 11
3592.600118347881
 21
-538.6000000000048
 31
0.0
  0
LINE
  5
A63
330
1F
100
AcDbEntity
  8
BASIS
100
AcDbLine
 10
3602.820118347882
 20
-375.0000000000045
 30
0.0
 11
3663.180118347879
 21
-375.0000000000045
 31
0.0
  0
LINE
  5
A64
330
1F
100
AcDbEntity
  8
SIZE
100
AcDbLine
 10
3721.600118347884
 20
-558.6000000000049
 30
0.0
 11
3721.600118347884
 21
-475.0000000000063
 31
0.0
  0
LINE
  5
A65
330
1F
100
AcDbEntity
  8
SIZE
100
AcDbLine
 10
3721.600118347884
 20
-538.6000000000048
 30
0.0
 11
3701.600118347885
 21
-542.1200000000053
 31
0.0
  0
LINE
  5
A66
330
1F
100
AcDbEntity
  8
SIZE
100
AcDbLine
 10
3701.600118347885
 20
-535.0700000000061
 30
0.0
 11
3721.600118347884
 21
-538.6000000000048
 31
0.0
  0
LINE
  5
A67
330
1F
100
AcDbEntity
  8
SIZE
100
AcDbLine
 10
3686.600118347885
 20
-10.00000000000454
 30
0.0
 11
3917.550118347886
 21
-10.00000000000454
 31
0.0
  0
LINE
  5
A68
330
1F
100
AcDbEntity
  8
BASIS
100
AcDbLine
 10
3751.600118347885
 20
19.99999999999545
 30
0.0
 11
3465.600118347885
 21
19.99999999999545
 31
0.0
  0
LINE
  5
A69
330
1F
100
AcDbEntity
  8
BASIS
100
AcDbLine
 10
3508.340118347883
 20
-303.0000000000045
 30
0.0
 11
3560.320118347882
 21
-303.0000000000045
 31
0.0
  0
LINE
  5
A6A
330
1F
100
AcDbEntity
  8
BASIS
100
AcDbLine
 10
3532.600118347885
 20
-272.6200000000053
 30
0.0
 11
3532.600118347885
 21
-335.310000000004
 31
0.0
  0
LINE
  5
A6B
330
1F
100
AcDbEntity
  8
BASIS
100
AcDbLine
 10
3500.190118347885
 20
-10.00000000000454
 30
0.0
 11
3681.210118347885
 21
-10.00000000000454
 31
0.0
  0
LINE
  5
A6C
330
1F
100
AcDbEntity
  8
SIZE
100
AcDbLine
 10
3917.550118347886
 20
19.99999999999545
 30
0.0
 11
3776.600118347885
 21
19.99999999999545
 31
0.0
  0
POINT
  5
A6D
330
1F
100
AcDbEntity
  8
ARRANGE
100
AcDbPoint
 10
3721.600118347884
 20
19.99999999999545
 30
0.0
  0
CIRCLE
  5
A6E
330
1F
100
AcDbEntity
  8
ARRANGE
100
AcDbCircle
 10
3721.600118347883
 20
19.99999999999818
 30
0.0
 40
20.0
  0
LINE
  5
A6F
330
1F
100
AcDbEntity
  8
SIZE
100
AcDbLine
 10
3897.550118347885
 20
-10.00000000000454
 30
0.0
 11
3901.070118347884
 21
-30.00000000000454
 31
0.0
  0
LINE
  5
A70
330
1F
100
AcDbEntity
  8
SIZE
100
AcDbLine
 10
3894.020118347887
 20
-30.00000000000454
 30
0.0
 11
3897.550118347885
 21
-10.00000000000454
 31
0.0
  0
LINE
  5
A71
330
1F
100
AcDbEntity
  8
SIZE
100
AcDbLine
 10
3897.550118347885
 20
46.99999999999545
 30
0.0
 11
3897.550118347881
 21
-37.00000000000454
 31
0.0
  0
LINE
  5
A72
330
1F
100
AcDbEntity
  8
SIZE
100
AcDbLine
 10
3897.550118347885
 20
19.99999999999545
 30
0.0
 11
3894.020118347887
 21
39.99999999999545
 31
0.0
  0
LINE
  5
A73
330
1F
100
AcDbEntity
  8
SIZE
100
AcDbLine
 10
3901.070118347885
 20
39.99999999999545
 30
0.0
 11
3897.550118347885
 21
19.99999999999545
 31
0.0
  0
LINE
  5
A74
330
1F
100
AcDbEntity
  8
NOTE
100
AcDbLine
 10
3859.270118347886
 20
970.3199999999979
 30
0.0
 11
3859.270118347886
 21
365.9699999999947
 31
0.0
  0
LINE
  5
A75
330
1F
100
AcDbEntity
  8
NOTE
100
AcDbLine
 10
3677.600118347887
 20
282.9999999999954
 30
0.0
 11
3708.440118347887
 21
308.469999999993
 31
0.0
  0
LINE
  5
A76
330
1F
100
AcDbEntity
  8
BASIS
100
AcDbLine
 10
3654.480118347886
 20
282.9999999999954
 30
0.0
 11
3697.990118347886
 21
282.9999999999954
 31
0.0
  0
LINE
  5
A77
330
1F
100
AcDbEntity
  8
NOTE
100
AcDbLine
 10
3859.270118347886
 20
365.9699999999947
 30
0.0
 11
3677.600118347887
 21
282.9999999999954
 31
0.0
  0
LINE
  5
A78
330
1F
100
AcDbEntity
  8
BASIS
100
AcDbLine
 10
3549.600118347884
 20
352.9199999999955
 30
0.0
 11
3549.600118347884
 21
314.6199999999944
 31
0.0
  0
LINE
  5
A79
330
1F
100
AcDbEntity
  8
BASIS
100
AcDbLine
 10
3522.090118347886
 20
333.4999999999954
 30
0.0
 11
3574.520118347887
 21
333.4999999999954
 31
0.0
  0
LINE
  5
A7A
330
1F
100
AcDbEntity
  8
BASIS
100
AcDbLine
 10
3582.870118347885
 20
261.4999999999954
 30
0.0
 11
3632.240118347884
 21
261.4999999999954
 31
0.0
  0
LINE
  5
A7B
330
1F
100
AcDbEntity
  8
BASIS
100
AcDbLine
 10
3609.600118347884
 20
273.7099999999945
 30
0.0
 11
3609.600118347884
 21
247.9199999999955
 31
0.0
  0
LINE
  5
A7C
330
1F
100
AcDbEntity
  8
BASIS
100
AcDbLine
 10
3677.600118347887
 20
314.1999999999943
 30
0.0
 11
3677.600118347887
 21
250.9199999999955
 31
0.0
  0
LINE
  5
A7D
330
1F
100
AcDbEntity
  8
BASIS
100
AcDbLine
 10
3602.820118347886
 20
414.9999999999972
 30
0.0
 11
3663.180118347886
 21
414.9999999999972
 31
0.0
  0
CIRCLE
  5
A7E
330
1F
100
AcDbEntity
  8
FIX
100
AcDbCircle
 10
3636.590118347882
 20
415.0000000000018
 30
0.0
 40
20.0
  0
CIRCLE
  5
A7F
330
1F
100
AcDbEntity
  8
ARRANGE
100
AcDbCircle
 10
3721.600118347883
 20
19.99999999999636
 30
0.0
 40
20.0
  0
POINT
  5
A80
330
1F
100
AcDbEntity
  8
ARRANGE
100
AcDbPoint
 10
3721.600118347884
 20
19.99999999999545
 30
0.0
  0
LINE
  5
A81
330
1F
100
AcDbEntity
  8
SIZE
100
AcDbLine
 10
3465.600118347885
 20
19.99999999999545
 30
0.0
 11
3539.600118347885
 21
19.99999999999545
 31
0.0
  0
LINE
  5
A82
330
1F
100
AcDbEntity
  8
SIZE
100
AcDbLine
 10
3535.100118347885
 20
42.49999999999545
 30
0.0
 11
3411.610118347883
 21
42.49999999999545
 31
0.0
  0
LINE
  5
A83
330
1F
100
AcDbEntity
  8
SIZE
100
AcDbLine
 10
3460.600118347884
 20
439.9999999999972
 30
0.0
 11
3411.610118347883
 21
439.9999999999972
 31
0.0
  0
LINE
  5
A84
330
1F
100
AcDbEntity
  8
SIZE
100
AcDbLine
 10
3421.610118347883
 20
57.49999999999545
 30
0.0
 11
3421.610118347883
 21
424.9999999999972
 31
0.0
  0
LINE
  5
A85
330
1F
100
AcDbEntity
  8
SIZE
100
AcDbLine
 10
3517.090118347886
 20
333.4999999999954
 30
0.0
 11
3312.044791884423
 21
333.4999999999954
 31
0.0
  0
LINE
  5
A86
330
1F
100
AcDbEntity
  8
SIZE
100
AcDbLine
 10
3460.600118347884
 20
439.9999999999972
 30
0.0
 11
3312.044791884423
 21
439.9999999999972
 31
0.0
  0
LINE
  5
A87
330
1F
100
AcDbEntity
  8
SIZE
100
AcDbLine
 10
3322.044791884422
 20
348.4999999999954
 30
0.0
 11
3322.044791884422
 21
624.9999999999972
 31
0.0
  0
LINE
  5
A88
330
1F
100
AcDbEntity
  8
SIZE
100
AcDbLine
 10
3649.480118347885
 20
282.9999999999954
 30
0.0
 11
3360.669940514487
 21
282.9999999999954
 31
0.0
  0
LINE
  5
A89
330
1F
100
AcDbEntity
  8
SIZE
100
AcDbLine
 10
3460.600118347884
 20
439.9999999999972
 30
0.0
 11
3360.669940514487
 21
439.9999999999972
 31
0.0
  0
LINE
  5
A8A
330
1F
100
AcDbEntity
  8
SIZE
100
AcDbLine
 10
3370.669940514487
 20
297.9999999999954
 30
0.0
 11
3370.669940514487
 21
424.9999999999972
 31
0.0
  0
LINE
  5
A8B
330
1F
100
AcDbEntity
  8
SIZE
100
AcDbLine
 10
3534.600118347885
 20
42.49999999999545
 30
0.0
 11
3411.110118347883
 21
42.49999999999545
 31
0.0
  0
LINE
  5
A8C
330
1F
100
AcDbEntity
  8
SIZE
100
AcDbLine
 10
3534.600118347885
 20
-62.50000000000454
 30
0.0
 11
3411.110118347883
 21
-62.50000000000454
 31
0.0
  0
LINE
  5
A8D
330
1F
100
AcDbEntity
  8
SIZE
100
AcDbLine
 10
3421.110118347883
 20
27.49999999999545
 30
0.0
 11
3421.110118347883
 21
-47.50000000000454
 31
0.0
  0
LINE
  5
A8E
330
1F
100
AcDbEntity
  8
SIZE
100
AcDbLine
 10
3721.600118347888
 20
499.9999999999972
 30
0.0
 11
3721.600118347888
 21
780.9960303636735
 31
0.0
  0
LINE
  5
A8F
330
1F
100
AcDbEntity
  8
SIZE
100
AcDbLine
 10
3549.600118347884
 20
357.9199999999955
 30
0.0
 11
3549.600118347884
 21
780.9960303636735
 31
0.0
  0
LINE
  5
A90
330
1F
100
AcDbEntity
  8
SIZE
100
AcDbLine
 10
3706.600118347888
 20
770.9960303636735
 30
0.0
 11
3564.600118347885
 21
770.9960303636735
 31
0.0
  0
LINE
  5
A91
330
1F
100
AcDbEntity
  8
SIZE
100
AcDbLine
 10
3721.600118347888
 20
499.9999999999972
 30
0.0
 11
3721.600118347888
 21
723.5285459434789
 31
0.0
  0
LINE
  5
A92
330
1F
100
AcDbEntity
  8
SIZE
100
AcDbLine
 10
3609.600118347884
 20
278.7099999999945
 30
0.0
 11
3609.600118347884
 21
723.5285459434789
 31
0.0
  0
LINE
  5
A93
330
1F
100
AcDbEntity
  8
SIZE
100
AcDbLine
 10
3706.600118347888
 20
713.528545943479
 30
0.0
 11
3624.600118347884
 21
713.528545943479
 31
0.0
  0
LINE
  5
A94
330
1F
100
AcDbEntity
  8
SIZE
100
AcDbLine
 10
3677.600118347887
 20
319.1999999999943
 30
0.0
 11
3677.600118347887
 21
655.9199999999991
 31
0.0
  0
LINE
  5
A95
330
1F
100
AcDbEntity
  8
SIZE
100
AcDbLine
 10
3721.600118347888
 20
499.9999999999972
 30
0.0
 11
3721.600118347888
 21
655.9199999999991
 31
0.0
  0
LINE
  5
A96
330
1F
100
AcDbEntity
  8
SIZE
100
AcDbLine
 10
3692.600118347886
 20
645.9199999999992
 30
0.0
 11
3706.600118347888
 21
645.9199999999992
 31
0.0
  0
LINE
  5
A97
330
1F
100
AcDbEntity
  8
SIZE
100
AcDbLine
 10
3721.600118347888
 20
645.9199999999992
 30
0.0
 11
3796.600118347889
 21
645.9199999999992
 31
0.0
  0
TEXT
  5
A98
330
1F
100
AcDbEntity
  8
SIZE
100
AcDbText
 10
3416.110118347881
 20
-54.09231545976263
 30
0.0
 40
40.0
  1
105
 50
90.0
  7
KAIGAI
100
AcDbText
  0
LINE
  5
A99
330
1F
100
AcDbEntity
  8
SIZE
100
AcDbLine
 10
3425.129356197882
 20
-47.50000000000454
 30
0.0
 11
3421.110118347883
 21
-62.50000000000454
 31
0.0
  0
LINE
  5
A9A
330
1F
100
AcDbEntity
  8
SIZE
100
AcDbLine
 10
3421.110118347883
 20
-62.50000000000454
 30
0.0
 11
3417.090880497883
 21
-47.50000000000454
 31
0.0
  0
LINE
  5
A9B
330
1F
100
AcDbEntity
  8
SIZE
100
AcDbLine
 10
3421.110118347883
 20
-62.50000000000454
 30
0.0
 11
3421.110118347883
 21
-47.50000000000454
 31
0.0
  0
LINE
  5
A9C
330
1F
100
AcDbEntity
  8
SIZE
100
AcDbLine
 10
3417.090880497883
 20
27.49999999999545
 30
0.0
 11
3421.110118347883
 21
42.49999999999545
 31
0.0
  0
LINE
  5
A9D
330
1F
100
AcDbEntity
  8
SIZE
100
AcDbLine
 10
3421.110118347883
 20
42.49999999999545
 30
0.0
 11
3425.129356197882
 21
27.49999999999545
 31
0.0
  0
LINE
  5
A9E
330
1F
100
AcDbEntity
  8
SIZE
100
AcDbLine
 10
3421.110118347883
 20
42.49999999999545
 30
0.0
 11
3421.110118347883
 21
27.49999999999545
 31
0.0
  0
TEXT
  5
A9F
330
1F
100
AcDbEntity
  8
SIZE
100
AcDbText
 10
3364.18780594339
 20
333.4999999999963
 30
0.0
 40
40.0
  1
157
 50
90.0
  7
KAIGAI
100
AcDbText
  0
LINE
  5
AA0
330
1F
100
AcDbEntity
  8
SIZE
100
AcDbLine
 10
3366.650702664488
 20
424.9999999999972
 30
0.0
 11
3370.669940514487
 21
439.9999999999972
 31
0.0
  0
LINE
  5
AA1
330
1F
100
AcDbEntity
  8
SIZE
100
AcDbLine
 10
3370.669940514487
 20
439.9999999999972
 30
0.0
 11
3374.689178364487
 21
424.9999999999972
 31
0.0
  0
LINE
  5
AA2
330
1F
100
AcDbEntity
  8
SIZE
100
AcDbLine
 10
3370.669940514487
 20
439.9999999999972
 30
0.0
 11
3370.669940514487
 21
424.9999999999972
 31
0.0
  0
LINE
  5
AA3
330
1F
100
AcDbEntity
  8
SIZE
100
AcDbLine
 10
3374.689178364487
 20
297.9999999999954
 30
0.0
 11
3370.669940514487
 21
282.9999999999954
 31
0.0
  0
LINE
  5
AA4
330
1F
100
AcDbEntity
  8
SIZE
100
AcDbLine
 10
3370.669940514487
 20
282.9999999999954
 30
0.0
 11
3366.650702664488
 21
297.9999999999954
 31
0.0
  0
LINE
  5
AA5
330
1F
100
AcDbEntity
  8
SIZE
100
AcDbLine
 10
3370.669940514487
 20
282.9999999999954
 30
0.0
 11
3370.669940514487
 21
297.9999999999954
 31
0.0
  0
TEXT
  5
AA6
330
1F
100
AcDbEntity
  8
SIZE
100
AcDbText
 10
3316.044791884421
 20
455.7579553370524
 30
0.0
 40
40.0
  1
106.5
 50
90.0
  7
KAIGAI
100
AcDbText
  0
LINE
  5
AA7
330
1F
100
AcDbEntity
  8
SIZE
100
AcDbLine
 10
3318.025554034423
 20
424.9999999999972
 30
0.0
 11
3322.044791884422
 21
439.9999999999972
 31
0.0
  0
LINE
  5
AA8
330
1F
100
AcDbEntity
  8
SIZE
100
AcDbLine
 10
3322.044791884422
 20
439.9999999999972
 30
0.0
 11
3326.064029734422
 21
424.9999999999972
 31
0.0
  0
LINE
  5
AA9
330
1F
100
AcDbEntity
  8
SIZE
100
AcDbLine
 10
3322.044791884422
 20
439.9999999999972
 30
0.0
 11
3322.044791884422
 21
424.9999999999972
 31
0.0
  0
LINE
  5
AAA
330
1F
100
AcDbEntity
  8
SIZE
100
AcDbLine
 10
3326.064029734422
 20
348.4999999999954
 30
0.0
 11
3322.044791884422
 21
333.4999999999954
 31
0.0
  0
LINE
  5
AAB
330
1F
100
AcDbEntity
  8
SIZE
100
AcDbLine
 10
3322.044791884422
 20
333.4999999999954
 30
0.0
 11
3318.025554034423
 21
348.4999999999954
 31
0.0
  0
LINE
  5
AAC
330
1F
100
AcDbEntity
  8
SIZE
100
AcDbLine
 10
3322.044791884422
 20
333.4999999999954
 30
0.0
 11
3322.044791884422
 21
348.4999999999954
 31
0.0
  0
LINE
  5
AAD
330
1F
100
AcDbEntity
  8
SIZE
100
AcDbLine
 10
3577.870118347885
 20
261.4999999999954
 30
0.0
 11
3312.044791884423
 21
261.4999999999954
 31
0.0
  0
LINE
  5
AAE
330
1F
100
AcDbEntity
  8
SIZE
100
AcDbLine
 10
3517.090118347886
 20
333.4999999999954
 30
0.0
 11
3312.044791884423
 21
333.4999999999954
 31
0.0
  0
LINE
  5
AAF
330
1F
100
AcDbEntity
  8
SIZE
100
AcDbLine
 10
3322.044791884422
 20
276.4999999999954
 30
0.0
 11
3322.044791884422
 21
318.4999999999954
 31
0.0
  0
LINE
  5
AB0
330
1F
100
AcDbEntity
  8
SIZE
100
AcDbLine
 10
3460.600118347884
 20
19.99999999999545
 30
0.0
 11
3312.044791884423
 21
19.99999999999545
 31
0.0
  0
LINE
  5
AB1
330
1F
100
AcDbEntity
  8
SIZE
100
AcDbLine
 10
3577.870118347885
 20
261.4999999999954
 30
0.0
 11
3312.044791884423
 21
261.4999999999954
 31
0.0
  0
LINE
  5
AB2
330
1F
100
AcDbEntity
  8
SIZE
100
AcDbLine
 10
3322.044791884422
 20
34.99999999999545
 30
0.0
 11
3322.044791884422
 21
246.4999999999954
 31
0.0
  0
TEXT
  5
AB3
330
1F
100
AcDbEntity
  8
SIZE
100
AcDbText
 10
3416.610118347881
 20
131.1015425142304
 30
0.0
 40
40.0
  1
397.5
 50
90.0
  7
KAIGAI
100
AcDbText
  0
LINE
  5
AB4
330
1F
100
AcDbEntity
  8
SIZE
100
AcDbLine
 10
3417.590880497884
 20
424.9999999999972
 30
0.0
 11
3421.610118347883
 21
439.9999999999972
 31
0.0
  0
LINE
  5
AB5
330
1F
100
AcDbEntity
  8
SIZE
100
AcDbLine
 10
3421.610118347883
 20
439.9999999999972
 30
0.0
 11
3425.629356197883
 21
424.9999999999972
 31
0.0
  0
LINE
  5
AB6
330
1F
100
AcDbEntity
  8
SIZE
100
AcDbLine
 10
3421.610118347883
 20
439.9999999999972
 30
0.0
 11
3421.610118347883
 21
424.9999999999972
 31
0.0
  0
LINE
  5
AB7
330
1F
100
AcDbEntity
  8
SIZE
100
AcDbLine
 10
3425.629356197883
 20
57.49999999999545
 30
0.0
 11
3421.610118347883
 21
42.49999999999545
 31
0.0
  0
LINE
  5
AB8
330
1F
100
AcDbEntity
  8
SIZE
100
AcDbLine
 10
3421.610118347883
 20
42.49999999999545
 30
0.0
 11
3417.590880497884
 21
57.49999999999545
 31
0.0
  0
LINE
  5
AB9
330
1F
100
AcDbEntity
  8
SIZE
100
AcDbLine
 10
3421.610118347883
 20
42.49999999999545
 30
0.0
 11
3421.610118347883
 21
57.49999999999545
 31
0.0
  0
LINE
  5
ABA
330
1F
100
AcDbEntity
  8
SIZE
100
AcDbLine
 10
3460.600118347884
 20
19.99999999999545
 30
0.0
 11
3360.669940514487
 21
19.99999999999545
 31
0.0
  0
LINE
  5
ABB
330
1F
100
AcDbEntity
  8
SIZE
100
AcDbLine
 10
3649.480118347885
 20
282.9999999999954
 30
0.0
 11
3360.669940514487
 21
282.9999999999954
 31
0.0
  0
LINE
  5
ABC
330
1F
100
AcDbEntity
  8
SIZE
100
AcDbLine
 10
3370.669940514487
 20
34.99999999999545
 30
0.0
 11
3370.669940514487
 21
267.9999999999954
 31
0.0
  0
LINE
  5
ABD
330
1F
100
AcDbEntity
  8
SIZE
100
AcDbLine
 10
3644.600118347884
 20
47.49999999999545
 30
0.0
 11
3644.600118347884
 21
148.5104638502753
 31
0.0
  0
LINE
  5
ABE
330
1F
100
AcDbEntity
  8
SIZE
100
AcDbLine
 10
3721.600118347886
 20
24.99999999999545
 30
0.0
 11
3721.600118347886
 21
148.5104638502753
 31
0.0
  0
LINE
  5
ABF
330
1F
100
AcDbEntity
  8
SIZE
100
AcDbLine
 10
3659.600118347885
 20
138.5104638502753
 30
0.0
 11
3706.600118347886
 21
138.5104638502753
 31
0.0
  0
LINE
  5
AC0
330
1F
100
AcDbEntity
  8
SIZE
100
AcDbLine
 10
3539.600118347885
 20
47.49999999999545
 30
0.0
 11
3539.600118347885
 21
148.5104638502753
 31
0.0
  0
LINE
  5
AC1
330
1F
100
AcDbEntity
  8
SIZE
100
AcDbLine
 10
3644.600118347884
 20
47.49999999999545
 30
0.0
 11
3644.600118347884
 21
148.5104638502753
 31
0.0
  0
LINE
  5
AC2
330
1F
100
AcDbEntity
  8
SIZE
100
AcDbLine
 10
3554.600118347885
 20
138.5104638502753
 30
0.0
 11
3629.600118347885
 21
138.5104638502753
 31
0.0
  0
LINE
  5
AC3
330
1F
100
AcDbEntity
  8
SIZE
100
AcDbLine
 10
3465.600118347885
 20
47.49999999999545
 30
0.0
 11
3465.600118347885
 21
148.5104638502771
 31
0.0
  0
LINE
  5
AC4
330
1F
100
AcDbEntity
  8
SIZE
100
AcDbLine
 10
3539.600118347885
 20
47.49999999999545
 30
0.0
 11
3539.600118347885
 21
148.5104638502753
 31
0.0
  0
LINE
  5
AC5
330
1F
100
AcDbEntity
  8
SIZE
100
AcDbLine
 10
3480.600118347885
 20
138.5104638502771
 30
0.0
 11
3524.600118347884
 21
138.5104638502753
 31
0.0
  0
LINE
  5
AC6
330
1F
100
AcDbEntity
  8
SIZE
100
AcDbLine
 10
3535.100118347885
 20
-62.50000000000454
 30
0.0
 11
3411.610118347883
 21
-62.50000000000454
 31
0.0
  0
LINE
  5
AC7
330
1F
100
AcDbEntity
  8
SIZE
100
AcDbLine
 10
3460.600118347881
 20
-400.0000000000045
 30
0.0
 11
3411.610118347883
 21
-400.0000000000045
 31
0.0
  0
LINE
  5
AC8
330
1F
100
AcDbEntity
  8
SIZE
100
AcDbLine
 10
3421.610118347883
 20
-77.50000000000454
 30
0.0
 11
3421.610118347883
 21
-385.0000000000045
 31
0.0
  0
LINE
  5
AC9
330
1F
100
AcDbEntity
  8
SIZE
100
AcDbLine
 10
3721.600118347884
 20
-460.0000000000063
 30
0.0
 11
3721.600118347884
 21
-591.6660457760071
 31
0.0
  0
LINE
  5
ACA
330
1F
100
AcDbEntity
  8
SIZE
100
AcDbLine
 10
3532.600118347885
 20
-323.9984874285082
 30
0.0
 11
3532.600118347885
 21
-591.6660457760054
 31
0.0
  0
LINE
  5
ACB
330
1F
100
AcDbEntity
  8
SIZE
100
AcDbLine
 10
3706.600118347884
 20
-581.6660457760072
 30
0.0
 11
3547.600118347885
 21
-581.6660457760053
 31
0.0
  0
TEXT
  5
ACC
330
1F
100
AcDbEntity
  8
SIZE
100
AcDbText
 10
3670.695847071522
 20
-586.6660457760076
 30
0.0
 40
40.0
  1
189
 50
180.0
  7
KAIGAI
100
AcDbText
  0
LINE
  5
ACD
330
1F
100
AcDbEntity
  8
SIZE
100
AcDbLine
 10
3547.600118347885
 20
-585.6852836260068
 30
0.0
 11
3532.600118347885
 21
-581.6660457760053
 31
0.0
  0
LINE
  5
ACE
330
1F
100
AcDbEntity
  8
SIZE
100
AcDbLine
 10
3532.600118347885
 20
-581.6660457760053
 30
0.0
 11
3547.600118347885
 21
-577.6468079260057
 31
0.0
  0
LINE
  5
ACF
330
1F
100
AcDbEntity
  8
SIZE
100
AcDbLine
 10
3532.600118347885
 20
-581.6660457760053
 30
0.0
 11
3547.600118347885
 21
-581.6660457760053
 31
0.0
  0
LINE
  5
AD0
330
1F
100
AcDbEntity
  8
SIZE
100
AcDbLine
 10
3706.600118347884
 20
-577.6468079260057
 30
0.0
 11
3721.600118347884
 21
-581.6660457760072
 31
0.0
  0
LINE
  5
AD1
330
1F
100
AcDbEntity
  8
SIZE
100
AcDbLine
 10
3721.600118347884
 20
-581.6660457760072
 30
0.0
 11
3706.600118347884
 21
-585.6852836260068
 31
0.0
  0
LINE
  5
AD2
330
1F
100
AcDbEntity
  8
SIZE
100
AcDbLine
 10
3721.600118347884
 20
-581.6660457760072
 30
0.0
 11
3706.600118347884
 21
-581.6660457760072
 31
0.0
  0
TEXT
  5
AD3
330
1F
100
AcDbEntity
  8
SIZE
100
AcDbText
 10
3416.610118347881
 20
-291.250000000004
 30
0.0
 40
40.0
  1
337.5
 50
90.0
  7
KAIGAI
100
AcDbText
  0
LINE
  5
AD4
330
1F
100
AcDbEntity
  8
SIZE
100
AcDbLine
 10
3425.629356197883
 20
-385.0000000000045
 30
0.0
 11
3421.610118347883
 21
-400.0000000000045
 31
0.0
  0
LINE
  5
AD5
330
1F
100
AcDbEntity
  8
SIZE
100
AcDbLine
 10
3421.610118347883
 20
-400.0000000000045
 30
0.0
 11
3417.590880497884
 21
-385.0000000000045
 31
0.0
  0
LINE
  5
AD6
330
1F
100
AcDbEntity
  8
SIZE
100
AcDbLine
 10
3421.610118347883
 20
-400.0000000000045
 30
0.0
 11
3421.610118347883
 21
-385.0000000000045
 31
0.0
  0
LINE
  5
AD7
330
1F
100
AcDbEntity
  8
SIZE
100
AcDbLine
 10
3417.590880497884
 20
-77.50000000000454
 30
0.0
 11
3421.610118347883
 21
-62.50000000000454
 31
0.0
  0
LINE
  5
AD8
330
1F
100
AcDbEntity
  8
SIZE
100
AcDbLine
 10
3421.610118347883
 20
-62.50000000000454
 30
0.0
 11
3425.629356197883
 21
-77.50000000000454
 31
0.0
  0
LINE
  5
AD9
330
1F
100
AcDbEntity
  8
SIZE
100
AcDbLine
 10
3421.610118347883
 20
-62.50000000000454
 30
0.0
 11
3421.610118347883
 21
-77.50000000000454
 31
0.0
  0
TEXT
  5
ADA
330
1F
100
AcDbEntity
  8
SIZE
100
AcDbText
 10
3527.600118347883
 20
133.5104638502762
 30
0.0
 40
40.0
  1
74
 50
180.0
  7
KAIGAI
100
AcDbText
  0
LINE
  5
ADB
330
1F
100
AcDbEntity
  8
SIZE
100
AcDbLine
 10
3524.600118347884
 20
142.5297017002767
 30
0.0
 11
3539.600118347885
 21
138.5104638502753
 31
0.0
  0
LINE
  5
ADC
330
1F
100
AcDbEntity
  8
SIZE
100
AcDbLine
 10
3539.600118347885
 20
138.5104638502753
 30
0.0
 11
3524.600118347884
 21
134.4912260002756
 31
0.0
  0
LINE
  5
ADD
330
1F
100
AcDbEntity
  8
SIZE
100
AcDbLine
 10
3539.600118347885
 20
138.5104638502753
 30
0.0
 11
3524.600118347884
 21
138.5104638502753
 31
0.0
  0
LINE
  5
ADE
330
1F
100
AcDbEntity
  8
SIZE
100
AcDbLine
 10
3480.600118347885
 20
134.4912260002756
 30
0.0
 11
3465.600118347885
 21
138.5104638502771
 31
0.0
  0
LINE
  5
ADF
330
1F
100
AcDbEntity
  8
SIZE
100
AcDbLine
 10
3465.600118347885
 20
138.5104638502771
 30
0.0
 11
3480.600118347885
 21
142.5297017002767
 31
0.0
  0
LINE
  5
AE0
330
1F
100
AcDbEntity
  8
SIZE
100
AcDbLine
 10
3465.600118347885
 20
138.5104638502771
 30
0.0
 11
3480.600118347885
 21
138.5104638502771
 31
0.0
  0
TEXT
  5
AE1
330
1F
100
AcDbEntity
  8
SIZE
100
AcDbText
 10
3637.797412719329
 20
133.5104638502762
 30
0.0
 40
40.0
  1
105
 50
180.0
  7
KAIGAI
100
AcDbText
  0
LINE
  5
AE2
330
1F
100
AcDbEntity
  8
SIZE
100
AcDbLine
 10
3629.600118347885
 20
142.5297017002767
 30
0.0
 11
3644.600118347884
 21
138.5104638502753
 31
0.0
  0
LINE
  5
AE3
330
1F
100
AcDbEntity
  8
SIZE
100
AcDbLine
 10
3644.600118347884
 20
138.5104638502753
 30
0.0
 11
3629.600118347885
 21
134.4912260002756
 31
0.0
  0
LINE
  5
AE4
330
1F
100
AcDbEntity
  8
SIZE
100
AcDbLine
 10
3644.600118347884
 20
138.5104638502753
 30
0.0
 11
3629.600118347885
 21
138.5104638502753
 31
0.0
  0
LINE
  5
AE5
330
1F
100
AcDbEntity
  8
SIZE
100
AcDbLine
 10
3554.600118347885
 20
134.4912260002756
 30
0.0
 11
3539.600118347885
 21
138.5104638502753
 31
0.0
  0
LINE
  5
AE6
330
1F
100
AcDbEntity
  8
SIZE
100
AcDbLine
 10
3539.600118347885
 20
138.5104638502753
 30
0.0
 11
3554.600118347885
 21
142.5297017002767
 31
0.0
  0
LINE
  5
AE7
330
1F
100
AcDbEntity
  8
SIZE
100
AcDbLine
 10
3539.600118347885
 20
138.5104638502753
 30
0.0
 11
3554.600118347885
 21
138.5104638502753
 31
0.0
  0
TEXT
  5
AE8
330
1F
100
AcDbEntity
  8
SIZE
100
AcDbText
 10
3708.100118347883
 20
133.5104638502762
 30
0.0
 40
40.0
  1
77
 50
180.0
  7
KAIGAI
100
AcDbText
  0
LINE
  5
AE9
330
1F
100
AcDbEntity
  8
SIZE
100
AcDbLine
 10
3706.600118347886
 20
142.5297017002767
 30
0.0
 11
3721.600118347886
 21
138.5104638502753
 31
0.0
  0
LINE
  5
AEA
330
1F
100
AcDbEntity
  8
SIZE
100
AcDbLine
 10
3721.600118347886
 20
138.5104638502753
 30
0.0
 11
3706.600118347886
 21
134.4912260002756
 31
0.0
  0
LINE
  5
AEB
330
1F
100
AcDbEntity
  8
SIZE
100
AcDbLine
 10
3721.600118347886
 20
138.5104638502753
 30
0.0
 11
3706.600118347886
 21
138.5104638502753
 31
0.0
  0
LINE
  5
AEC
330
1F
100
AcDbEntity
  8
SIZE
100
AcDbLine
 10
3659.600118347885
 20
134.4912260002756
 30
0.0
 11
3644.600118347884
 21
138.5104638502753
 31
0.0
  0
LINE
  5
AED
330
1F
100
AcDbEntity
  8
SIZE
100
AcDbLine
 10
3644.600118347884
 20
138.5104638502753
 30
0.0
 11
3659.600118347885
 21
142.5297017002767
 31
0.0
  0
LINE
  5
AEE
330
1F
100
AcDbEntity
  8
SIZE
100
AcDbLine
 10
3644.600118347884
 20
138.5104638502753
 30
0.0
 11
3659.600118347885
 21
138.5104638502753
 31
0.0
  0
TEXT
  5
AEF
330
1F
100
AcDbEntity
  8
SIZE
100
AcDbText
 10
3365.669940514485
 20
111.4999999999963
 30
0.0
 40
40.0
  1
263
 50
90.0
  7
KAIGAI
100
AcDbText
  0
LINE
  5
AF0
330
1F
100
AcDbEntity
  8
SIZE
100
AcDbLine
 10
3366.650702664488
 20
267.9999999999954
 30
0.0
 11
3370.669940514487
 21
282.9999999999954
 31
0.0
  0
LINE
  5
AF1
330
1F
100
AcDbEntity
  8
SIZE
100
AcDbLine
 10
3370.669940514487
 20
282.9999999999954
 30
0.0
 11
3374.689178364487
 21
267.9999999999954
 31
0.0
  0
LINE
  5
AF2
330
1F
100
AcDbEntity
  8
SIZE
100
AcDbLine
 10
3370.669940514487
 20
282.9999999999954
 30
0.0
 11
3370.669940514487
 21
267.9999999999954
 31
0.0
  0
LINE
  5
AF3
330
1F
100
AcDbEntity
  8
SIZE
100
AcDbLine
 10
3374.689178364487
 20
34.99999999999545
 30
0.0
 11
3370.669940514487
 21
19.99999999999545
 31
0.0
  0
LINE
  5
AF4
330
1F
100
AcDbEntity
  8
SIZE
100
AcDbLine
 10
3370.669940514487
 20
19.99999999999545
 30
0.0
 11
3366.650702664488
 21
34.99999999999545
 31
0.0
  0
LINE
  5
AF5
330
1F
100
AcDbEntity
  8
SIZE
100
AcDbLine
 10
3370.669940514487
 20
19.99999999999545
 30
0.0
 11
3370.669940514487
 21
34.99999999999545
 31
0.0
  0
TEXT
  5
AF6
330
1F
100
AcDbEntity
  8
SIZE
100
AcDbText
 10
3317.044791884421
 20
85.74999999999636
 30
0.0
 40
40.0
  1
241.5
 50
90.0
  7
KAIGAI
100
AcDbText
  0
LINE
  5
AF7
330
1F
100
AcDbEntity
  8
SIZE
100
AcDbLine
 10
3318.025554034423
 20
246.4999999999954
 30
0.0
 11
3322.044791884422
 21
261.4999999999954
 31
0.0
  0
LINE
  5
AF8
330
1F
100
AcDbEntity
  8
SIZE
100
AcDbLine
 10
3322.044791884422
 20
261.4999999999954
 30
0.0
 11
3326.064029734422
 21
246.4999999999954
 31
0.0
  0
LINE
  5
AF9
330
1F
100
AcDbEntity
  8
SIZE
100
AcDbLine
 10
3322.044791884422
 20
261.4999999999954
 30
0.0
 11
3322.044791884422
 21
246.4999999999954
 31
0.0
  0
LINE
  5
AFA
330
1F
100
AcDbEntity
  8
SIZE
100
AcDbLine
 10
3326.064029734422
 20
34.99999999999545
 30
0.0
 11
3322.044791884422
 21
19.99999999999545
 31
0.0
  0
LINE
  5
AFB
330
1F
100
AcDbEntity
  8
SIZE
100
AcDbLine
 10
3322.044791884422
 20
19.99999999999545
 30
0.0
 11
3318.025554034423
 21
34.99999999999545
 31
0.0
  0
LINE
  5
AFC
330
1F
100
AcDbEntity
  8
SIZE
100
AcDbLine
 10
3322.044791884422
 20
19.99999999999545
 30
0.0
 11
3322.044791884422
 21
34.99999999999545
 31
0.0
  0
TEXT
  5
AFD
330
1F
100
AcDbEntity
  8
SIZE
100
AcDbText
 10
3317.044791884421
 20
266.2213372031037
 30
0.0
 40
40.0
  1
72
 50
90.0
  7
KAIGAI
100
AcDbText
  0
LINE
  5
AFE
330
1F
100
AcDbEntity
  8
SIZE
100
AcDbLine
 10
3318.025554034423
 20
318.4999999999954
 30
0.0
 11
3322.044791884422
 21
333.4999999999954
 31
0.0
  0
LINE
  5
AFF
330
1F
100
AcDbEntity
  8
SIZE
100
AcDbLine
 10
3322.044791884422
 20
333.4999999999954
 30
0.0
 11
3326.064029734422
 21
318.4999999999954
 31
0.0
  0
LINE
  5
B00
330
1F
100
AcDbEntity
  8
SIZE
100
AcDbLine
 10
3322.044791884422
 20
333.4999999999954
 30
0.0
 11
3322.044791884422
 21
318.4999999999954
 31
0.0
  0
LINE
  5
B01
330
1F
100
AcDbEntity
  8
SIZE
100
AcDbLine
 10
3326.064029734422
 20
276.4999999999954
 30
0.0
 11
3322.044791884422
 21
261.4999999999954
 31
0.0
  0
LINE
  5
B02
330
1F
100
AcDbEntity
  8
SIZE
100
AcDbLine
 10
3322.044791884422
 20
261.4999999999954
 30
0.0
 11
3318.025554034423
 21
276.4999999999954
 31
0.0
  0
LINE
  5
B03
330
1F
100
AcDbEntity
  8
SIZE
100
AcDbLine
 10
3322.044791884422
 20
261.4999999999954
 30
0.0
 11
3322.044791884422
 21
276.4999999999954
 31
0.0
  0
TEXT
  5
B04
330
1F
100
AcDbEntity
  8
SIZE
100
AcDbText
 10
3791.600118347886
 20
640.9199999999964
 30
0.0
 40
40.0
  1
44
 50
180.0
  7
KAIGAI
100
AcDbText
  0
LINE
  5
B05
330
1F
100
AcDbEntity
  8
SIZE
100
AcDbLine
 10
3706.600118347888
 20
649.9392378499988
 30
0.0
 11
3721.600118347888
 21
645.9199999999992
 31
0.0
  0
LINE
  5
B06
330
1F
100
AcDbEntity
  8
SIZE
100
AcDbLine
 10
3721.600118347888
 20
645.9199999999992
 30
0.0
 11
3706.600118347888
 21
641.9007621499977
 31
0.0
  0
LINE
  5
B07
330
1F
100
AcDbEntity
  8
SIZE
100
AcDbLine
 10
3721.600118347888
 20
645.9199999999992
 30
0.0
 11
3706.600118347888
 21
645.9199999999992
 31
0.0
  0
LINE
  5
B08
330
1F
100
AcDbEntity
  8
SIZE
100
AcDbLine
 10
3692.600118347886
 20
641.9007621499977
 30
0.0
 11
3677.600118347887
 21
645.9199999999992
 31
0.0
  0
LINE
  5
B09
330
1F
100
AcDbEntity
  8
SIZE
100
AcDbLine
 10
3677.600118347887
 20
645.9199999999992
 30
0.0
 11
3692.600118347886
 21
649.9392378499988
 31
0.0
  0
LINE
  5
B0A
330
1F
100
AcDbEntity
  8
SIZE
100
AcDbLine
 10
3677.600118347887
 20
645.9199999999992
 30
0.0
 11
3692.600118347886
 21
645.9199999999992
 31
0.0
  0
TEXT
  5
B0B
330
1F
100
AcDbEntity
  8
SIZE
100
AcDbText
 10
3708.132127641797
 20
708.528545943478
 30
0.0
 40
40.0
  1
112
 50
180.0
  7
KAIGAI
100
AcDbText
  0
LINE
  5
B0C
330
1F
100
AcDbEntity
  8
SIZE
100
AcDbLine
 10
3624.600118347884
 20
709.5093080934794
 30
0.0
 11
3609.600118347884
 21
713.528545943479
 31
0.0
  0
LINE
  5
B0D
330
1F
100
AcDbEntity
  8
SIZE
100
AcDbLine
 10
3609.600118347884
 20
713.528545943479
 30
0.0
 11
3624.600118347884
 21
717.5477837934786
 31
0.0
  0
LINE
  5
B0E
330
1F
100
AcDbEntity
  8
SIZE
100
AcDbLine
 10
3609.600118347884
 20
713.528545943479
 30
0.0
 11
3624.600118347884
 21
713.528545943479
 31
0.0
  0
LINE
  5
B0F
330
1F
100
AcDbEntity
  8
SIZE
100
AcDbLine
 10
3706.600118347888
 20
717.5477837934786
 30
0.0
 11
3721.600118347888
 21
713.528545943479
 31
0.0
  0
LINE
  5
B10
330
1F
100
AcDbEntity
  8
SIZE
100
AcDbLine
 10
3721.600118347888
 20
713.528545943479
 30
0.0
 11
3706.600118347888
 21
709.5093080934794
 31
0.0
  0
LINE
  5
B11
330
1F
100
AcDbEntity
  8
SIZE
100
AcDbLine
 10
3721.600118347888
 20
713.528545943479
 30
0.0
 11
3706.600118347888
 21
713.528545943479
 31
0.0
  0
TEXT
  5
B12
330
1F
100
AcDbEntity
  8
SIZE
100
AcDbText
 10
3681.40876377858
 20
765.9960303636726
 30
0.0
 40
40.0
  1
172
 50
180.0
  7
KAIGAI
100
AcDbText
  0
LINE
  5
B13
330
1F
100
AcDbEntity
  8
SIZE
100
AcDbLine
 10
3564.600118347885
 20
766.9767925136738
 30
0.0
 11
3549.600118347884
 21
770.9960303636735
 31
0.0
  0
LINE
  5
B14
330
1F
100
AcDbEntity
  8
SIZE
100
AcDbLine
 10
3549.600118347884
 20
770.9960303636735
 30
0.0
 11
3564.600118347885
 21
775.0152682136731
 31
0.0
  0
LINE
  5
B15
330
1F
100
AcDbEntity
  8
SIZE
100
AcDbLine
 10
3549.600118347884
 20
770.9960303636735
 30
0.0
 11
3564.600118347885
 21
770.9960303636735
 31
0.0
  0
LINE
  5
B16
330
1F
100
AcDbEntity
  8
SIZE
100
AcDbLine
 10
3706.600118347888
 20
775.0152682136731
 30
0.0
 11
3721.600118347888
 21
770.9960303636735
 31
0.0
  0
LINE
  5
B17
330
1F
100
AcDbEntity
  8
SIZE
100
AcDbLine
 10
3721.600118347888
 20
770.9960303636735
 30
0.0
 11
3706.600118347888
 21
766.9767925136738
 31
0.0
  0
LINE
  5
B18
330
1F
100
AcDbEntity
  8
SIZE
100
AcDbLine
 10
3721.600118347888
 20
770.9960303636735
 30
0.0
 11
3706.600118347888
 21
770.9960303636735
 31
0.0
  0
LINE
  5
B19
330
1F
100
AcDbEntity
  8
BASIS
100
AcDbLine
 10
3662.60532299155
 20
-40.04714895459165
 30
0.0
 11
3662.60532299155
 21
-20.04714895459164
 31
0.0
  0
LINE
  5
B1A
330
1F
100
AcDbEntity
  8
BASIS
100
AcDbLine
 10
3652.980370831607
 20
-30.04711994089211
 30
0.0
 11
3672.230370831607
 21
-30.04711994089211
 31
0.0
  0
LINE
  5
B1B
330
1F
100
AcDbEntity
  8
SIZE
100
AcDbLine
 10
3731.599832313858
 20
20.00083842822732
 30
0.0
 11
3834.914592595646
 21
20.00083842822732
 31
0.0
  0
LINE
  5
B1C
330
1F
100
AcDbEntity
  8
SIZE
100
AcDbLine
 10
3672.605742530434
 20
-30.04733002498233
 30
0.0
 11
3834.914592595646
 21
-30.04733002498233
 31
0.0
  0
LINE
  5
B1D
330
1F
100
AcDbEntity
  8
SIZE
100
AcDbLine
 10
3824.914592595646
 20
50.00083842822732
 30
0.0
 11
3824.914592595646
 21
80.00083842822732
 31
0.0
  0
LINE
  5
B1E
330
1F
100
AcDbEntity
  8
SIZE
100
AcDbLine
 10
3824.914592595646
 20
-60.04733002498233
 30
0.0
 11
3824.914592595646
 21
-170.0473300249823
 31
0.0
  0
LINE
  5
B1F
330
1F
100
AcDbEntity
  8
SIZE
100
AcDbLine
 10
3824.914592595646
 20
20.00083842822732
 30
0.0
 11
3824.914592595646
 21
-30.04733002498233
 31
0.0
  0
LINE
  5
B20
330
1F
100
AcDbEntity
  8
SIZE
100
AcDbLine
 10
3465.618971146207
 20
10.03756567492291
 30
0.0
 11
3465.618971146207
 21
-218.1595347149532
 31
0.0
  0
LINE
  5
B21
330
1F
100
AcDbEntity
  8
SIZE
100
AcDbLine
 10
3506.605330924428
 20
-40.04710996957965
 30
0.0
 11
3506.605330924428
 21
-218.1595347149532
 31
0.0
  0
LINE
  5
B22
330
1F
100
AcDbEntity
  8
SIZE
100
AcDbLine
 10
3535.618971146208
 20
-208.1595347149532
 30
0.0
 11
3245.618971146207
 21
-208.1595347149532
 31
0.0
  0
LINE
  5
B23
330
1F
100
AcDbEntity
  8
SIZE
100
AcDbLine
 10
3556.605330924428
 20
-208.1595347149532
 30
0.0
 11
3559.93866425776
 21
-208.1595347149532
 31
0.0
  0
LINE
  5
B24
330
1F
100
AcDbEntity
  8
SIZE
100
AcDbLine
 10
3465.618971146207
 20
-208.1595347149532
 30
0.0
 11
3506.605330924428
 21
-208.1595347149532
 31
0.0
  0
LINE
  5
B25
330
1F
100
AcDbEntity
  8
SIZE
100
AcDbLine
 10
3506.605345114917
 20
-40.04710996957965
 30
0.0
 11
3506.605345114917
 21
-89.94676303158575
 31
0.0
  0
LINE
  5
B26
330
1F
100
AcDbEntity
  8
SIZE
100
AcDbLine
 10
3662.605316815776
 20
-40.04710996958147
 30
0.0
 11
3662.605316815776
 21
-89.94676303158758
 31
0.0
  0
LINE
  5
B27
330
1F
100
AcDbEntity
  8
SIZE
100
AcDbLine
 10
3536.605345114917
 20
-79.94676303158576
 30
0.0
 11
3632.605316815775
 21
-79.94676303158758
 31
0.0
  0
LINE
  5
B28
330
1F
100
AcDbEntity
  8
SIZE
100
AcDbLine
 10
3536.605345114917
 20
-87.98523873158684
 30
0.0
 11
3506.605345114917
 21
-79.94676303158576
 31
0.0
  0
LINE
  5
B29
330
1F
100
AcDbEntity
  8
SIZE
100
AcDbLine
 10
3506.605345114917
 20
-79.94676303158576
 30
0.0
 11
3536.605345114917
 21
-71.90828733158468
 31
0.0
  0
LINE
  5
B2A
330
1F
100
AcDbEntity
  8
SIZE
100
AcDbLine
 10
3306.605345114917
 20
-79.94676303158576
 30
0.0
 11
3536.605345114917
 21
-79.94676303158576
 31
0.0
  0
LINE
  5
B2B
330
1F
100
AcDbEntity
  8
SIZE
100
AcDbLine
 10
3632.605316815775
 20
-71.90828733158468
 30
0.0
 11
3662.605316815776
 21
-79.94676303158758
 31
0.0
  0
LINE
  5
B2C
330
1F
100
AcDbEntity
  8
SIZE
100
AcDbLine
 10
3662.605316815776
 20
-79.94676303158758
 30
0.0
 11
3632.605316815775
 21
-87.98523873158684
 31
0.0
  0
LINE
  5
B2D
330
1F
100
AcDbEntity
  8
SIZE
100
AcDbLine
 10
3662.605316815776
 20
-79.94676303158758
 30
0.0
 11
3632.605316815775
 21
-79.94676303158758
 31
0.0
  0
LINE
  5
B2E
330
1F
100
AcDbEntity
  8
SIZE
100
AcDbLine
 10
3832.953068295647
 20
50.00083842822732
 30
0.0
 11
3824.914592595646
 21
20.00083842822732
 31
0.0
  0
LINE
  5
B2F
330
1F
100
AcDbEntity
  8
SIZE
100
AcDbLine
 10
3824.914592595646
 20
20.00083842822732
 30
0.0
 11
3816.876116895645
 21
50.00083842822732
 31
0.0
  0
LINE
  5
B30
330
1F
100
AcDbEntity
  8
SIZE
100
AcDbLine
 10
3824.914592595646
 20
20.00083842822732
 30
0.0
 11
3824.914592595646
 21
50.00083842822732
 31
0.0
  0
LINE
  5
B31
330
1F
100
AcDbEntity
  8
SIZE
100
AcDbLine
 10
3816.876116895645
 20
-60.04733002498233
 30
0.0
 11
3824.914592595646
 21
-30.04733002498233
 31
0.0
  0
LINE
  5
B32
330
1F
100
AcDbEntity
  8
SIZE
100
AcDbLine
 10
3824.914592595646
 20
-30.04733002498233
 30
0.0
 11
3832.953068295647
 21
-60.04733002498233
 31
0.0
  0
LINE
  5
B33
330
1F
100
AcDbEntity
  8
SIZE
100
AcDbLine
 10
3824.914592595646
 20
-30.04733002498233
 30
0.0
 11
3824.914592595646
 21
-60.04733002498233
 31
0.0
  0
LINE
  5
B34
330
1F
100
AcDbEntity
  8
SIZE
100
AcDbLine
 10
3536.605330924428
 20
-216.1980104149543
 30
0.0
 11
3506.605330924428
 21
-208.1595347149532
 31
0.0
  0
LINE
  5
B35
330
1F
100
AcDbEntity
  8
SIZE
100
AcDbLine
 10
3506.605330924428
 20
-208.1595347149532
 30
0.0
 11
3536.605330924428
 21
-200.1210590149521
 31
0.0
  0
LINE
  5
B36
330
1F
100
AcDbEntity
  8
SIZE
100
AcDbLine
 10
3506.605330924428
 20
-208.1595347149532
 30
0.0
 11
3576.605330924428
 21
-208.1595347149532
 31
0.0
  0
LINE
  5
B37
330
1F
100
AcDbEntity
  8
SIZE
100
AcDbLine
 10
3435.618971146208
 20
-200.1210590149521
 30
0.0
 11
3465.618971146207
 21
-208.1595347149532
 31
0.0
  0
LINE
  5
B38
330
1F
100
AcDbEntity
  8
SIZE
100
AcDbLine
 10
3465.618971146207
 20
-208.1595347149532
 30
0.0
 11
3435.618971146208
 21
-216.1980104149543
 31
0.0
  0
LINE
  5
B39
330
1F
100
AcDbEntity
  8
SIZE
100
AcDbLine
 10
3465.618971146207
 20
-208.1595347149532
 30
0.0
 11
3435.618971146208
 21
-208.1595347149532
 31
0.0
  0
TEXT
  5
B3A
330
1F
100
AcDbEntity
  8
SIZE
100
AcDbText
 10
3401.743534930111
 20
-88.2609883414193
 30
0.0
 40
40.0
  1
156
 50
180.0
  7
KAIGAI
100
AcDbText
  0
TEXT
  5
B3B
330
1F
100
AcDbEntity
  8
SIZE
100
AcDbText
 10
3323.759505473275
 20
-215.5334477171714
 30
0.0
 40
40.0
  1
41
 50
180.0
  7
KAIGAI
100
AcDbText
  0
TEXT
  5
B3C
330
1F
100
AcDbEntity
  8
SIZE
100
AcDbText
 10
3809.914592595644
 20
-152.5473300249818
 30
0.0
 40
40.0
  1
50
 50
90.0
  7
KAIGAI
100
AcDbText
  0
LINE
  5
B3D
330
1F
100
AcDbEntity
  8
BASIS
100
AcDbLine
 10
3506.697824739132
 20
-40.04714895459165
 30
0.0
 11
3506.697824739132
 21
-20.04714895459164
 31
0.0
  0
LINE
  5
B3E
330
1F
100
AcDbEntity
  8
BASIS
100
AcDbLine
 10
3497.072872579189
 20
-30.04711994089211
 30
0.0
 11
3516.322872579189
 21
-30.04711994089211
 31
0.0
  0
POLYLINE
  5
B3F
330
1F
100
AcDbEntity
  8
DETAIL
  6
CONTINUOUS
100
AcDb2dPolyline
 66
     1
 10
0.0
 20
0.0
 30
0.0
  0
VERTEX
  5
C2F
330
B3F
100
AcDbEntity
  8
DETAIL
  6
CONTINUOUS
100
AcDbVertex
100
AcDb2dVertex
 10
3709.600118347887
 20
439.9999999999972
 30
0.0
  0
VERTEX
  5
C30
330
B3F
100
AcDbEntity
  8
DETAIL
  6
CONTINUOUS
100
AcDbVertex
100
AcDb2dVertex
 10
3465.600118347885
 20
439.9999999999972
 30
0.0
  0
VERTEX
  5
C31
330
B3F
100
AcDbEntity
  8
DETAIL
  6
CONTINUOUS
100
AcDbVertex
100
AcDb2dVertex
 10
3465.600118347881
 20
-400.0000000000045
 30
0.0
  0
VERTEX
  5
C32
330
B3F
100
AcDbEntity
  8
DETAIL
  6
CONTINUOUS
100
AcDbVertex
100
AcDb2dVertex
 10
3709.600118347884
 20
-400.0000000000045
 30
0.0
  0
SEQEND
  5
C33
330
B3F
100
AcDbEntity
  8
DETAIL
  6
CONTINUOUS
  0
POLYLINE
  5
B40
330
1F
100
AcDbEntity
  8
DETAIL
  6
CONTINUOUS
100
AcDb2dPolyline
 66
     1
 10
0.0
 20
0.0
 30
0.0
  0
VERTEX
  5
C34
330
B40
100
AcDbEntity
  8
DETAIL
  6
CONTINUOUS
100
AcDbVertex
100
AcDb2dVertex
 10
3633.600118347881
 20
-403.5900000000046
 30
0.0
  0
VERTEX
  5
C35
330
B40
100
AcDbEntity
  8
DETAIL
  6
CONTINUOUS
100
AcDbVertex
100
AcDb2dVertex
 10
3633.600118347881
 20
-338.3300000000044
 30
0.0
  0
VERTEX
  5
C36
330
B40
100
AcDbEntity
  8
DETAIL
  6
CONTINUOUS
100
AcDbVertex
100
AcDb2dVertex
 10
3635.60011834788
 20
-338.3300000000044
 30
0.0
  0
VERTEX
  5
C37
330
B40
100
AcDbEntity
  8
DETAIL
  6
CONTINUOUS
100
AcDbVertex
100
AcDb2dVertex
 10
3635.60011834788
 20
-403.5900000000046
 30
0.0
  0
VERTEX
  5
C38
330
B40
100
AcDbEntity
  8
DETAIL
  6
CONTINUOUS
100
AcDbVertex
100
AcDb2dVertex
 10
3633.600118347881
 20
-403.5900000000046
 30
0.0
  0
SEQEND
  5
C39
330
B40
100
AcDbEntity
  8
DETAIL
  6
CONTINUOUS
  0
LINE
  5
B41
330
1F
100
AcDbEntity
  8
DETAIL
  6
CONTINUOUS
100
AcDbLine
 10
3465.600118347885
 20
-262.5000000000045
 30
0.0
 11
3709.600118347884
 21
-262.5000000000045
 31
0.0
  0
LINE
  5
B42
330
1F
100
AcDbEntity
  8
DETAIL
  6
CONTINUOUS
100
AcDbLine
 10
3465.600118347885
 20
-234.5000000000045
 30
0.0
 11
3709.600118347884
 21
-234.5000000000045
 31
0.0
  0
CIRCLE
  5
B43
330
1F
100
AcDbEntity
  8
DETAIL
  6
CONTINUOUS
100
AcDbCircle
 10
3532.82011834788
 20
-303.0000000000022
 30
0.0
 40
16.0
  0
LINE
  5
B44
330
1F
100
AcDbEntity
  8
DETAIL
  6
CONTINUOUS
100
AcDbLine
 10
3633.600118347881
 20
-355.7700000000068
 30
0.0
 11
3635.60011834788
 21
-355.7700000000068
 31
0.0
  0
CIRCLE
  5
B45
330
1F
100
AcDbEntity
  8
DETAIL
  6
PHANTOM
100
AcDbCircle
 10
3592.600118347883
 20
-10.00000000000181
 30
0.0
 40
81.0
  0
POLYLINE
  5
B46
330
1F
100
AcDbEntity
  8
DETAIL
  6
PHANTOM
100
AcDb2dPolyline
 66
     1
 10
0.0
 20
0.0
 30
0.0
  0
VERTEX
  5
C3A
330
B46
100
AcDbEntity
  8
DETAIL
  6
PHANTOM
100
AcDbVertex
100
AcDb2dVertex
 10
3539.600118347885
 20
-62.50000000000454
 30
0.0
  0
VERTEX
  5
C3B
330
B46
100
AcDbEntity
  8
DETAIL
  6
PHANTOM
100
AcDbVertex
100
AcDb2dVertex
 10
3539.600118347885
 20
42.49999999999545
 30
0.0
  0
VERTEX
  5
C3C
330
B46
100
AcDbEntity
  8
DETAIL
  6
PHANTOM
100
AcDbVertex
100
AcDb2dVertex
 10
3644.600118347884
 20
42.49999999999545
 30
0.0
  0
VERTEX
  5
C3D
330
B46
100
AcDbEntity
  8
DETAIL
  6
PHANTOM
100
AcDbVertex
100
AcDb2dVertex
 10
3644.600118347884
 20
-62.50000000000454
 30
0.0
  0
VERTEX
  5
C3E
330
B46
100
AcDbEntity
  8
DETAIL
  6
PHANTOM
100
AcDbVertex
100
AcDb2dVertex
 10
3539.600118347885
 20
-62.50000000000454
 30
0.0
  0
SEQEND
  5
C3F
330
B46
100
AcDbEntity
  8
DETAIL
  6
PHANTOM
  0
LINE
  5
B47
330
1F
100
AcDbEntity
  8
DETAIL
  6
CONTINUOUS
100
AcDbLine
 10
3465.600118347885
 20
219.9999999999972
 30
0.0
 11
3709.600118347887
 21
219.9999999999972
 31
0.0
  0
LINE
  5
B48
330
1F
100
AcDbEntity
  8
DETAIL
  6
CONTINUOUS
100
AcDbLine
 10
3465.600118347885
 20
239.9999999999972
 30
0.0
 11
3709.600118347887
 21
239.9999999999972
 31
0.0
  0
LINE
  5
B49
330
1F
100
AcDbEntity
  8
DETAIL
  6
CONTINUOUS
100
AcDbLine
 10
3549.600118347884
 20
346.4999999999954
 30
0.0
 11
3538.350118347885
 21
339.9999999999954
 31
0.0
  0
LINE
  5
B4A
330
1F
100
AcDbEntity
  8
DETAIL
  6
CONTINUOUS
100
AcDbLine
 10
3560.860118347886
 20
339.9999999999954
 30
0.0
 11
3549.600118347884
 21
346.4999999999954
 31
0.0
  0
LINE
  5
B4B
330
1F
100
AcDbEntity
  8
DETAIL
  6
CONTINUOUS
100
AcDbLine
 10
3617.390118347885
 20
256.9999999999954
 30
0.0
 11
3609.600118347884
 21
252.4999999999954
 31
0.0
  0
LINE
  5
B4C
330
1F
100
AcDbEntity
  8
DETAIL
  6
CONTINUOUS
100
AcDbLine
 10
3609.600118347884
 20
270.4999999999954
 30
0.0
 11
3617.390118347885
 21
265.9999999999954
 31
0.0
  0
LINE
  5
B4D
330
1F
100
AcDbEntity
  8
DETAIL
  6
CONTINUOUS
100
AcDbLine
 10
3538.340118347886
 20
326.9999999999954
 30
0.0
 11
3549.600118347884
 21
320.4999999999954
 31
0.0
  0
LINE
  5
B4E
330
1F
100
AcDbEntity
  8
DETAIL
  6
CONTINUOUS
100
AcDbLine
 10
3538.340118347886
 20
339.9999999999954
 30
0.0
 11
3538.350118347885
 21
326.9999999999954
 31
0.0
  0
CIRCLE
  5
B4F
330
1F
100
AcDbEntity
  8
DETAIL
  6
CONTINUOUS
100
AcDbCircle
 10
3609.600118347884
 20
261.4999999999945
 30
0.0
 40
4.75
  0
LINE
  5
B50
330
1F
100
AcDbEntity
  8
DETAIL
  6
CONTINUOUS
100
AcDbLine
 10
3609.600118347884
 20
252.4999999999954
 30
0.0
 11
3601.810118347884
 21
256.9999999999954
 31
0.0
  0
LINE
  5
B51
330
1F
100
AcDbEntity
  8
DETAIL
  6
CONTINUOUS
100
AcDbLine
 10
3601.810118347884
 20
256.9999999999954
 30
0.0
 11
3601.810118347884
 21
265.9999999999954
 31
0.0
  0
LINE
  5
B52
330
1F
100
AcDbEntity
  8
DETAIL
  6
CONTINUOUS
100
AcDbLine
 10
3601.810118347884
 20
265.9999999999954
 30
0.0
 11
3609.600118347884
 21
270.4999999999954
 31
0.0
  0
LINE
  5
B53
330
1F
100
AcDbEntity
  8
DETAIL
  6
CONTINUOUS
100
AcDbLine
 10
3560.860118347886
 20
326.9899999999952
 30
0.0
 11
3560.850118347885
 21
339.9999999999954
 31
0.0
  0
CIRCLE
  5
B54
330
1F
100
AcDbEntity
  8
DETAIL
  6
CONTINUOUS
100
AcDbCircle
 10
3549.600118347883
 20
333.4999999999945
 30
0.0
 40
7.95
  0
LINE
  5
B55
330
1F
100
AcDbEntity
  8
DETAIL
  6
CONTINUOUS
100
AcDbLine
 10
3549.600118347884
 20
320.4999999999954
 30
0.0
 11
3560.850118347885
 21
326.9999999999954
 31
0.0
  0
LINE
  5
B56
330
1F
100
AcDbEntity
  8
DETAIL
  6
CONTINUOUS
100
AcDbLine
 10
3617.390118347885
 20
265.9999999999954
 30
0.0
 11
3617.390118347885
 21
256.9999999999954
 31
0.0
  0
LINE
  5
B57
330
1F
100
AcDbEntity
  8
DETAIL
  6
CONTINUOUS
100
AcDbLine
 10
3664.600118347885
 20
275.9999999999972
 30
0.0
 11
3664.600118347885
 21
289.9999999999972
 31
0.0
  0
ARC
  5
B58
330
1F
100
AcDbEntity
  8
DETAIL
  6
CONTINUOUS
100
AcDbCircle
 10
3677.600118347883
 20
275.9999999999945
 30
0.0
 40
13.0
100
AcDbArc
 50
270.0
 51
0.0
  0
LINE
  5
B59
330
1F
100
AcDbEntity
  8
DETAIL
  6
CONTINUOUS
100
AcDbLine
 10
3690.600118347886
 20
289.9999999999972
 30
0.0
 11
3690.600118347886
 21
275.9999999999972
 31
0.0
  0
ARC
  5
B5A
330
1F
100
AcDbEntity
  8
DETAIL
  6
CONTINUOUS
100
AcDbCircle
 10
3677.600118347884
 20
289.9999999999981
 30
0.0
 40
13.0
100
AcDbArc
 50
0.0
 51
90.0
  0
ARC
  5
B5B
330
1F
100
AcDbEntity
  8
DETAIL
  6
CONTINUOUS
100
AcDbCircle
 10
3677.600118347883
 20
275.9999999999945
 30
0.0
 40
13.0
100
AcDbArc
 50
180.0
 51
270.0
  0
ARC
  5
B5C
330
1F
100
AcDbEntity
  8
DETAIL
  6
CONTINUOUS
100
AcDbCircle
 10
3677.600118347883
 20
289.9999999999945
 30
0.0
 40
13.0
100
AcDbArc
 50
90.0
 51
180.0
  0
LINE
  5
B5D
330
1F
100
AcDbEntity
  8
DETAIL
  6
CONTINUOUS
100
AcDbLine
 10
3633.600118347885
 20
394.9899999999952
 30
0.0
 11
3635.600118347884
 21
394.9899999999952
 31
0.0
  0
POLYLINE
  5
B5E
330
1F
100
AcDbEntity
  8
DETAIL
  6
CONTINUOUS
100
AcDb2dPolyline
 66
     1
 10
0.0
 20
0.0
 30
0.0
  0
VERTEX
  5
C40
330
B5E
100
AcDbEntity
  8
DETAIL
  6
CONTINUOUS
100
AcDbVertex
100
AcDb2dVertex
 10
3633.600118347885
 20
382.6899999999959
 30
0.0
  0
VERTEX
  5
C41
330
B5E
100
AcDbEntity
  8
DETAIL
  6
CONTINUOUS
100
AcDbVertex
100
AcDb2dVertex
 10
3633.600118347885
 20
443.2799999999961
 30
0.0
  0
VERTEX
  5
C42
330
B5E
100
AcDbEntity
  8
DETAIL
  6
CONTINUOUS
100
AcDbVertex
100
AcDb2dVertex
 10
3635.600118347884
 20
443.2799999999961
 30
0.0
  0
VERTEX
  5
C43
330
B5E
100
AcDbEntity
  8
DETAIL
  6
CONTINUOUS
100
AcDbVertex
100
AcDb2dVertex
 10
3635.600118347884
 20
382.6899999999959
 30
0.0
  0
VERTEX
  5
C44
330
B5E
100
AcDbEntity
  8
DETAIL
  6
CONTINUOUS
100
AcDbVertex
100
AcDb2dVertex
 10
3633.600118347885
 20
382.6899999999959
 30
0.0
  0
SEQEND
  5
C45
330
B5E
100
AcDbEntity
  8
DETAIL
  6
CONTINUOUS
  0
LINE
  5
B5F
330
1F
100
AcDbEntity
  8
DETAIL
  6
CONTINUOUS
100
AcDbLine
 10
3721.600118347884
 20
-410.0000000000045
 30
0.0
 11
3709.600118347884
 21
-410.0000000000045
 31
0.0
  0
LINE
  5
B60
330
1F
100
AcDbEntity
  8
DETAIL
  6
CONTINUOUS
100
AcDbLine
 10
3709.600118347884
 20
-410.0000000000045
 30
0.0
 11
3709.600118347887
 21
449.9999999999972
 31
0.0
  0
LINE
  5
B61
330
1F
100
AcDbEntity
  8
DETAIL
  6
CONTINUOUS
100
AcDbLine
 10
3709.600118347887
 20
449.9999999999972
 30
0.0
 11
3721.600118347886
 21
449.9999999999972
 31
0.0
  0
LINE
  5
B62
330
1F
100
AcDbEntity
  8
DETAIL
  6
CONTINUOUS
100
AcDbLine
 10
3751.600118347885
 20
-325.0000000000027
 30
0.0
 11
3751.600118347885
 21
354.9999999999936
 31
0.0
  0
LINE
  5
B63
330
1F
100
AcDbEntity
  8
DETAIL
100
AcDbLine
 10
3721.600118347884
 20
-455.0000000000063
 30
0.0
 11
3728.600118347884
 21
-455.0000000000063
 31
0.0
  0
LINE
  5
B64
330
1F
100
AcDbEntity
  8
DETAIL
100
AcDbLine
 10
3728.600118347884
 20
-455.0000000000063
 30
0.0
 11
3736.600118347885
 21
-400.0000000000027
 31
0.0
  0
LINE
  5
B65
330
1F
100
AcDbEntity
  8
DETAIL
100
AcDbLine
 10
3721.600118347888
 20
494.9999999999972
 30
0.0
 11
3728.600118347888
 21
494.9999999999972
 31
0.0
  0
LINE
  5
B66
330
1F
100
AcDbEntity
  8
DETAIL
100
AcDbLine
 10
3728.600118347888
 20
494.9999999999972
 30
0.0
 11
3736.600118347888
 21
439.9999999999936
 31
0.0
  0
LINE
  5
B67
330
1F
100
AcDbEntity
  8
DETAIL
100
AcDbLine
 10
3736.600118347885
 20
440.0000000000154
 30
0.0
 11
3736.600118347885
 21
-400.0000000000027
 31
0.0
  0
LINE
  5
B68
330
1F
100
AcDbEntity
  8
DETAIL
100
AcDbLine
 10
3751.600118347885
 20
-325.0000000000027
 30
0.0
 11
3751.600118347885
 21
364.9999999999972
 31
0.0
  0
LINE
  5
B69
330
1F
100
AcDbEntity
  8
DETAIL
100
AcDbLine
 10
3751.600118347885
 20
364.9999999999972
 30
0.0
 11
3736.600118347885
 21
364.9999999999972
 31
0.0
  0
LINE
  5
B6A
330
1F
100
AcDbEntity
  8
DETAIL
100
AcDbLine
 10
3721.600118347888
 20
494.9999999999972
 30
0.0
 11
3721.600118347884
 21
-455.0000000000063
 31
0.0
  0
LINE
  5
B6B
330
1F
100
AcDbEntity
  8
DETAIL
100
AcDbLine
 10
3751.600118347885
 20
-325.0000000000027
 30
0.0
 11
3736.600118347885
 21
-325.0000000000027
 31
0.0
  0
CIRCLE
  5
B6C
330
1F
100
AcDbEntity
  8
DETAIL
100
AcDbCircle
 10
3662.605322991547
 20
-30.04714895459119
 30
0.0
 40
2.5
  0
CIRCLE
  5
B6D
330
1F
100
AcDbEntity
  8
DETAIL
100
AcDbCircle
 10
3506.697824739132
 20
-30.04714895459119
 30
0.0
 40
2.5
  0
TEXT
  5
B6E
330
1F
100
AcDbEntity
  8
NOTE
100
AcDbText
 10
3395.090028921439
 20
-914.8959036454121
 30
0.0
 40
45.0
  1
connecting port
 50
90.0
  7
KAIGAI
100
AcDbText
  0
TEXT
  5
B6F
330
1F
100
AcDbEntity
  8
NOTE
100
AcDbText
 10
3468.670518503874
 20
-904.9377820222666
 30
0.0
 40
45.0
  1
(Material:PP）
 50
90.0
  7
KAIGAI
100
AcDbText
  0
LINE
  5
B70
330
1F
100
AcDbEntity
  8
NOTE
100
AcDbLine
 10
3409.492207254281
 20
-438.466069025545
 30
0.0
 11
3409.492207254281
 21
-913.8281273563235
 31
0.0
1001
ACAD
1000
DSTYLE
1002
{
1070
   147
1040
20.0
1070
    77
1070
     0
1070
   279
1070
     0
1070
   341
1005
0
1070
   342
1005
0
1002
}
  0
LINE
  5
B71
330
1F
100
AcDbEntity
  8
NOTE
100
AcDbLine
 10
3505.69835891893
 20
-332.6022860540697
 30
0.0
 11
3409.492207254281
 21
-438.466069025545
 31
0.0
1001
ACAD
1000
DSTYLE
1002
{
1070
   147
1040
20.0
1070
    77
1070
     0
1070
   279
1070
     0
1070
   341
1005
0
1070
   342
1005
0
1002
}
  0
LINE
  5
B72
330
1F
100
AcDbEntity
  8
NOTE
100
AcDbLine
 10
3500.764644576587
 20
-328.1186594825767
 30
0.0
 11
3532.600118347885
 21
-303.0000000000045
 31
0.0
  0
LINE
  5
B73
330
1F
100
AcDbEntity
  8
NOTE
100
AcDbLine
 10
3510.632073261273
 20
-337.0859126255627
 30
0.0
 11
3532.600118347885
 21
-303.0000000000045
 31
0.0
  0
LINE
  5
B74
330
1F
100
AcDbEntity
  8
NOTE
100
AcDbLine
 10
3532.600118347885
 20
-303.0000000000045
 30
0.0
 11
3505.69835891893
 21
-332.6022860540697
 31
0.0
  0
TEXT
  5
B75
330
1F
100
AcDbEntity
  8
NOTE
100
AcDbText
 10
3336.689084157764
 20
-914.8959036454121
 30
0.0
 40
45.0
  1
Drain pipe
 50
90.0
  7
KAIGAI
100
AcDbText
  0
TEXT
  5
B76
330
1F
100
AcDbEntity
  8
NOTE
100
AcDbText
 10
3900.2197409363
 20
-794.2958888948492
 30
0.0
 40
45.0
  1
Knockout square hole
 50
90.0
  7
KAIGAI
100
AcDbText
  0
LINE
  5
B77
330
1F
100
AcDbEntity
  8
NOTE
100
AcDbLine
 10
3919.940118347881
 20
-926.7800000000052
 30
0.0
 11
3919.940118347883
 21
-122.4000000000041
 31
0.0
  0
LINE
  5
B78
330
1F
100
AcDbEntity
  8
NOTE
100
AcDbLine
 10
3919.940118347883
 20
-122.4000000000041
 30
0.0
 11
3644.06011834788
 21
-45.77000000000317
 31
0.0
  0
LINE
  5
B79
330
1F
100
AcDbEntity
  8
NOTE
100
AcDbLine
 10
3644.06011834788
 20
-45.77000000000317
 30
0.0
 11
3678.520118347886
 21
-66.09000000000469
 31
0.0
  0
POLYLINE
  5
B7A
330
1F
100
AcDbEntity
  8
NOTE
100
AcDb2dPolyline
 66
     1
 10
0.0
 20
0.0
 30
0.0
  0
VERTEX
  5
C46
330
B7A
100
AcDbEntity
  8
NOTE
100
AcDbVertex
100
AcDb2dVertex
 10
3249.980118347888
 20
1494.969999999999
 30
0.0
  0
VERTEX
  5
C47
330
B7A
100
AcDbEntity
  8
NOTE
100
AcDbVertex
100
AcDb2dVertex
 10
3249.980118347888
 20
491.4599999999982
 30
0.0
  0
VERTEX
  5
C48
330
B7A
100
AcDbEntity
  8
NOTE
100
AcDbVertex
100
AcDb2dVertex
 10
3605.620118347889
 20
264.3699999999926
 30
0.0
  0
VERTEX
  5
C49
330
B7A
100
AcDbEntity
  8
NOTE
100
AcDbVertex
100
AcDb2dVertex
 10
3567.490118347888
 20
276.4399999999923
 30
0.0
  0
SEQEND
  5
C4A
330
B7A
100
AcDbEntity
  8
NOTE
  0
TEXT
  5
B7B
330
1F
100
AcDbEntity
  8
NOTE
100
AcDbText
 10
3233.673223848294
 20
509.2773089104503
 30
0.0
 40
45.0
  1
connecting port    9.5(Liquid side)
 50
90.0
 41
1.04
  7
KAIGAI
100
AcDbText
  0
TEXT
  5
B7C
330
1F
100
AcDbEntity
  8
NOTE
100
AcDbText
 10
3182.361273630434
 20
510.1682061060619
 30
0.0
 40
45.0
  1
Refrigerant pipe
 50
90.0
 41
1.04
  7
KAIGAI
100
AcDbText
  0
ELLIPSE
  5
B7D
330
1F
100
AcDbEntity
  8
NOTE
100
AcDbEllipse
 10
3216.789066918922
 20
994.0467747163983
 30
0.0
 11
-0.0000000000001129
 21
-32.34923477197117
 31
0.0
210
0.0
220
0.0
230
1.0
 40
0.6458350059414575
 41
0.0
 42
6.283185307179585
  0
LINE
  5
B7E
330
1F
100
AcDbEntity
  8
NOTE
100
AcDbLine
 10
3171.068478818269
 20
1014.743070207803
 30
0.0
 11
3257.779408141606
 21
969.1600555404347
 31
0.0
  0
TEXT
  5
B7F
330
1F
100
AcDbEntity
  8
NOTE
100
AcDbText
 10
3418.734021681776
 20
480.1034268309704
 30
0.0
 40
45.0
  1
connecting port    15.9(Gas side)
 50
90.0
 41
1.04
  7
KAIGAI
100
AcDbText
  0
TEXT
  5
B80
330
1F
100
AcDbEntity
  8
NOTE
100
AcDbText
 10
3367.422071463916
 20
480.994324026582
 30
0.0
 40
45.0
  1
Refrigerant pipe
 50
90.0
 41
1.04
  7
KAIGAI
100
AcDbText
  0
ELLIPSE
  5
B81
330
1F
100
AcDbEntity
  8
NOTE
100
AcDbEllipse
 10
3401.849864752405
 20
964.8728926369221
 30
0.0
 11
-0.0000000000001129
 21
-32.34923477197117
 31
0.0
210
0.0
220
0.0
230
1.0
 40
0.6458350059414575
 41
0.0
 42
6.283185307179585
  0
LINE
  5
B82
330
1F
100
AcDbEntity
  8
NOTE
100
AcDbLine
 10
3356.129276651751
 20
985.5691881283236
 30
0.0
 11
3442.840205975088
 21
939.986173460954
 31
0.0
  0
LINE
  5
B83
330
1F
100
AcDbEntity
  8
NOTE
100
AcDbLine
 10
3429.193422800686
 20
1475.363952913532
 30
0.0
 11
3429.193422800683
 21
430.7939529135301
 31
0.0
  0
LINE
  5
B84
330
1F
100
AcDbEntity
  8
NOTE
100
AcDbLine
 10
3429.193422800683
 20
430.7939529135301
 30
0.0
 11
3544.610118347886
 21
339.5999999999939
 31
0.0
  0
LINE
  5
B85
330
1F
100
AcDbEntity
  8
NOTE
100
AcDbLine
 10
3544.610118347886
 20
339.5999999999939
 30
0.0
 11
3507.880118347885
 21
355.4299999999957
 31
0.0
  0
TEXT
  5
B86
330
1F
100
AcDbEntity
  8
NOTE
100
AcDbText
 10
3844.546704764517
 20
362.0426760013615
 30
0.0
 40
45.0
  1
Take-in port of wiring
 50
90.0
 41
0.9200000000000001
  7
KAIGAI
100
AcDbText
  0
TEXT
  5
B87
330
1F
100
AcDbEntity
  8
NOTE
100
AcDbText
 10
-254.2122156514478
 20
2872.848793957034
 30
0.0
 40
45.0
  1
   162
 50
180.0
  7
KAIGAI
100
AcDbText
  0
ELLIPSE
  5
B88
330
1F
100
AcDbEntity
  8
NOTE
100
AcDbEllipse
 10
-267.5557354967613
 20
2853.816665648293
 30
0.0
 11
32.34923477197117
 21
-0.000000000000099
 31
0.0
210
0.0
220
0.0
230
1.0
 40
0.6458350059414575
 41
0.0
 42
6.283185307179585
  0
LINE
  5
B89
330
1F
100
AcDbEntity
  8
NOTE
100
AcDbLine
 10
-288.2520309881647
 20
2808.096077547638
 30
0.0
 11
-242.6690163207958
 21
2894.807006870975
 31
0.0
  0
TEXT
  5
B8A
330
1F
100
AcDbEntity
  8
NOTE
100
AcDbText
 10
266.0494366995617
 20
2113.065481868695
 30
0.0
 40
45.0
  1
Unit external dimension
 50
180.0
 41
1.04
  7
KAIGAI
100
AcDbText
  0
TEXT
  5
B8B
330
1F
100
AcDbEntity
  8
NOTE
100
AcDbText
 10
-482.7516031377317
 20
2850.428423502856
 30
0.0
 40
45.0
  1
(2positions)
 50
180.0
 41
1.04
  7
KAIGAI
100
AcDbText
  0
LINE
  5
B8C
330
1F
100
AcDbEntity
  8
NOTE
100
AcDbLine
 10
-269.7526086814668
 20
2585.060729434165
 30
0.0
 11
-255.9999999999963
 21
2546.000000000001
 31
0.0
  0
LINE
  5
B8D
330
1F
100
AcDbEntity
  8
NOTE
100
AcDbLine
 10
-255.9999999999963
 20
2546.000000000001
 30
0.0
 11
-287.4404730812729
 21
2572.951279782234
 31
0.0
  0
LINE
  5
B8E
330
1F
100
AcDbEntity
  8
NOTE
100
AcDbLine
 10
-255.9999999999963
 20
2546.000000000001
 30
0.0
 11
-278.5965408813699
 21
2579.006004608201
 31
0.0
  0
LINE
  5
B8F
330
1F
100
AcDbEntity
  8
NOTE
100
AcDbLine
 10
-278.5965408813699
 20
2579.006004608201
 30
0.0
 11
-473.7657752074847
 21
2864.083118019686
 31
0.0
1001
ACAD
1000
DSTYLE
1002
{
1070
   147
1040
10.0
1070
    77
1070
     0
1002
}
  0
LINE
  5
B90
330
1F
100
AcDbEntity
  8
NOTE
100
AcDbLine
 10
-1161.049604835262
 20
2864.083118019686
 30
0.0
 11
-473.7657752074847
 21
2864.083118019686
 31
0.0
  0
TEXT
  5
B91
330
1F
100
AcDbEntity
  8
NOTE
100
AcDbText
 10
-482.7516031377317
 20
2788.755367233406
 30
0.0
 40
45.0
  1
Knockout square hole
 50
180.0
 41
1.04
  7
KAIGAI
100
AcDbText
  0
TEXT
  5
B92
330
1F
100
AcDbEntity
  8
NOTE
100
AcDbText
 10
-1997.118849947681
 20
260.7561105854174
 30
0.0
 40
45.0
  1
Unit external dimension
 50
270.0
 41
1.04
  7
KAIGAI
100
AcDbText
  0
TEXT
  5
B93
330
1F
100
AcDbEntity
  8
NOTE
100
AcDbText
 10
-2592.002383207094
 20
-447.9489569991028
 30
0.0
 40
45.0
  1
Knockout square hole
 50
270.0
 41
1.04
  7
KAIGAI
100
AcDbText
  0
LINE
  5
B94
330
1F
100
AcDbEntity
  8
NOTE
100
AcDbLine
 10
-2391.066461892359
 20
-245.0927363190467
 30
0.0
 11
-2372.987319740067
 21
-234.9999999999936
 31
0.0
  0
LINE
  5
B95
330
1F
100
AcDbEntity
  8
NOTE
100
AcDbLine
 10
-2372.987319740067
 20
-234.9999999999936
 30
0.0
 11
-2383.597948043715
 21
-252.7801370740007
 31
0.0
  0
LINE
  5
B96
330
1F
100
AcDbEntity
  8
NOTE
100
AcDbLine
 10
-2372.987319740067
 20
-234.9999999999936
 30
0.0
 11
-2387.332204968037
 21
-248.9364366965237
 31
0.0
  0
LINE
  5
B97
330
1F
100
AcDbEntity
  8
NOTE
100
AcDbLine
 10
-2387.332204968037
 20
-248.9364366965237
 30
0.0
 11
-2598.766064429385
 21
-454.3500423865053
 31
0.0
1001
ACAD
1000
DSTYLE
1002
{
1070
   147
1040
10.0
1070
    77
1070
     0
1002
}
  0
LINE
  5
B98
330
1F
100
AcDbEntity
  8
NOTE
100
AcDbLine
 10
-2598.766064429385
 20
-454.3500423865053
 30
0.0
 11
-2598.766064429385
 21
-1093.955735453143
 31
0.0
1001
ACAD
1000
DSTYLE
1002
{
1070
   147
1040
10.0
1070
    77
1070
     0
1002
}
  0
TEXT
  5
B99
330
1F
100
AcDbEntity
  8
NOTE
100
AcDbText
 10
-1954.996006034627
 20
1230.526961992061
 30
0.0
 40
45.0
  1
Knockout square hole
 50
270.0
 41
1.04
  7
KAIGAI
100
AcDbText
  0
LINE
  5
B9A
330
1F
100
AcDbEntity
  8
NOTE
100
AcDbLine
 10
-2313.241042721142
 20
45.70579450921468
 30
0.0
 11
-2328.458995912077
 21
31.66540249021545
 31
0.0
  0
LINE
  5
B9B
330
1F
100
AcDbEntity
  8
NOTE
100
AcDbLine
 10
-2328.458995912077
 20
31.66540249021545
 30
0.0
 11
-2322.300057774945
 21
51.43371522528832
 31
0.0
  0
LINE
  5
B9C
330
1F
100
AcDbEntity
  8
NOTE
100
AcDbLine
 10
-2328.458995912077
 20
31.66540249021545
 30
0.0
 11
-2317.770550248045
 21
48.56975486725151
 31
0.0
  0
LINE
  5
B9D
330
1F
100
AcDbEntity
  8
NOTE
100
AcDbLine
 10
-2317.770550248045
 20
48.56975486725151
 30
0.0
 11
-1977.777290808629
 21
586.2874028804354
 31
0.0
1001
ACAD
1000
DSTYLE
1002
{
1070
   147
1040
10.0
1070
    77
1070
     0
1002
}
  0
LINE
  5
B9E
330
1F
100
AcDbEntity
  8
NOTE
100
AcDbLine
 10
-1977.777290808629
 20
586.2874028804354
 30
0.0
 11
-1977.777290808629
 21
1273.75795227893
 31
0.0
1001
ACAD
1000
DSTYLE
1002
{
1070
   147
1040
10.0
1070
    77
1070
     0
1002
}
  0
LINE
  5
B9F
330
1F
100
AcDbEntity
  8
SIZE
100
AcDbLine
 10
9.99999999999909
 20
475.0000000000008
 30
0.0
 11
-587.209237850001
 21
475.0000000000008
 31
0.0
  0
LINE
  5
BA0
330
1F
100
AcDbEntity
  8
SIZE
100
AcDbLine
 10
9.99999999999909
 20
675.0000000000008
 30
0.0
 11
-587.209237850001
 21
675.0000000000008
 31
0.0
  0
LINE
  5
BA1
330
1F
100
AcDbEntity
  8
SIZE
100
AcDbLine
 10
-577.209237850001
 20
495.0000000000009
 30
0.0
 11
-577.209237850001
 21
655.0000000000009
 31
0.0
  0
TEXT
  5
BA2
330
1F
100
AcDbEntity
  8
SIZE
100
AcDbText
 10
-587.8913660901098
 20
528.9017735334264
 30
0.0
 40
40.0
  1
200
 50
90.0
  7
KAIGAI
100
AcDbText
  0
LINE
  5
BA3
330
1F
100
AcDbEntity
  8
SIZE
100
AcDbLine
 10
-582.5682216500008
 20
655.0000000000009
 30
0.0
 11
-577.209237850001
 21
675.0000000000008
 31
0.0
  0
LINE
  5
BA4
330
1F
100
AcDbEntity
  8
SIZE
100
AcDbLine
 10
-577.209237850001
 20
675.0000000000008
 30
0.0
 11
-571.8502540500012
 21
655.0000000000009
 31
0.0
  0
LINE
  5
BA5
330
1F
100
AcDbEntity
  8
SIZE
100
AcDbLine
 10
-577.209237850001
 20
675.0000000000008
 30
0.0
 11
-577.209237850001
 21
655.0000000000009
 31
0.0
  0
LINE
  5
BA6
330
1F
100
AcDbEntity
  8
SIZE
100
AcDbLine
 10
-571.8502540500012
 20
495.0000000000009
 30
0.0
 11
-577.209237850001
 21
475.0000000000008
 31
0.0
  0
LINE
  5
BA7
330
1F
100
AcDbEntity
  8
SIZE
100
AcDbLine
 10
-577.209237850001
 20
475.0000000000008
 30
0.0
 11
-582.5682216500008
 21
495.0000000000009
 31
0.0
  0
LINE
  5
BA8
330
1F
100
AcDbEntity
  8
SIZE
100
AcDbLine
 10
-577.209237850001
 20
475.0000000000008
 30
0.0
 11
-577.209237850001
 21
495.0000000000009
 31
0.0
  0
ENDSEC
  0
SECTION
  2
OBJECTS
  0
DICTIONARY
  5
C
330
0
100
AcDbDictionary
  3
ACAD_GROUP
350
D
  3
ACAD_LAYOUT
350
1A
  3
ACAD_MLINESTYLE
350
17
  3
ACAD_PLOTSETTINGS
350
19
1001
ACAD
1000
TREAT_AS_HARD
1070
     0
  0
DICTIONARY
  5
2B
330
2
100
AcDbDictionary
  3
ACAD_LAYERFILTERS
350
2C
  3
ACAD_LAYERSTATES
350
41
1001
ACAD
1000
TREAT_AS_HARD
1070
     1
  0
DICTIONARY
  5
BA9
330
1F
100
AcDbDictionary
  3
ACAD_LAYOUTSELFREF
350
BC7
  3
ACAD_SORTENTS
350
BAA
1001
ACAD
1000
TREAT_AS_HARD
1070
     1
  0
DICTIONARY
  5
BC5
330
1B
100
AcDbDictionary
  3
ACAD_LAYOUTSELFREF
350
BC6
  0
DICTIONARY
  5
D
102
{ACAD_REACTORS
330
C
102
}
330
C
100
AcDbDictionary
1001
ACAD
1000
TREAT_AS_HARD
1070
     0
  0
DICTIONARY
  5
1A
102
{ACAD_REACTORS
330
C
102
}
330
C
100
AcDbDictionary
1001
ACAD
1000
TREAT_AS_HARD
1070
     0
  0
DICTIONARY
  5
17
102
{ACAD_REACTORS
330
C
102
}
330
C
100
AcDbDictionary
  3
STANDARD
350
18
1001
ACAD
1000
TREAT_AS_HARD
1070
     0
  0
DICTIONARY
  5
19
102
{ACAD_REACTORS
330
C
102
}
330
C
100
AcDbDictionary
1001
ACAD
1000
TREAT_AS_HARD
1070
     0
  0
DICTIONARY
  5
2C
102
{ACAD_REACTORS
330
2B
102
}
330
2B
100
AcDbDictionary
  3
MOTO
350
2D
  3
元図
350
2E
1001
ACAD
1000
TREAT_AS_HARD
1070
     1
  0
DICTIONARY
  5
41
102
{ACAD_REACTORS
330
2B
102
}
330
2B
100
AcDbDictionary
1001
ACAD
1000
TREAT_AS_HARD
1070
     0
  0
XRECORD
  5
BC7
102
{ACAD_REACTORS
330
BA9
102
}
330
BA9
100
AcDbXrecord
340
1F
  0
SORTENTSTABLE
  5
BAA
102
{ACAD_REACTORS
330
BA9
102
}
330
BA9
100
AcDbSortentsTable
330
1F
331
6E0
  5
6E0
331
6A2
  5
6A2
331
66C
  5
66C
331
62E
  5
62E
331
64D
  5
64D
331
68B
  5
68B
331
6C1
  5
6C1
331
AA0
  5
947
331
A4B
  5
8F2
331
A0D
  5
B6E
331
9EE
  5
B4F
331
A2C
  5
8D3
331
A62
  5
909
331
A81
  5
928
331
6C2
  5
6C2
331
68C
  5
68C
331
62F
  5
62F
331
64E
  5
64E
331
66D
  5
66D
331
6A3
  5
6A3
331
6E1
  5
6E1
331
700
  5
700
331
AC0
  5
967
331
A63
  5
90A
331
A2D
  5
8D4
331
9EF
  5
B50
331
A0E
  5
B6F
331
A4C
  5
8F3
331
A82
  5
929
331
AA1
  5
948
331
6E2
  5
6E2
331
6A4
  5
6A4
331
64F
  5
64F
331
630
  5
630
331
66E
  5
66E
331
68D
  5
68D
331
6C3
  5
6C3
331
701
  5
701
331
718
  5
718
331
808
  5
808
331
AD8
  5
97F
331
AA2
  5
949
331
A4D
  5
8F4
331
A0F
  5
B70
331
9F0
  5
B51
331
A2E
  5
8D5
331
A64
  5
90B
331
A83
  5
92A
331
AC1
  5
968
331
702
  5
702
331
6C4
  5
6C4
331
68E
  5
68E
331
631
  5
631
331
650
  5
650
331
66F
  5
66F
331
6A5
  5
6A5
331
6E3
  5
6E3
331
719
  5
719
331
738
  5
738
331
809
  5
809
331
828
  5
828
331
AF8
  5
99F
331
AC2
  5
969
331
A65
  5
90C
331
A2F
  5
8D6
331
9F1
  5
B52
331
A10
  5
B71
331
A4E
  5
8F5
331
A84
  5
92B
331
AA3
  5
94A
331
AD9
  5
980
331
739
  5
739
331
6E4
  5
6E4
331
6A6
  5
6A6
331
651
  5
651
331
632
  5
632
331
670
  5
670
331
68F
  5
68F
331
6C5
  5
6C5
331
703
  5
703
331
71A
  5
71A
331
758
  5
758
331
829
  5
829
331
80A
  5
80A
331
848
  5
848
331
B18
  5
9BF
331
ADA
  5
981
331
A85
  5
92C
331
A4F
  5
8F6
331
A11
  5
B72
331
9F2
  5
B53
331
A30
  5
8D7
331
A66
  5
90D
331
AA4
  5
94B
331
AC3
  5
96A
331
AF9
  5
9A0
331
759
  5
759
331
704
  5
704
331
6C6
  5
6C6
331
671
  5
671
331
633
  5
633
331
652
  5
652
331
690
  5
690
331
6A7
  5
6A7
331
6E5
  5
6E5
331
71B
  5
71B
331
73A
  5
73A
331
778
  5
778
331
849
  5
849
331
80B
  5
80B
331
82A
  5
82A
331
868
  5
868
331
B38
  5
9DF
331
AFA
  5
9A1
331
AC4
  5
96B
331
A67
  5
90E
331
A31
  5
8D8
331
9F3
  5
B54
331
A12
  5
B73
331
A50
  5
8F7
331
A86
  5
92D
331
AA5
  5
94C
331
ADB
  5
982
331
B19
  5
9C0
331
779
  5
779
331
71C
  5
71C
331
6E6
  5
6E6
331
691
  5
691
331
653
  5
653
331
634
  5
634
331
672
  5
672
331
6A8
  5
6A8
331
6C7
  5
6C7
331
705
  5
705
331
73B
  5
73B
331
75A
  5
75A
331
790
  5
790
331
869
  5
869
331
82B
  5
82B
331
80C
  5
80C
331
84A
  5
84A
331
880
  5
880
331
B1A
  5
9C1
331
ADC
  5
983
331
A87
  5
92E
331
A51
  5
8F8
331
9F4
  5
B55
331
A13
  5
B74
331
A32
  5
8D9
331
A68
  5
90F
331
AA6
  5
94D
331
AC5
  5
96C
331
AFB
  5
9A2
331
B39
  5
9E0
331
B50
  5
B8B
331
791
  5
791
331
75B
  5
75B
331
706
  5
706
331
6C8
  5
6C8
331
673
  5
673
331
635
  5
635
331
654
  5
654
331
692
  5
692
331
6A9
  5
6A9
331
6E7
  5
6E7
331
71D
  5
71D
331
73C
  5
73C
331
77A
  5
77A
331
7B0
  5
7B0
331
881
  5
881
331
84B
  5
84B
331
80D
  5
80D
331
82C
  5
82C
331
86A
  5
86A
331
8A0
  5
8A0
331
B3A
  5
9E1
331
AFC
  5
9A3
331
AA7
  5
94E
331
A52
  5
8F9
331
A33
  5
8DA
331
9F5
  5
B56
331
A14
  5
B75
331
A69
  5
910
331
A88
  5
92F
331
AC6
  5
96D
331
ADD
  5
984
331
B1B
  5
9C2
331
B51
  5
B8C
331
B70
  5
9E8
331
7B1
  5
7B1
331
77B
  5
77B
331
71E
  5
71E
331
6E8
  5
6E8
331
693
  5
693
331
655
  5
655
331
636
  5
636
331
674
  5
674
331
6AA
  5
6AA
331
6C9
  5
6C9
331
707
  5
707
331
73D
  5
73D
331
75C
  5
75C
331
792
  5
792
331
7D0
  5
7D0
331
8C0
  5
A21
331
86B
  5
86B
331
82D
  5
82D
331
80E
  5
80E
331
84C
  5
84C
331
882
  5
882
331
8A1
  5
8A1
331
B52
  5
B8D
331
B1C
  5
9C3
331
ADE
  5
985
331
A89
  5
930
331
A53
  5
8FA
331
9F6
  5
B57
331
A15
  5
B76
331
A34
  5
8DB
331
A6A
  5
911
331
AA8
  5
94F
331
AC7
  5
96E
331
AFD
  5
9A4
331
B3B
  5
9E2
331
B71
  5
9E9
331
B90
  5
A08
331
610
  5
610
331
7D1
  5
7D1
331
793
  5
793
331
73E
  5
73E
331
708
  5
708
331
6CA
  5
6CA
331
675
  5
675
331
637
  5
637
331
656
  5
656
331
694
  5
694
331
6AB
  5
6AB
331
6E9
  5
6E9
331
71F
  5
71F
331
75D
  5
75D
331
77C
  5
77C
331
7B2
  5
7B2
331
7F0
  5
7F0
331
8E0
  5
A41
331
883
  5
883
331
84D
  5
84D
331
80F
  5
80F
331
82E
  5
82E
331
86C
  5
86C
331
8A2
  5
8A2
331
8C1
  5
A22
331
B91
  5
A09
331
B3C
  5
9E3
331
AFE
  5
9A5
331
AA9
  5
950
331
A54
  5
8FB
331
A16
  5
B77
331
9F7
  5
B58
331
A35
  5
8DC
331
A6B
  5
912
331
A8A
  5
931
331
AC8
  5
96F
331
ADF
  5
986
331
B1D
  5
9C4
331
B53
  5
B8E
331
B72
  5
9EA
331
611
  5
611
331
7F1
  5
7F1
331
7B3
  5
7B3
331
77D
  5
77D
331
720
  5
720
331
6EA
  5
6EA
331
695
  5
695
331
657
  5
657
331
638
  5
638
331
676
  5
676
331
6AC
  5
6AC
331
6CB
  5
6CB
331
709
  5
709
331
73F
  5
73F
331
75E
  5
75E
331
794
  5
794
331
7D2
  5
7D2
331
8F8
  5
A59
331
8A3
  5
8A3
331
86D
  5
86D
331
82F
  5
82F
331
810
  5
810
331
84E
  5
84E
331
884
  5
884
331
8C2
  5
A23
331
8E1
  5
A42
331
B54
  5
B8F
331
B1E
  5
9C5
331
AC9
  5
970
331
A8B
  5
932
331
A55
  5
8FC
331
9F8
  5
B59
331
A17
  5
B78
331
A36
  5
8DD
331
A6C
  5
913
331
AAA
  5
951
331
AE0
  5
987
331
AFF
  5
9A6
331
B3D
  5
9E4
331
B73
  5
9EB
331
B92
  5
A0A
331
612
  5
612
331
7D3
  5
7D3
331
795
  5
795
331
740
  5
740
331
70A
  5
70A
331
6AD
  5
6AD
331
677
  5
677
331
639
  5
639
331
658
  5
658
331
696
  5
696
331
6CC
  5
6CC
331
6EB
  5
6EB
331
721
  5
721
331
75F
  5
75F
331
77E
  5
77E
331
7B4
  5
7B4
331
7F2
  5
7F2
331
918
  5
A79
331
8E2
  5
A43
331
885
  5
885
331
84F
  5
84F
331
811
  5
811
331
830
  5
830
331
86E
  5
86E
331
8A4
  5
8A4
331
8C3
  5
A24
331
8F9
  5
A5A
331
B74
  5
9EC
331
B3E
  5
9E5
331
B00
  5
9A7
331
AAB
  5
952
331
A56
  5
8FD
331
A18
  5
B79
331
9F9
  5
B5A
331
A37
  5
8DE
331
A6D
  5
914
331
A8C
  5
933
331
ACA
  5
971
331
AE1
  5
988
331
B1F
  5
9C6
331
B55
  5
B90
331
B93
  5
A0B
331
613
  5
613
331
7F3
  5
7F3
331
7B5
  5
7B5
331
760
  5
760
331
70B
  5
70B
331
6EC
  5
6EC
331
697
  5
697
331
659
  5
659
331
63A
  5
63A
331
678
  5
678
331
6AE
  5
6AE
331
6CD
  5
6CD
331
722
  5
722
331
741
  5
741
331
77F
  5
77F
331
796
  5
796
331
7D4
  5
7D4
331
938
  5
A99
331
8FA
  5
A5B
331
8A5
  5
8A5
331
86F
  5
86F
331
812
  5
812
331
831
  5
831
331
850
  5
850
331
886
  5
886
331
8C4
  5
A25
331
8E3
  5
A44
331
919
  5
A7A
331
B56
  5
B91
331
B20
  5
9C7
331
ACB
  5
972
331
A8D
  5
934
331
A38
  5
8DF
331
9FA
  5
B5B
331
A57
  5
8FE
331
A6E
  5
915
331
AAC
  5
953
331
AE2
  5
989
331
B01
  5
9A8
331
B3F
  5
B7A
331
B75
  5
9ED
331
B94
  5
A0C
331
614
  5
614
331
7D5
  5
7D5
331
780
  5
780
331
742
  5
742
331
70C
  5
70C
331
6AF
  5
6AF
331
679
  5
679
331
63B
  5
63B
331
65A
  5
65A
331
698
  5
698
331
6CE
  5
6CE
331
6ED
  5
6ED
331
723
  5
723
331
761
  5
761
331
797
  5
797
331
7B6
  5
7B6
331
7F4
  5
7F4
331
958
  5
AB9
331
91A
  5
A7B
331
8C5
  5
A26
331
870
  5
870
331
851
  5
851
331
813
  5
813
331
832
  5
832
331
887
  5
887
331
8A6
  5
8A6
331
8E4
  5
A45
331
8FB
  5
A5C
331
939
  5
A9A
331
B76
  5
9EE
331
B40
  5
B7B
331
AE3
  5
98A
331
AAD
  5
954
331
A58
  5
8FF
331
A1A
  5
8C1
331
9FB
  5
B5C
331
A39
  5
8E0
331
A6F
  5
916
331
A8E
  5
935
331
ACC
  5
973
331
B02
  5
9A9
331
B21
  5
9C8
331
B57
  5
B92
331
B95
  5
A0D
331
615
  5
615
331
7F5
  5
7F5
331
7B7
  5
7B7
331
762
  5
762
331
70D
  5
70D
331
6CF
  5
6CF
331
699
  5
699
331
65B
  5
65B
331
63C
  5
63C
331
67A
  5
67A
331
6B0
  5
6B0
331
6EE
  5
6EE
331
724
  5
724
331
743
  5
743
331
781
  5
781
331
798
  5
798
331
7D6
  5
7D6
331
970
  5
AD1
331
93A
  5
A9B
331
8FC
  5
A5D
331
8A7
  5
8A7
331
871
  5
871
331
814
  5
814
331
833
  5
833
331
852
  5
852
331
888
  5
888
331
8C6
  5
A27
331
8E5
  5
A46
331
91B
  5
A7C
331
959
  5
ABA
331
B96
  5
A0E
331
B41
  5
B7C
331
B22
  5
9C9
331
ACD
  5
974
331
A8F
  5
936
331
A3A
  5
8E1
331
9FC
  5
B5D
331
A1B
  5
8C2
331
A59
  5
900
331
A70
  5
917
331
AAE
  5
955
331
AE4
  5
98B
331
B03
  5
9AA
331
B58
  5
B93
331
B77
  5
9EF
331
616
  5
616
331
7D7
  5
7D7
331
782
  5
782
331
744
  5
744
331
70E
  5
70E
331
6B1
  5
6B1
331
67B
  5
67B
331
63D
  5
63D
331
65C
  5
65C
331
69A
  5
69A
331
6D0
  5
6D0
331
6EF
  5
6EF
331
725
  5
725
331
763
  5
763
331
799
  5
799
331
7B8
  5
7B8
331
7F6
  5
7F6
331
95A
  5
ABB
331
91C
  5
A7D
331
8C7
  5
A28
331
872
  5
872
331
834
  5
834
331
815
  5
815
331
853
  5
853
331
889
  5
889
331
8A8
  5
8A8
331
8E6
  5
A47
331
8FD
  5
A5E
331
93B
  5
A9C
331
971
  5
AD2
331
990
  5
AF1
331
B78
  5
9F0
331
B42
  5
B7D
331
AE5
  5
98C
331
AAF
  5
956
331
A5A
  5
901
331
A1C
  5
8C3
331
9FD
  5
B5E
331
A3B
  5
8E2
331
A71
  5
918
331
A90
  5
937
331
ACE
  5
975
331
B04
  5
9AB
331
B23
  5
9CA
331
B59
  5
B94
331
B97
  5
A0F
331
5F8
  5
5F8
331
617
  5
617
331
7F7
  5
7F7
331
7B9
  5
7B9
331
764
  5
764
331
70F
  5
70F
331
6D1
  5
6D1
331
69B
  5
69B
331
63E
  5
63E
331
65D
  5
65D
331
67C
  5
67C
331
6B2
  5
6B2
331
6F0
  5
6F0
331
726
  5
726
331
745
  5
745
331
783
  5
783
331
79A
  5
79A
331
7D8
  5
7D8
331
972
  5
AD3
331
93C
  5
A9D
331
8E7
  5
A48
331
8A9
  5
8A9
331
873
  5
873
331
816
  5
816
331
835
  5
835
331
854
  5
854
331
88A
  5
88A
331
8C8
  5
A29
331
8FE
  5
A5F
331
91D
  5
A7E
331
95B
  5
ABC
331
991
  5
AF2
331
9B0
  5
B11
331
B98
  5
A10
331
B43
  5
B7E
331
B05
  5
9AC
331
ACF
  5
976
331
A91
  5
938
331
A3C
  5
8E3
331
9FE
  5
B5F
331
A1D
  5
8C4
331
A5B
  5
902
331
A72
  5
919
331
AB0
  5
957
331
AE6
  5
98D
331
B24
  5
9CB
331
B5A
  5
B95
331
B79
  5
9F1
331
5F9
  5
5F9
331
618
  5
618
331
7F8
  5
7F8
331
7D9
  5
7D9
331
784
  5
784
331
746
  5
746
331
6F1
  5
6F1
331
69C
  5
69C
331
67D
  5
67D
331
63F
  5
63F
331
65E
  5
65E
331
6B3
  5
6B3
331
6D2
  5
6D2
331
710
  5
710
331
727
  5
727
331
765
  5
765
331
79B
  5
79B
331
7BA
  5
7BA
331
992
  5
AF3
331
95C
  5
ABD
331
91E
  5
A7F
331
8C9
  5
A2A
331
874
  5
874
331
836
  5
836
331
817
  5
817
331
855
  5
855
331
88B
  5
88B
331
8AA
  5
8AA
331
8E8
  5
A49
331
8FF
  5
A60
331
93D
  5
A9E
331
973
  5
AD4
331
9B1
  5
B12
331
9D0
  5
B31
331
B7A
  5
9F2
331
B44
  5
B7F
331
AE7
  5
98E
331
AB1
  5
958
331
A5C
  5
903
331
A1E
  5
8C5
331
9FF
  5
B60
331
A3D
  5
8E4
331
A73
  5
91A
331
A92
  5
939
331
AD0
  5
977
331
B06
  5
9AD
331
B25
  5
9CC
331
B5B
  5
B96
331
B99
  5
A11
331
5FA
  5
5FA
331
619
  5
619
331
7F9
  5
7F9
331
79C
  5
79C
331
766
  5
766
331
711
  5
711
331
6D3
  5
6D3
331
69D
  5
69D
331
640
  5
640
331
65F
  5
65F
331
67E
  5
67E
331
6B4
  5
6B4
331
6F2
  5
6F2
331
728
  5
728
331
747
  5
747
331
785
  5
785
331
7BB
  5
7BB
331
7DA
  5
7DA
331
9D1
  5
B32
331
974
  5
AD5
331
93E
  5
A9F
331
8E9
  5
A4A
331
8AB
  5
8AB
331
856
  5
856
331
818
  5
818
331
837
  5
837
331
875
  5
875
331
88C
  5
88C
331
8CA
  5
A2B
331
900
  5
A61
331
91F
  5
A80
331
95D
  5
ABE
331
993
  5
AF4
331
9B2
  5
B13
331
B9A
  5
A12
331
B45
  5
B80
331
B07
  5
9AE
331
AD1
  5
978
331
A74
  5
91B
331
A3E
  5
8E5
331
A00
  5
B61
331
A1F
  5
8C6
331
A5D
  5
904
331
A93
  5
93A
331
AB2
  5
959
331
AE8
  5
98F
331
B26
  5
9CD
331
B5C
  5
B97
331
B7B
  5
9F3
331
5FB
  5
5FB
331
61A
  5
61A
331
7FA
  5
7FA
331
7DB
  5
7DB
331
786
  5
786
331
748
  5
748
331
6F3
  5
6F3
331
69E
  5
69E
331
660
  5
660
331
641
  5
641
331
67F
  5
67F
331
6B5
  5
6B5
331
6D4
  5
6D4
331
712
  5
712
331
729
  5
729
331
767
  5
767
331
79D
  5
79D
331
7BC
  5
7BC
331
994
  5
AF5
331
95E
  5
ABF
331
901
  5
A62
331
8CB
  5
A2C
331
876
  5
876
331
838
  5
838
331
819
  5
819
331
857
  5
857
331
88D
  5
88D
331
8AC
  5
8AC
331
8EA
  5
A4B
331
920
  5
A81
331
93F
  5
AA0
331
975
  5
AD6
331
9B3
  5
B14
331
9D2
  5
B33
331
B7C
  5
9F4
331
B27
  5
9CE
331
AD2
  5
979
331
AB3
  5
95A
331
A5E
  5
905
331
A20
  5
8C7
331
A01
  5
B62
331
A3F
  5
8E6
331
A75
  5
91C
331
A94
  5
93B
331
AE9
  5
990
331
B08
  5
9AF
331
B46
  5
B81
331
B5D
  5
B98
331
B9B
  5
A13
331
5FC
  5
5FC
331
61B
  5
61B
331
7FB
  5
7FB
331
79E
  5
79E
331
768
  5
768
331
713
  5
713
331
6D5
  5
6D5
331
69F
  5
69F
331
642
  5
642
331
661
  5
661
331
680
  5
680
331
6B6
  5
6B6
331
6F4
  5
6F4
331
72A
  5
72A
331
749
  5
749
331
787
  5
787
331
7BD
  5
7BD
331
7DC
  5
7DC
331
9B4
  5
B15
331
976
  5
AD7
331
940
  5
AA1
331
8EB
  5
A4C
331
8AD
  5
8AD
331
858
  5
858
331
81A
  5
81A
331
839
  5
839
331
877
  5
877
331
88E
  5
88E
331
8CC
  5
A2D
331
902
  5
A63
331
921
  5
A82
331
95F
  5
AC0
331
995
  5
AF6
331
9D3
  5
B34
331
B9C
  5
A14
331
B47
  5
B82
331
B09
  5
9B0
331
AD3
  5
97A
331
A76
  5
91D
331
A40
  5
8E7
331
A02
  5
B63
331
A21
  5
8C8
331
A5F
  5
906
331
A95
  5
93C
331
AB4
  5
95B
331
AEA
  5
991
331
B28
  5
9CF
331
B5E
  5
B99
331
B7D
  5
9F5
331
61C
  5
61C
331
5FD
  5
5FD
331
7FC
  5
7FC
331
7BE
  5
7BE
331
788
  5
788
331
74A
  5
74A
331
6F5
  5
6F5
331
6B7
  5
6B7
331
662
  5
662
331
643
  5
643
331
681
  5
681
331
6D6
  5
6D6
331
714
  5
714
331
72B
  5
72B
331
769
  5
769
331
79F
  5
79F
331
7DD
  5
7DD
331
996
  5
AF7
331
960
  5
AC1
331
903
  5
A64
331
8CD
  5
A2E
331
878
  5
878
331
83A
  5
83A
331
81B
  5
81B
331
859
  5
859
331
88F
  5
88F
331
8AE
  5
8AE
331
8EC
  5
A4D
331
922
  5
A83
331
941
  5
AA2
331
977
  5
AD8
331
9B5
  5
B16
331
9D4
  5
B35
331
B7E
  5
9F6
331
B29
  5
9D0
331
AD4
  5
97B
331
A96
  5
93D
331
A77
  5
91E
331
A22
  5
8C9
331
A03
  5
B64
331
A41
  5
8E8
331
AB5
  5
95C
331
AEB
  5
992
331
B0A
  5
9B1
331
B48
  5
B83
331
B5F
  5
B9A
331
B9D
  5
A15
331
5FE
  5
5FE
331
61D
  5
61D
331
7FD
  5
7FD
331
7A0
  5
7A0
331
76A
  5
76A
331
715
  5
715
331
6D7
  5
6D7
331
682
  5
682
331
644
  5
644
331
663
  5
663
331
6B8
  5
6B8
331
6F6
  5
6F6
331
72C
  5
72C
331
74B
  5
74B
331
789
  5
789
331
7BF
  5
7BF
331
7DE
  5
7DE
331
9B6
  5
B17
331
961
  5
AC2
331
923
  5
A84
331
8ED
  5
A4E
331
8AF
  5
8AF
331
85A
  5
85A
331
81C
  5
81C
331
83B
  5
83B
331
879
  5
879
331
890
  5
890
331
8CE
  5
A2F
331
904
  5
A65
331
942
  5
AA3
331
978
  5
AD9
331
997
  5
AF8
331
9D5
  5
B36
331
B9E
  5
A16
331
B49
  5
B84
331
B0B
  5
9B2
331
AD5
  5
97C
331
A78
  5
91F
331
A42
  5
8E9
331
A04
  5
B65
331
A23
  5
8CA
331
A97
  5
93E
331
AB6
  5
95D
331
AEC
  5
993
331
B2A
  5
9D1
331
B60
  5
B9B
331
B7F
  5
9F7
331
5FF
  5
5FF
331
61E
  5
61E
331
7FE
  5
7FE
331
7C0
  5
7C0
331
78A
  5
78A
331
72D
  5
72D
331
6F7
  5
6F7
331
6B9
  5
6B9
331
664
  5
664
331
645
  5
645
331
683
  5
683
331
6D8
  5
6D8
331
716
  5
716
331
74C
  5
74C
331
76B
  5
76B
331
7A1
  5
7A1
331
7DF
  5
7DF
331
9D6
  5
B37
331
998
  5
AF9
331
962
  5
AC3
331
905
  5
A66
331
8CF
  5
A30
331
87A
  5
87A
331
83C
  5
83C
331
81D
  5
81D
331
85B
  5
85B
331
891
  5
891
331
8B0
  5
8B0
331
8EE
  5
A4F
331
924
  5
A85
331
943
  5
AA4
331
979
  5
ADA
331
9B7
  5
B18
331
B80
  5
9F8
331
B2B
  5
9D2
331
AD6
  5
97D
331
A98
  5
93F
331
A79
  5
920
331
A05
  5
B66
331
A24
  5
8CB
331
A43
  5
8EA
331
AB7
  5
95E
331
AED
  5
994
331
B0C
  5
9B3
331
B4A
  5
B85
331
B61
  5
B9C
331
B9F
  5
A17
331
600
  5
600
331
61F
  5
61F
331
7E0
  5
7E0
331
78B
  5
78B
331
76C
  5
76C
331
717
  5
717
331
6D9
  5
6D9
331
684
  5
684
331
646
  5
646
331
665
  5
665
331
6BA
  5
6BA
331
6F8
  5
6F8
331
72E
  5
72E
331
74D
  5
74D
331
7A2
  5
7A2
331
7C1
  5
7C1
331
7FF
  5
7FF
331
9B8
  5
B19
331
963
  5
AC4
331
925
  5
A86
331
8EF
  5
A50
331
892
  5
892
331
85C
  5
85C
331
81E
  5
81E
331
83D
  5
83D
331
87B
  5
87B
331
8B1
  5
8B1
331
8D0
  5
A31
331
906
  5
A67
331
944
  5
AA5
331
97A
  5
ADB
331
999
  5
AFA
331
9D7
  5
B38
331
BA0
  5
A18
331
B4B
  5
B86
331
B0D
  5
9B4
331
AB8
  5
95F
331
A7A
  5
921
331
A44
  5
8EB
331
A06
  5
B67
331
A25
  5
8CC
331
A99
  5
940
331
AD7
  5
97E
331
AEE
  5
995
331
B2C
  5
9D3
331
B62
  5
B9D
331
B81
  5
9F9
331
601
  5
601
331
620
  5
620
331
800
  5
800
331
7C2
  5
7C2
331
78C
  5
78C
331
72F
  5
72F
331
6F9
  5
6F9
331
6BB
  5
6BB
331
666
  5
666
331
647
  5
647
331
685
  5
685
331
6DA
  5
6DA
331
74E
  5
74E
331
76D
  5
76D
331
7A3
  5
7A3
331
7E1
  5
7E1
331
9D8
  5
B39
331
99A
  5
AFB
331
945
  5
AA6
331
8F0
  5
A51
331
8D1
  5
A32
331
87C
  5
87C
331
83E
  5
83E
331
81F
  5
81F
331
85D
  5
85D
331
893
  5
893
331
8B2
  5
8B2
331
907
  5
A68
331
926
  5
A87
331
964
  5
AC5
331
97B
  5
ADC
331
9B9
  5
B1A
331
B63
  5
B9E
331
B2D
  5
9D4
331
AEF
  5
996
331
A9A
  5
941
331
A7B
  5
922
331
A07
  5
B68
331
A26
  5
8CD
331
A45
  5
8EC
331
AB9
  5
960
331
B0E
  5
9B5
331
B4C
  5
B87
331
B82
  5
9FA
331
BA1
  5
A19
331
602
  5
602
331
621
  5
621
331
801
  5
801
331
7E2
  5
7E2
331
78D
  5
78D
331
74F
  5
74F
331
730
  5
730
331
6DB
  5
6DB
331
686
  5
686
331
667
  5
667
331
6BC
  5
6BC
331
6FA
  5
6FA
331
76E
  5
76E
331
7A4
  5
7A4
331
7C3
  5
7C3
331
9BA
  5
B1B
331
965
  5
AC6
331
927
  5
A88
331
8F1
  5
A52
331
894
  5
894
331
85E
  5
85E
331
820
  5
820
331
83F
  5
83F
331
87D
  5
87D
331
8B3
  5
8B3
331
8D2
  5
A33
331
908
  5
A69
331
946
  5
AA7
331
97C
  5
ADD
331
99B
  5
AFC
331
9D9
  5
B3A
331
BA2
  5
A1A
331
B4D
  5
B88
331
B0F
  5
9B6
331
ABA
  5
961
331
A7C
  5
923
331
A27
  5
8CE
331
A46
  5
8ED
331
A9B
  5
942
331
AF0
  5
997
331
B2E
  5
9D5
331
B64
  5
B9F
331
B83
  5
9FB
331
603
  5
603
331
622
  5
622
331
802
  5
802
331
7C4
  5
7C4
331
78E
  5
78E
331
731
  5
731
331
6FB
  5
6FB
331
6BD
  5
6BD
331
687
  5
687
331
6DC
  5
6DC
331
750
  5
750
331
76F
  5
76F
331
7A5
  5
7A5
331
7E3
  5
7E3
331
9DA
  5
B3B
331
99C
  5
AFD
331
947
  5
AA8
331
8F2
  5
A53
331
8B4
  5
8B4
331
87E
  5
87E
331
840
  5
840
331
821
  5
821
331
85F
  5
85F
331
895
  5
895
331
8D3
  5
A34
331
909
  5
A6A
331
928
  5
A89
331
966
  5
AC7
331
97D
  5
ADE
331
9BB
  5
B1C
331
B65
  5
BA0
331
B2F
  5
9D6
331
AF1
  5
998
331
A9C
  5
943
331
A7D
  5
924
331
A47
  5
8EE
331
ABB
  5
962
331
B10
  5
9B7
331
B4E
  5
B89
331
B84
  5
9FC
331
BA3
  5
A1B
331
604
  5
604
331
623
  5
623
331
803
  5
803
331
7E4
  5
7E4
331
78F
  5
78F
331
751
  5
751
331
732
  5
732
331
6BE
  5
6BE
331
6DD
  5
6DD
331
6FC
  5
6FC
331
770
  5
770
331
7A6
  5
7A6
331
7C5
  5
7C5
331
9BC
  5
B1D
331
967
  5
AC8
331
929
  5
A8A
331
8F3
  5
A54
331
896
  5
896
331
860
  5
860
331
822
  5
822
331
841
  5
841
331
87F
  5
87F
331
8B5
  5
8B5
331
8D4
  5
A35
331
90A
  5
A6B
331
948
  5
AA9
331
97E
  5
ADF
331
99D
  5
AFE
331
9DB
  5
B3C
331
B85
  5
9FD
331
B4F
  5
B8A
331
B11
  5
9B8
331
ABC
  5
963
331
A7E
  5
925
331
A9D
  5
944
331
AF2
  5
999
331
B30
  5
9D7
331
B66
  5
BA1
331
BA4
  5
A1C
331
605
  5
605
331
624
  5
624
331
804
  5
804
331
7C6
  5
7C6
331
771
  5
771
331
733
  5
733
331
6FD
  5
6FD
331
6BF
  5
6BF
331
6DE
  5
6DE
331
752
  5
752
331
7A7
  5
7A7
331
7E5
  5
7E5
331
9DC
  5
B3D
331
99E
  5
AFF
331
949
  5
AAA
331
8F4
  5
A55
331
8B6
  5
8B6
331
897
  5
897
331
823
  5
823
331
842
  5
842
331
861
  5
861
331
8D5
  5
A36
331
90B
  5
A6C
331
92A
  5
A8B
331
968
  5
AC9
331
97F
  5
AE0
331
9BD
  5
B1E
331
B67
  5
BA2
331
B31
  5
9D8
331
AF3
  5
99A
331
A9E
  5
945
331
A7F
  5
926
331
ABD
  5
964
331
B12
  5
9B9
331
B86
  5
9FE
331
BA5
  5
A1D
331
606
  5
606
331
625
  5
625
331
805
  5
805
331
7E6
  5
7E6
331
7A8
  5
7A8
331
753
  5
753
331
734
  5
734
331
6DF
  5
6DF
331
6FE
  5
6FE
331
772
  5
772
331
7C7
  5
7C7
331
9BE
  5
B1F
331
969
  5
ACA
331
92B
  5
A8C
331
8D6
  5
A37
331
898
  5
898
331
862
  5
862
331
824
  5
824
331
843
  5
843
331
8B7
  5
8B7
331
8F5
  5
A56
331
90C
  5
A6D
331
94A
  5
AAB
331
980
  5
AE1
331
99F
  5
B00
331
9DD
  5
B3E
331
B87
  5
9FF
331
B68
  5
BA3
331
AF4
  5
99B
331
ABE
  5
965
331
A9F
  5
946
331
B13
  5
9BA
331
B32
  5
9D9
331
BA6
  5
A1E
331
607
  5
607
331
626
  5
626
331
806
  5
806
331
7C8
  5
7C8
331
773
  5
773
331
735
  5
735
331
6FF
  5
6FF
331
754
  5
754
331
7A9
  5
7A9
331
7E7
  5
7E7
331
9DE
  5
B3F
331
981
  5
AE2
331
94B
  5
AAC
331
8F6
  5
A57
331
8B8
  5
8B8
331
899
  5
899
331
825
  5
825
331
844
  5
844
331
863
  5
863
331
8D7
  5
A38
331
90D
  5
A6E
331
92C
  5
A8D
331
96A
  5
ACB
331
9A0
  5
B01
331
9BF
  5
B20
331
BA7
  5
A1F
331
B69
  5
BA4
331
B33
  5
9DA
331
AF5
  5
99C
331
ABF
  5
966
331
B14
  5
9BB
331
B88
  5
A00
331
608
  5
608
331
627
  5
627
331
807
  5
807
331
7E8
  5
7E8
331
7AA
  5
7AA
331
755
  5
755
331
736
  5
736
331
774
  5
774
331
7C9
  5
7C9
331
9C0
  5
B21
331
96B
  5
ACC
331
92D
  5
A8E
331
8D8
  5
A39
331
89A
  5
89A
331
845
  5
845
331
826
  5
826
331
864
  5
864
331
8B9
  5
8B9
331
8F7
  5
A58
331
90E
  5
A6F
331
94C
  5
AAD
331
982
  5
AE3
331
9A1
  5
B02
331
9DF
  5
B40
331
B89
  5
A01
331
B6A
  5
BA5
331
AF6
  5
99D
331
B15
  5
9BC
331
B34
  5
9DB
331
BA8
  5
A20
331
609
  5
609
331
7CA
  5
7CA
331
775
  5
775
331
737
  5
737
331
756
  5
756
331
7AB
  5
7AB
331
7E9
  5
7E9
331
9E0
  5
B41
331
983
  5
AE4
331
94D
  5
AAE
331
90F
  5
A70
331
8BA
  5
8BA
331
89B
  5
89B
331
827
  5
827
331
846
  5
846
331
865
  5
865
331
8D9
  5
A3A
331
92E
  5
A8F
331
96C
  5
ACD
331
9A2
  5
B03
331
9C1
  5
B22
331
B6B
  5
BA6
331
B16
  5
9BD
331
AF7
  5
99E
331
B35
  5
9DC
331
B8A
  5
A02
331
60A
  5
60A
331
7EA
  5
7EA
331
7AC
  5
7AC
331
757
  5
757
331
776
  5
776
331
7CB
  5
7CB
331
9A3
  5
B04
331
96D
  5
ACE
331
92F
  5
A90
331
8DA
  5
A3B
331
89C
  5
89C
331
847
  5
847
331
866
  5
866
331
8BB
  5
8BB
331
910
  5
A71
331
94E
  5
AAF
331
984
  5
AE5
331
9C2
  5
B23
331
9E1
  5
B42
331
B8B
  5
A03
331
B6C
  5
BA7
331
B17
  5
9BE
331
B36
  5
9DD
331
60B
  5
60B
331
7AD
  5
7AD
331
777
  5
777
331
7CC
  5
7CC
331
7EB
  5
7EB
331
9E2
  5
B43
331
985
  5
AE6
331
94F
  5
AB0
331
911
  5
A72
331
8BC
  5
8BC
331
867
  5
867
331
89D
  5
89D
331
8DB
  5
A3C
331
930
  5
A91
331
96E
  5
ACF
331
9A4
  5
B05
331
9C3
  5
B24
331
B6D
  5
BA8
331
B37
  5
9DE
331
B8C
  5
A04
331
60C
  5
60C
331
7EC
  5
7EC
331
7AE
  5
7AE
331
7CD
  5
7CD
331
9E3
  5
B44
331
9A5
  5
B06
331
96F
  5
AD0
331
912
  5
A73
331
8DC
  5
A3D
331
89E
  5
89E
331
8BD
  5
8BD
331
931
  5
A92
331
950
  5
AB1
331
986
  5
AE7
331
9C4
  5
B25
331
B8D
  5
A05
331
B6E
  5
9E6
331
60D
  5
60D
331
7AF
  5
7AF
331
7CE
  5
7CE
331
7ED
  5
7ED
331
9C5
  5
B26
331
987
  5
AE8
331
951
  5
AB2
331
913
  5
A74
331
8BE
  5
8BE
331
89F
  5
89F
331
8DD
  5
A3E
331
932
  5
A93
331
9A6
  5
B07
331
9E4
  5
B45
331
B6F
  5
9E7
331
B8E
  5
A06
331
60E
  5
60E
331
7CF
  5
7CF
331
7EE
  5
7EE
331
9E5
  5
B46
331
9A7
  5
B08
331
988
  5
AE9
331
914
  5
A75
331
8DE
  5
A3F
331
8BF
  5
8BF
331
933
  5
A94
331
952
  5
AB3
331
9C6
  5
B27
331
B8F
  5
A07
331
60F
  5
60F
331
7EF
  5
7EF
331
9C7
  5
B28
331
989
  5
AEA
331
934
  5
A95
331
915
  5
A76
331
8DF
  5
A40
331
953
  5
AB4
331
9A8
  5
B09
331
9E6
  5
B47
331
9E7
  5
B48
331
9A9
  5
B0A
331
98A
  5
AEB
331
916
  5
A77
331
935
  5
A96
331
954
  5
AB5
331
9C8
  5
B29
331
9C9
  5
B2A
331
98B
  5
AEC
331
936
  5
A97
331
917
  5
A78
331
955
  5
AB6
331
9AA
  5
B0B
331
9AB
  5
B0C
331
956
  5
AB7
331
937
  5
A98
331
98C
  5
AED
331
9CA
  5
B2B
331
9CB
  5
B2C
331
98D
  5
AEE
331
957
  5
AB8
331
9AC
  5
B0D
331
9AD
  5
B0E
331
98E
  5
AEF
331
9CC
  5
B2D
331
9CD
  5
B2E
331
98F
  5
AF0
331
9AE
  5
B0F
331
9AF
  5
B10
331
9CE
  5
B2F
331
9CF
  5
B30
331
628
  5
628
331
9E8
  5
B49
331
648
  5
648
331
629
  5
629
331
9E9
  5
B4A
331
A08
  5
B69
331
668
  5
668
331
62A
  5
62A
331
649
  5
649
331
A09
  5
B6A
331
9EA
  5
B4B
331
A28
  5
8CF
331
688
  5
688
331
64A
  5
64A
331
62B
  5
62B
331
669
  5
669
331
A29
  5
8D0
331
9EB
  5
B4C
331
A0A
  5
B6B
331
A48
  5
8EF
331
6A0
  5
6A0
331
66A
  5
66A
331
62C
  5
62C
331
64B
  5
64B
331
689
  5
689
331
A49
  5
8F0
331
A0B
  5
B6C
331
9EC
  5
B4D
331
A2A
  5
8D1
331
A60
  5
907
331
6C0
  5
6C0
331
68A
  5
68A
331
62D
  5
62D
331
64C
  5
64C
331
66B
  5
66B
331
6A1
  5
6A1
331
A80
  5
927
331
A2B
  5
8D2
331
9ED
  5
B4E
331
A0C
  5
B6D
331
A4A
  5
8F1
331
A61
  5
908
  0
XRECORD
  5
BC6
102
{ACAD_REACTORS
330
BC5
102
}
330
BC5
100
AcDbXrecord
340
1B
  0
MLINESTYLE
  5
18
102
{ACAD_REACTORS
330
17
102
}
330
17
100
AcDbMlineStyle
  2
STANDARD
 70
     0
  3

 62
   256
 51
90.0
 52
90.0
 71
     2
 49
0.5
 62
   256
  6
BYLAYER
 49
-0.5
 62
   256
  6
BYLAYER
  0
XRECORD
  5
2D
102
{ACAD_REACTORS
330
2C
102
}
330
2C
100
AcDbXrecord
  1
MOTO
  1
*
  1
*
  1
*
 70
     0
  1
*
  1
*
  0
XRECORD
  5
2E
102
{ACAD_REACTORS
330
2C
102
}
330
2C
100
AcDbXrecord
  1
元図
  1
*
  1
*
  1
*
 70
     0
  1
*
  1
*
  0
ENDSEC
  0
EOF
